Menu:

 

Search:

 

dido - here with me:

 



Title: Here With Me
Artist: 
Album: No Angel
Author: 


Track 1: synth 2

E|--------|--------|--------|--------|--------|--------|--------|--------|--------|
B|-8------|-8------|--------|--------|--------|--------|--------|--------|--------|
G|-7------|-7------|--------|--------|--------|--------|--------|--------|--------|
D|--------|--------|--------|--------|--------|--------|--------|--------|--------|
A|-5------|-5------|--------|--------|--------|--------|--------|--------|--------|
E|-3------|-3------|--------|--------|--------|--------|--------|--------|--------|


E|--------|-------------|--------|--------|--------|--------|--------|--------|--------|
B|--------|-------------|--------|--------|--------|--------|--------|--------|--------|
G|--------|-------------|--------|--------|--------|--------|--------|--------|--------|
D|--------|-------------|--------|--------|--------|--------|--------|--------|--------|
A|--------|-------------|--------|--------|--------|--------|--------|--------|--------|
E|--------|-------------|--------|--------|--------|--------|--------|--------|--------|


E|--------|--------|--------|--------|--------|--------|--------|--------|--------|
B|--------|--------|--------|--------|--------|--------|--------|--------|--------|
G|--------|--------|--------|--------|--------|--------|--------|--------|--------|
D|--------|--------|--------|--------|--------|--------|--------|--------|--------|
A|--------|--------|--------|--------|--------|--------|--------|--------|--------|
E|--------|--------|--------|--------|--------|--------|--------|--------|--------|


E|--------|--------|--------|--------|--------|--------|--------|--------|--------|
B|--------|--------|--------|--------|--------|--------|--------|--------|--------|
G|--------|--------|--------|--------|--------|--------|--------|--------|--------|
D|--------|--------|--------|--------|--------|--------|--------|--------|--------|
A|--------|--------|--------|--------|--------|--------|--------|--------|--------|
E|--------|--------|--------|--------|--------|--------|--------|--------|--------|


E|--------|--------|--------|--------|--------|--------|--------|--------|--------|
B|--------|--------|--------|--------|--------|--------|--------|--------|--------|
G|--------|--------|--------|--------|--------|--------|--------|--------|--------|
D|--------|--------|--------|--------|--------|--------|--------|--------|--------|
A|--------|--------|--------|--------|--------|--------|--------|--------|--------|
E|--------|--------|--------|--------|--------|--------|--------|--------|--------|


E|--------|--------|--------|--------|--------|--------|--------|--------|--------|
B|--------|--------|--------|--------|--------|--------|--------|--------|--------|
G|--------|--------|--------|--------|--------|--------|--------|--------|--------|
D|--------|--------|--------|--------|--------|--------|--------|--------|--------|
A|--------|--------|--------|--------|--------|--------|--------|--------|--------|
E|--------|--------|--------|--------|--------|--------|--------|--------|--------|


E|--------|--------|--------|--------|--------|--------|--------|--------|--------|
B|--------|--------|--------|--------|--------|--------|--------|--------|--------|
G|--------|--------|--------|--------|--------|--------|--------|--------|--------|
D|--------|--------|--------|--------|--------|--------|--------|--------|--------|
A|--------|--------|--------|--------|--------|--------|--------|--------|--------|
E|--------|--------|--------|--------|--------|--------|--------|--------|--------|


E|--------|--------|--------|--------|--------|--------|--------|--------|--------|
B|--------|--------|--------|--------|--------|--------|--------|--------|--------|
G|--------|--------|--------|--------|--------|--------|--------|--------|--------|
D|--------|--------|--------|--------|--------|--------|--------|--------|--------|
A|--------|--------|--------|--------|--------|--------|--------|--------|--------|
E|--------|--------|--------|--------|--------|--------|--------|--------|--------|


E|--------|--------|--------|--------|--------|--------|--------|--------|--------|
B|--------|--------|--------|--------|--------|--------|--------|--------|--------|
G|--------|--------|--------|--------|--------|--------|--------|--------|--------|
D|--------|--------|--------|--------|--------|--------|--------|--------|--------|
A|--------|--------|--------|--------|--------|--------|--------|--------|--------|
E|--------|--------|--------|--------|--------|--------|--------|--------|--------|


E|--------|--------|--------|--------|--------|--------|--------|--------|--------|
B|--------|--------|--------|--------|--------|--------|--------|--------|--------|
G|--------|--------|--------|--------|--------|--------|--------|--------|--------|
D|--------|--------|--------|--------|--------|--------|--------|--------|--------|
A|--------|--------|--------|--------|--------|--------|--------|--------|--------|
E|--------|--------|--------|--------|--------|--------|--------|--------|--------|


E|--------|
B|--------|
G|--------|
D|--------|
A|--------|
E|--------|





Track 2: synth

E|--------|--------|-3------|-3------|-2------|-2------|-3------|-3------|-2------|
B|-8------|-8------|-3------|-3------|-3------|-3------|-3------|-3------|-3------|
G|--------|--------|-4------|-4------|-4------|-4------|-4------|-4------|-4------|
D|-5------|-5------|-5------|-5------|-4------|-4------|-5------|-5------|-4------|
A|--------|--------|-5------|-5------|-2------|-2------|-5------|-5------|-2------|
E|-3------|-3------|--------|--------|--------|--------|--------|--------|--------|


E|-2------|-3------|--------|--------|--------|--------|--------|--------|--------|
B|-3------|-3------|--------|--------|--------|--------|--------|--------|--------|
G|-4------|-4------|--------|--------|--------|--------|--------|--------|--------|
D|-4------|-5------|--------|--------|--------|--------|--------|--------|--------|
A|-2------|-5------|--------|--------|--------|--------|--------|--------|--------|
E|--------|--------|--------|--------|--------|--------|--------|--------|--------|


E|-0------|-0------|-2------|-2------|--------|--------|--------|--------|--------|
B|-0------|-0------|-2------|-2------|--------|--------|--------|--------|--------|
G|-0------|-0------|-2------|-2------|--------|--------|--------|--------|--------|
D|-2------|-2------|-4------|-4------|--------|--------|--------|--------|--------|
A|-2------|-2------|-4------|-4------|--------|--------|--------|--------|--------|
E|--------|--------|--------|--------|--------|--------|--------|--------|--------|


E|--------|--------|--------|--------|-3------|-3------|-2------|-2------|-3------|
B|--------|--------|--------|--------|-3------|-3------|-3------|-3------|-3------|
G|--------|--------|--------|--------|-4------|-4------|-4------|-4------|-4------|
D|--------|--------|--------|--------|-5------|-5------|-4------|-4------|-5------|
A|--------|--------|--------|--------|-5------|-5------|-2------|-2------|-5------|
E|--------|--------|--------|--------|--------|--------|--------|--------|--------|


E|-3------|-2------|-2-------------------|-3------|-3------|-2------|-2-------------------|
B|-3------|-3------|-3---------2----3----|-3------|-3------|-3------|-3---------2----3----|
G|-4------|-4------|-4-------------------|-4------|-4------|-4------|-4-------------------|
D|-5------|-4------|-4-------------------|-5------|-5------|-4------|-4-------------------|
A|-5------|-2------|-2-------------------|-5------|-5------|-2------|-2-------------------|
E|--------|--------|---------------------|--------|--------|--------|---------------------|


E|-0------|-0-----------|-2------|-2------|--------|--------|--------|--------|--------|
B|-5------|-5------10---|-7------|-7------|-8------|-7------|-7------|-7------|-7------|
G|-0------|-0-----------|-2------|-2------|--------|--------|--------|--------|--------|
D|-2------|-2-----------|-4------|-4------|-5------|-5------|-4------|-4------|--------|
A|-2------|-2-----------|-4------|-4------|--------|--------|--------|--------|--------|
E|--------|-------------|--------|--------|--------|--------|--------|--------|--------|


E|--------|--------|--------|--------|--------|--------|--------|--------|--------|
B|-7------|-5------|-5------|-8------|-7------|-7------|-7------|-7------|-7------|
G|--------|--------|--------|--------|--------|--------|--------|--------|--------|
D|--------|--------|--------|-5------|-5------|-4------|-4------|--------|--------|
A|--------|--------|-0------|--------|--------|--------|--------|--------|--------|
E|--------|--------|--------|--------|--------|--------|--------|--------|--------|


E|--------|--------|-0------|-0------|-2------|-2------|-0------|-0------|-2------|
B|-5------|-5------|-0------|-0------|-2------|-2------|-0------|-0------|-2------|
G|--------|--------|-0------|-0------|-2------|-2------|-0------|-0------|-2------|
D|--------|--------|-2------|-2------|-4------|-4------|-2------|-2------|-4------|
A|--------|-0------|-2------|-2------|-4------|-4------|-2------|-2------|-4------|
E|--------|--------|--------|--------|--------|--------|--------|--------|--------|


E|-2------|--------|--------|--------|--------|--------|--------|--------|--------|
B|-2------|-8------|-7------|-7------|-7------|-7------|-7------|-5------|-5------|
G|-2------|--------|--------|--------|--------|--------|--------|--------|--------|
D|-4------|-5------|-5------|-4------|-4------|--------|--------|--------|--------|
A|-4------|--------|--------|--------|--------|--------|--------|--------|-0------|
E|--------|--------|--------|--------|--------|--------|--------|--------|--------|


E|--------|--------|--------|--------|--------|--------|--------|--------|--------|
B|-8------|-7------|-7------|-7------|-7------|-7------|-5------|-5------|--------|
G|--------|--------|--------|--------|--------|--------|--------|--------|--------|
D|-5------|-5------|-4------|-4------|--------|--------|--------|--------|--------|
A|--------|--------|--------|--------|--------|--------|--------|-0------|--------|
E|--------|--------|--------|--------|--------|--------|--------|--------|--------|


E|--------|--------|--------|
B|--------|--------|--------|
G|--------|--------|--------|
D|--------|--------|--------|
A|--------|--------|--------|
E|--------|--------|--------|





Track 3: synth effects

E|--------|--------|---------------------------|---------------------------|---------------------------|
B|--------|--------|---------------------------|---------------------------|---------------------------|
G|--------|--------|-------4---4-----4--4--4---|-4-----4---4-----4--4--4---|-------4---4-----4--4--4---|
D|--------|--------|-------5---5-----5--5--5---|-5-----5---5-----5--5--5---|-------4---4-----4--4--4---|
A|--------|--------|---------------------------|---------------------------|---------------------------|
E|--------|--------|---------------------------|---------------------------|---------------------------|


E|---------------------------|---------------------------|---------------------------|
B|---------------------------|---------------------------|---------------------------|
G|-4-----4---4-----4--4--4---|-------4---4-----4--4--4---|-4-----4---4-----4--4--4---|
D|-4-----4---4-----4--4--4---|-------5---5-----5--5--5---|-5-----5---5-----5--5--5---|
A|---------------------------|---------------------------|---------------------------|
E|---------------------------|---------------------------|---------------------------|


E|---------------------------|---------------------------|-------------------------------|
B|---------------------------|---------------------------|-------------------------------|
G|-------4---4-----4--4--4---|-4-----4---4-----4--4--4---|-----------4---4-----4--4--4---|
D|-------4---4-----4--4--4---|-4-----4---4-----4--4--4---|-----------5---5-----5--5--5---|
A|---------------------------|---------------------------|-------------------------------|
E|---------------------------|---------------------------|-------------------------------|


E|-------------|---------------------------|---------------------------|---------------------------|
B|-------------|---------------------------|---------------------------|---------------------------|
G|-4-----------|-4---4-----4--4--4---4-----|-4---4-----4--4--4---4-----|-------4---4-----4--4--4---|
D|-5-----------|-4---4-----4--4--4---4-----|-4---4-----4--4--4---4-----|-------5---5-----5--5--5---|
A|-------------|---------------------------|---------------------------|---------------------------|
E|-------------|---------------------------|---------------------------|---------------------------|


E|-------------|---------------------------|---------------------------|-----------------------|
B|-------------|---------------------------|---------------------------|-----------------------|
G|-4-----------|-4---4-----4--4--4---4-----|-4---4-----4--4--4---4-----|-------------0---0-----|
D|-5-----------|-4---4-----4--4--4---4-----|-4---4-----4--4--4---4-----|---------4-------------|
A|-------------|---------------------------|---------------------------|-----2-----------------|
E|-------------|---------------------------|---------------------------|-0---------------------|


E|-----------------------|-----------------------|-----------------------|--------|
B|-----------------------|-----------------------|-----------------------|--------|
G|-------------0---0-----|---------1---2---2-----|---------1---2---2-----|--------|
D|---------4-------------|-----------------------|-----------------------|--------|
A|-----2-----------------|-----4-----------------|-----4-----------------|--------|
E|-0---------------------|-2---------------------|-2---------------------|--------|


E|--------|--------|--------|--------|--------|--------|--------|--------|--------|
B|--------|--------|--------|--------|--------|--------|--------|--------|--------|
G|--------|--------|--------|--------|--------|--------|--------|--------|--------|
D|--------|--------|--------|--------|--------|--------|--------|--------|--------|
A|--------|--------|--------|--------|--------|--------|--------|--------|--------|
E|--------|--------|--------|--------|--------|--------|--------|--------|--------|


E|--------|--------|--------|--------|--------|--------|--------|--------|--------|
B|--------|--------|--------|--------|--------|--------|--------|--------|--------|
G|--------|--------|--------|--------|--------|--------|--------|--------|--------|
D|--------|--------|--------|--------|--------|--------|--------|--------|--------|
A|--------|--------|--------|--------|--------|--------|--------|--------|--------|
E|--------|--------|--------|--------|--------|--------|--------|--------|--------|


E|--------|--------|--------|--------|--------|--------|--------|--------|--------|
B|--------|--------|--------|--------|--------|--------|--------|--------|--------|
G|--------|--------|--------|--------|--------|--------|--------|--------|--------|
D|--------|--------|--------|--------|--------|--------|--------|--------|--------|
A|--------|--------|--------|--------|--------|--------|--------|--------|--------|
E|--------|--------|--------|--------|--------|--------|--------|--------|--------|


E|--------|--------|--------|--------|--------|--------|--------|--------|--------|
B|--------|--------|--------|--------|--------|--------|--------|--------|--------|
G|--------|--------|--------|--------|--------|--------|--------|--------|--------|
D|--------|--------|--------|--------|--------|--------|--------|--------|--------|
A|--------|--------|--------|--------|--------|--------|--------|--------|--------|
E|--------|--------|--------|--------|--------|--------|--------|--------|--------|


E|--------|--------|--------|--------|--------|--------|--------|--------|--------|
B|--------|--------|--------|--------|--------|--------|--------|--------|--------|
G|--------|--------|--------|--------|--------|--------|--------|--------|--------|
D|--------|--------|--------|--------|--------|--------|--------|--------|--------|
A|--------|--------|--------|--------|--------|--------|--------|--------|--------|
E|--------|--------|--------|--------|--------|--------|--------|--------|--------|


E|--------|--------|--------|--------|--------|--------|--------|--------|--------|
B|--------|--------|--------|--------|--------|--------|--------|--------|--------|
G|--------|--------|--------|--------|--------|--------|--------|--------|--------|
D|--------|--------|--------|--------|--------|--------|--------|--------|--------|
A|--------|--------|--------|--------|--------|--------|--------|--------|--------|
E|--------|--------|--------|--------|--------|--------|--------|--------|--------|


E|--------|--------|--------|--------|--------|--------|--------|--------|--------|
B|--------|--------|--------|--------|--------|--------|--------|--------|--------|
G|--------|--------|--------|--------|--------|--------|--------|--------|--------|
D|--------|--------|--------|--------|--------|--------|--------|--------|--------|
A|--------|--------|--------|--------|--------|--------|--------|--------|--------|
E|--------|--------|--------|--------|--------|--------|--------|--------|--------|


E|--------|--------|--------|--------|--------|
B|--------|--------|--------|--------|--------|
G|--------|--------|--------|--------|--------|
D|--------|--------|--------|--------|--------|
A|--------|--------|--------|--------|--------|
E|--------|--------|--------|--------|--------|





Track 4: synth effects

E|--------|--------|--------|--------|--------|--------|--------|--------|--------|
B|--------|--------|--------|--------|--------|--------|--------|--------|--------|
G|--------|--------|--------|--------|--------|--------|--------|--------|--------|
D|--------|--------|--------|--------|--------|--------|--------|--------|--------|
A|--------|--------|--------|--------|--------|--------|--------|--------|--------|
E|--------|--------|--------|--------|--------|--------|--------|--------|--------|


E|--------|--------|-3------|-2------|-2------|-3------|-3------|-2------|-2------|
B|--------|--------|-3------|-3------|-3------|-3------|-3------|-3------|-3------|
G|--------|--------|-4------|-4------|-4------|-4------|-4------|-4------|-4------|
D|--------|--------|-5------|-4------|-4------|-5------|-5------|-4------|-4------|
A|--------|--------|-5------|-2------|-2------|-5------|-5------|-2------|-2------|
E|--------|--------|--------|--------|--------|--------|--------|--------|--------|


E|--------|--------|--------|--------|--------|--------|--------|--------|--------|
B|--------|--------|--------|--------|--------|--------|--------|--------|--------|
G|--------|--------|--------|--------|--------|--------|--------|--------|--------|
D|--------|--------|--------|--------|--------|--------|--------|--------|--------|
A|--------|--------|--------|--------|--------|--------|--------|--------|--------|
E|--------|--------|--------|--------|--------|--------|--------|--------|--------|


E|--------|--------|--------|--------|--------|--------|--------|--------|--------|
B|--------|--------|--------|--------|--------|--------|--------|--------|--------|
G|--------|--------|--------|--------|--------|--------|--------|--------|--------|
D|--------|--------|--------|--------|--------|--------|--------|--------|--------|
A|--------|--------|--------|--------|--------|--------|--------|--------|--------|
E|--------|--------|--------|--------|--------|--------|--------|--------|--------|


E|--------|--------|--------|--------|--------|--------|--------|--------|--------|
B|--------|--------|--------|--------|--------|--------|--------|--------|--------|
G|--------|--------|--------|--------|--------|--------|--------|--------|--------|
D|--------|--------|--------|--------|--------|--------|--------|--------|--------|
A|--------|--------|--------|--------|--------|--------|--------|--------|--------|
E|--------|--------|--------|--------|--------|--------|--------|--------|--------|


E|--------|--------|--------|--------|--------|--------|--------|--------|--------|
B|--------|--------|--------|--------|--------|--------|--------|--------|--------|
G|--------|--------|--------|--------|--------|--------|--------|--------|--------|
D|--------|--------|--------|--------|--------|--------|--------|--------|--------|
A|--------|--------|--------|--------|--------|--------|--------|--------|--------|
E|--------|--------|--------|--------|--------|--------|--------|--------|--------|


E|--------|--------|--------|--------|--------|--------|--------|--------|--------|
B|--------|--------|--------|--------|--------|--------|--------|--------|--------|
G|--------|--------|--------|--------|--------|--------|--------|--------|--------|
D|--------|--------|--------|--------|--------|--------|--------|--------|--------|
A|--------|--------|--------|--------|--------|--------|--------|--------|--------|
E|--------|--------|--------|--------|--------|--------|--------|--------|--------|


E|--------|--------|--------|--------|--------|--------|--------|--------|--------|
B|--------|--------|--------|--------|--------|--------|--------|--------|--------|
G|--------|--------|--------|--------|--------|--------|--------|--------|--------|
D|--------|--------|--------|--------|--------|--------|--------|--------|--------|
A|--------|--------|--------|--------|--------|--------|--------|--------|--------|
E|--------|--------|--------|--------|--------|--------|--------|--------|--------|


E|--------|--------|--------|--------|--------|--------|--------|--------|--------|
B|--------|--------|--------|--------|--------|--------|--------|--------|--------|
G|--------|--------|--------|--------|--------|--------|--------|--------|--------|
D|--------|--------|--------|--------|--------|--------|--------|--------|--------|
A|--------|--------|--------|--------|--------|--------|--------|--------|--------|
E|--------|--------|--------|--------|--------|--------|--------|--------|--------|


E|--------|--------|--------|--------|--------|--------|--------|--------|--------|
B|--------|--------|--------|--------|--------|--------|--------|--------|--------|
G|--------|--------|--------|--------|--------|--------|--------|--------|--------|
D|--------|--------|--------|--------|--------|--------|--------|--------|--------|
A|--------|--------|--------|--------|--------|--------|--------|--------|--------|
E|--------|--------|--------|--------|--------|--------|--------|--------|--------|


E|--------|
B|--------|
G|--------|
D|--------|
A|--------|
E|--------|





Track 5: dido (acoustic)

E|--------|--------|--------|--------|--------|--------|--------|--------|--------|
B|--------|--------|--------|--------|--------|--------|--------|--------|--------|
G|--------|--------|--------|--------|--------|--------|--------|--------|--------|
D|--------|--------|--------|--------|--------|--------|--------|--------|--------|
A|--------|--------|--------|--------|--------|--------|--------|--------|--------|
E|--------|--------|--------|--------|--------|--------|--------|--------|--------|


E|--------|-----3-------3-------3-----------|-----3-------3-------3-----------|-----2-------2-------2-----------|
B|--------|---------------------------------|---------------------------------|-----3-------3-------3-----------|
G|--------|---------------------------------|---------------------------------|---------------------------------|
D|--------|---------------------------------|---------------------------------|---------------------------------|
A|--------|---------------------------------|---------------------------------|---------------------------------|
E|--------|---------------------------------|---------------------------------|---------------------------------|


E|-----2-------2-------2-----------|----------------|--------|--------|--------|--------|
B|-----3-------3-------3-----------|----------------|--------|--------|--------|--------|
G|---------------------------------|----------------|--------|--------|--------|--------|
D|---------------------------------|----------------|--------|--------|--------|--------|
A|---------------------------------|----------------|--------|--------|--------|--------|
E|---------------------------------|----------------|--------|--------|--------|--------|


E|--------|--------|--------|-3---3--3--3----3---3---3--3----|-2---2--2--2----2---2---2--2----|
B|--------|--------|--------|-0---0--0--0----0---0---0--0----|-0---0--0--0----0---0---0--0----|
G|--------|--------|--------|-0---0--0--0----0---0---0--0----|-4---4--4--4----4---4---4--4----|
D|--------|--------|--------|-0---0--0--0--------0---0--0----|-0---0--0--0--------0---0--0----|
A|--------|--------|--------|-2------2-----------2-----------|--------------------------------|
E|--------|--------|--------|-3------------------3-----------|--------------------------------|


E|-2---2--2--2----2---2---2--2----|-2---2--2--2----2---2---2--2----|-2---2--2--2----2---2---2--2----|
B|-3---3--3--3----3---3---3--3----|-3---3--3--3----3---3---3--3----|-3---3--3--3----3---3---3--3----|
G|-2---2--2--2----2---2---2--2----|-2---2--2--2----2---2---2--2----|-4---4--4--4----4---4---4--4----|
D|-0---0--0--0--------0------0----|-0---0--0--0--------0------0----|-4---4--4--4----4---4---4--4----|
A|--------------------------------|--------------------------------|-2---2--2-----------2-----------|
E|--------------------------------|--------------------------------|--------------------------------|


E|-2---2--2--2----2---2---2--2----|-0---0--0--0----0---0---0--0----|-0---0--0--0----0---0---0--0----|
B|-3---3--3--3----3---3---3--3----|-2---2--2--2----2---2---2--2----|-2---2--2--2----2---2---2--2----|
G|-4---4--4--4----4---4---4--4----|-2---2--2--2----2---2---2--2----|-2---2--2--2----2---2---2--2----|
D|-4---4--4--4----4---4---4--4----|-2---2--2--2----2---2---2--2----|-2---2--2--2----2---2---2--2----|
A|-2---2--2-----------2-----------|-0---0--0-----------0-----------|-0---0--0-----------0-----------|
E|--------------------------------|--------------------------------|--------------------------------|


E|--------|-3---3--3--3----3---3---3--3----|-3---3--3--3----3---3---3--3----|-2---2--2--2----2---2---2--2----|
B|--------|-3---3--3--3----3---3---3--3----|-3---3--3--3----3---3---3--3----|-3---3--3--3----3---3---3--3----|
G|--------|-4---4--4--4----4---4---4--4----|-4---4--4--4----4---4---4--4----|-4---4--4--4----4---4---4--4----|
D|--------|-5---5--5--5--------5---5--5----|-5---5--5--5----5---5---5--5----|-4---4--4--4----4---4---4--4----|
A|--------|-5------5-----------5-----------|-----------5----5----------5----|-2---2--2-----------2-----------|
E|--------|-3------------------3-----------|-----3----------3----------3----|--------------------------------|


E|-2---2--2--2----2---2---2--2----|-3---3--3--3----3---3---3--3----|-3---3--3--3----3---3---3--3----|
B|-3---3--3--3----3---3---3--3----|-3---3--3--3----3---3---3--3----|-3---3--3--3----3---3---3--3----|
G|-4---4--4--4----4---4---4--4----|-4---4--4--4----4---4---4--4----|-4---4--4--4----4---4---4--4----|
D|-4---4--4--4----4---4---4--4----|-5---5--5--5--------5---5--5----|-5---5--5--5----5---5---5--5----|
A|-2---2--2-----------2-----------|-5------5-----------5-----------|-----------5----5----------5----|
E|--------------------------------|-3------------------3-----------|----------------3----------3----|


E|-2---2--2--2----2---2---2--2----|-2---2--2--2----2---2---2--2----|-3---3--3--3----3---3---3--3----|
B|-3---3--3--3----3---3---3--3----|-3---3--3--3----3---3---3--3----|-3---3--3--3----3---3---3--3----|
G|-4---4--4--4----4---4---4--4----|-4---4--4--4----4---4---4--4----|-4---4--4--4----4---4---4--4----|
D|-4---4--4--4----4---4---4--4----|-4---4--4--4----4---4---4--4----|-5---5--5--5--------5---5--5----|
A|-2---2--2-----------2-----------|-2---2--2-----------2-----------|-5------5-----------5-----------|
E|--------------------------------|--------------------------------|-3------------------3-----------|


E|-3---3--3--3----3---3---3--3----|-2---2--2--2----2---2---2--2----|-2---2--2--2----2---2---2--2----|
B|-3---3--3--3----3---3---3--3----|-3---3--3--3----3---3---3--3----|-3---3--3--3----3---3---3--3----|
G|-4---4--4--4----4---4---4--4----|-4---4--4--4----4---4---4--4----|-4---4--4--4----4---4---4--4----|
D|-5---5--5--5----5---5---5--5----|-4---4--4--4----4---4---4--4----|-4---4--4--4----4---4---4--4----|
A|-----------5----5----------5----|-2---2--2-----------2-----------|-2---2--2-----------2-----------|
E|----------------3----------3----|--------------------------------|--------------------------------|


E|-0---0--0--0----0---0---0--0----|-0---0--0--0----0---0---0--0----|-2---2--2--2----2---2---2--2----|
B|-0---0--0--0----0---0---0--0----|-0---0--0--0----0---0---0--0----|-2---2--2--2----2---2---2--2----|
G|-0---0--0--0----0---0---0--0----|-0---0--0--0----0---0---0--0----|-2---2--2--2----2---2---2--2----|
D|-2---2--2--2--------2---2--2----|-2---2--2--2--------2---2--2----|-4---4--4--4----4---4---4--4----|
A|-2------2-----------2-----------|-2------2-----------2-----------|-4---4--4-----------4------4----|
E|-0------------------0-----------|-0------------------0-----------|--------------------------------|


E|-2---2--2--2----2---2---2--2----|-3---3--3--3----3---3---3--3----|-2---2--2--2----2---2---2--2----|
B|-2---2--2--2----2---2---2--2----|-0---0--0--0----0---0---0--0----|-0---0--0--0----0---0---0--0----|
G|-2---2--2--2----2---2---2--2----|-0---0--0--0----0---0---0--0----|-4---4--4--4----4---4---4--4----|
D|-2---4--4--4----4---4---4--4----|-0---0--0--0--------0---0--0----|-0---0--0--0--------0---0--0----|
A|-4---4--4-----------4------4----|-2------2-----------2-----------|--------------------------------|
E|--------------------------------|-3------------------3-----------|--------------------------------|


E|-2---2--2--2----2---2---2--2----|-2---2--2--2----2---2---2--2----|-2---2--2--2----2---2---2--2----|
B|-3---3--3--3----3---3---3--3----|-3---3--3--3----3---3---3--3----|-3---3--3--3----3---3---3--3----|
G|-2---2--2--2----2---2---2--2----|-2---2--2--2----2---2---2--2----|-4---4--4--4----4---4---4--4----|
D|-0---0--0--0--------0------0----|-0---0--0--0--------0------0----|-4---4--4--4----4---4---4--4----|
A|--------------------------------|--------------------------------|-2---2--2-----------2-----------|
E|--------------------------------|--------------------------------|--------------------------------|


E|-2---2--2--2----2---2---2--2----|-0---0--0--0----0---0---0--0----|-0---0--0--0----0---0---0--0----|
B|-3---3--3--3----3---3---3--3----|-2---2--2--2----2---2---2--2----|-2---2--2--2----2---2---2--2----|
G|-4---4--4--4----4---4---4--4----|-2---2--2--2----2---2---2--2----|-2---2--2--2----2---2---2--2----|
D|-4---4--4--4----4---4---4--4----|-2---2--2--2----2---2---2--2----|-2---2--2--2----2---2---2--2----|
A|-2---2--2-----------2-----------|-0---0--0-----------0-----------|-0---0--0-----------0-----------|
E|--------------------------------|--------------------------------|--------------------------------|


E|-3---3--3--3----3---3---3--3----|-2---2--2--2----2---2---2--2----|-2---2--2--2----2---2---2--2----|
B|-0---0--0--0----0---0---0--0----|-0---0--0--0----0---0---0--0----|-3---3--3--3----3---3---3--3----|
G|-0---0--0--0----0---0---0--0----|-4---4--4--4----4---4---4--4----|-2---2--2--2----2---2---2--2----|
D|-0---0--0--0--------0---0--0----|-0---0--0--0--------0---0--0----|-0---0--0--0--------0------0----|
A|-2------2-----------2-----------|--------------------------------|--------------------------------|
E|-3------------------3-----------|--------------------------------|--------------------------------|


E|-2---2--2--2----2---2---2--2----|-2---2--2--2----2---2---2--2----|-2---2--2--2----2---2---2--2----|
B|-3---3--3--3----3---3---3--3----|-3---3--3--3----3---3---3--3----|-3---3--3--3----3---3---3--3----|
G|-2---2--2--2----2---2---2--2----|-4---4--4--4----4---4---4--4----|-4---4--4--4----4---4---4--4----|
D|-0---0--0--0--------0------0----|-4---4--4--4----4---4---4--4----|-4---4--4--4----4---4---4--4----|
A|--------------------------------|-2---2--2-----------2-----------|-2---2--2-----------2-----------|
E|--------------------------------|--------------------------------|--------------------------------|


E|-0---0--0--0----0---0---0--0----|-0---0--0--0----0---0---0--0----|--------|--------|
B|-2---2--2--2----2---2---2--2----|-2---2--2--2----2---2---2--2----|--------|--------|
G|-2---2--2--2----2---2---2--2----|-2---2--2--2----2---2---2--2----|--------|--------|
D|-2---2--2--2----2---2---2--2----|-2---2--2--2----2---2---2--2----|--------|--------|
A|-0---0--0-----------0-----------|-0---0--0-----------0-----------|--------|--------|
E|--------------------------------|--------------------------------|--------|--------|


E|--------|--------|--------|--------|--------|--------|-3---3--3--3----3---3---3--3----|
B|--------|--------|--------|--------|--------|--------|-0---0--0--0----0---0---0--0----|
G|--------|--------|--------|--------|--------|--------|-0---0--0--0----0---0---0--0----|
D|--------|--------|--------|--------|--------|--------|-0---0--0--0--------0---0--0----|
A|--------|--------|--------|--------|--------|--------|-2------2-----------2-----------|
E|--------|--------|--------|--------|--------|--------|-3------------------3-----------|


E|-2---2--2--2----2---2---2--2----|-2---2--2--2----2---2---2--2----|-2---2--2--2----2---2---2--2----|
B|-0---0--0--0----0---0---0--0----|-3---3--3--3----3---3---3--3----|-3---3--3--3----3---3---3--3----|
G|-4---4--4--4----4---4---4--4----|-2---2--2--2----2---2---2--2----|-2---2--2--2----2---2---2--2----|
D|-0---0--0--0--------0---0--0----|-0---0--0--0--------0------0----|-0---0--0--0--------0------0----|
A|--------------------------------|--------------------------------|--------------------------------|
E|--------------------------------|--------------------------------|--------------------------------|


E|-2---2--2--2----2---2---2--2----|-2---2--2--2----2---2---2--2----|-0---0--0--0----0---0---0--0----|
B|-3---3--3--3----3---3---3--3----|-3---3--3--3----3---3---3--3----|-2---2--2--2----2---2---2--2----|
G|-4---4--4--4----4---4---4--4----|-4---4--4--4----4---4---4--4----|-2---2--2--2----2---2---2--2----|
D|-4---4--4--4----4---4---4--4----|-4---4--4--4----4---4---4--4----|-2---2--2--2----2---2---2--2----|
A|-2---2--2-----------2-----------|-2---2--2-----------2-----------|-0---0--0-----------0-----------|
E|--------------------------------|--------------------------------|--------------------------------|


E|-0---0--0--0----0---0---0--0----|-3---3--3--3----3---3---3--3----|-2---2--2--2----2---2---2--2----|
B|-2---2--2--2----2---2---2--2----|-0---0--0--0----0---0---0--0----|-0---0--0--0----0---0---0--0----|
G|-2---2--2--2----2---2---2--2----|-0---0--0--0----0---0---0--0----|-4---4--4--4----4---4---4--4----|
D|-2---2--2--2----2---2---2--2----|-0---0--0--0--------0---0--0----|-0---0--0--0--------0---0--0----|
A|-0---0--0-----------0-----------|-2------2-----------2-----------|--------------------------------|
E|--------------------------------|-3------------------3-----------|--------------------------------|


E|-2---2--2--2----2---2---2--2----|-2---2--2--2----2---2---2--2----|-2---2--2--2----2---2---2--2----|
B|-3---3--3--3----3---3---3--3----|-3---3--3--3----3---3---3--3----|-3---3--3--3----3---3---3--3----|
G|-2---2--2--2----2---2---2--2----|-2---2--2--2----2---2---2--2----|-4---4--4--4----4---4---4--4----|
D|-0---0--0--0--------0------0----|-0---0--0--0--------0------0----|-4---4--4--4----4---4---4--4----|
A|--------------------------------|--------------------------------|-2---2--2-----------2-----------|
E|--------------------------------|--------------------------------|--------------------------------|


E|-2---2--2--2----2---2---2--2----|-0---0--0--0----0---0---0--0----|-0---0--0--0----0---0---0--0----|
B|-3---3--3--3----3---3---3--3----|-2---2--2--2----2---2---2--2----|-2---2--2--2----2---2---2--2----|
G|-4---4--4--4----4---4---4--4----|-2---2--2--2----2---2---2--2----|-2---2--2--2----2---2---2--2----|
D|-4---4--4--4----4---4---4--4----|-2---2--2--2----2---2---2--2----|-2---2--2--2----2---2---2--2----|
A|-2---2--2-----------2-----------|-0---0--0-----------0-----------|-0---0--0-----------0-----------|
E|--------------------------------|--------------------------------|--------------------------------|


E|--------|--------|--------|--------|
B|--------|--------|--------|--------|
G|--------|--------|--------|--------|
D|--------|--------|--------|--------|
A|--------|--------|--------|--------|
E|--------|--------|--------|--------|





Track 6: dido (acoustic)

E|--------|--------|--------|--------|--------|--------|--------|--------|--------|
B|--------|--------|--------|--------|--------|--------|--------|--------|--------|
G|--------|--------|--------|--------|--------|--------|--------|--------|--------|
D|--------|--------|--------|--------|--------|--------|--------|--------|--------|
A|--------|--------|--------|--------|--------|--------|--------|--------|--------|
E|--------|--------|--------|--------|--------|--------|--------|--------|--------|


E|--------|--------|--------|--------|--------|-----3-------3-------3-----------|-----3-------3-------3-----------|
B|--------|--------|--------|--------|--------|---------------------------------|---------------------------------|
G|--------|--------|--------|--------|--------|---------------------------------|---------------------------------|
D|--------|--------|--------|--------|--------|---------------------------------|---------------------------------|
A|--------|--------|--------|--------|--------|---------------------------------|---------------------------------|
E|--------|--------|--------|--------|--------|---------------------------------|---------------------------------|


E|-----2-------2-------2-----------|-----2-------2-------2-----------|--------|--------|
B|-----3-------3-------3-----------|-----3-------3-------3-----------|--------|--------|
G|---------------------------------|---------------------------------|--------|--------|
D|---------------------------------|---------------------------------|--------|--------|
A|---------------------------------|---------------------------------|--------|--------|
E|---------------------------------|---------------------------------|--------|--------|


E|--------|--------|--------|--------|--------|--------|--------|--------|--------|
B|--------|--------|--------|--------|--------|--------|--------|--------|--------|
G|--------|--------|--------|--------|--------|--------|--------|--------|--------|
D|--------|--------|--------|--------|--------|--------|--------|--------|--------|
A|--------|--------|--------|--------|--------|--------|--------|--------|--------|
E|--------|--------|--------|--------|--------|--------|--------|--------|--------|


E|--------|--------|--------|--------|--------|--------|--------|--------|--------|
B|--------|--------|--------|--------|--------|--------|--------|--------|--------|
G|--------|--------|--------|--------|--------|--------|--------|--------|--------|
D|--------|--------|--------|--------|--------|--------|--------|--------|--------|
A|--------|--------|--------|--------|--------|--------|--------|--------|--------|
E|--------|--------|--------|--------|--------|--------|--------|--------|--------|


E|--------|--------|--------|--------|--------|--------|--------|--------|--------|
B|--------|--------|--------|--------|--------|--------|--------|--------|--------|
G|--------|--------|--------|--------|--------|--------|--------|--------|--------|
D|--------|--------|--------|--------|--------|--------|--------|--------|--------|
A|--------|--------|--------|--------|--------|--------|--------|--------|--------|
E|--------|--------|--------|--------|--------|--------|--------|--------|--------|


E|--------|--------|--------|--------|--------|--------|--------|--------|--------|
B|--------|--------|--------|--------|--------|--------|--------|--------|--------|
G|--------|--------|--------|--------|--------|--------|--------|--------|--------|
D|--------|--------|--------|--------|--------|--------|--------|--------|--------|
A|--------|--------|--------|--------|--------|--------|--------|--------|--------|
E|--------|--------|--------|--------|--------|--------|--------|--------|--------|


E|--------|--------|--------|--------|--------|--------|--------|--------|--------|
B|--------|--------|--------|--------|--------|--------|--------|--------|--------|
G|--------|--------|--------|--------|--------|--------|--------|--------|--------|
D|--------|--------|--------|--------|--------|--------|--------|--------|--------|
A|--------|--------|--------|--------|--------|--------|--------|--------|--------|
E|--------|--------|--------|--------|--------|--------|--------|--------|--------|


E|--------|--------|--------|--------|--------|--------|--------|--------|--------|
B|--------|--------|--------|--------|--------|--------|--------|--------|--------|
G|--------|--------|--------|--------|--------|--------|--------|--------|--------|
D|--------|--------|--------|--------|--------|--------|--------|--------|--------|
A|--------|--------|--------|--------|--------|--------|--------|--------|--------|
E|--------|--------|--------|--------|--------|--------|--------|--------|--------|


E|--------|--------|--------|--------|--------|--------|--------|--------|--------|
B|--------|--------|--------|--------|--------|--------|--------|--------|--------|
G|--------|--------|--------|--------|--------|--------|--------|--------|--------|
D|--------|--------|--------|--------|--------|--------|--------|--------|--------|
A|--------|--------|--------|--------|--------|--------|--------|--------|--------|
E|--------|--------|--------|--------|--------|--------|--------|--------|--------|


E|--------|--------|--------|--------|--------|--------|--------|--------|
B|--------|--------|--------|--------|--------|--------|--------|--------|
G|--------|--------|--------|--------|--------|--------|--------|--------|
D|--------|--------|--------|--------|--------|--------|--------|--------|
A|--------|--------|--------|--------|--------|--------|--------|--------|
E|--------|--------|--------|--------|--------|--------|--------|--------|





Track 7: guitar delay (for fills)

E|--------|--------|--------|--------|--------|--------|--------|--------|--------|
B|--------|--------|--------|--------|--------|--------|--------|--------|--------|
G|--------|--------|--------|--------|--------|--------|--------|--------|--------|
D|--------|--------|--------|--------|--------|--------|--------|--------|--------|
A|--------|--------|--------|--------|--------|--------|--------|--------|--------|
E|--------|--------|--------|--------|--------|--------|--------|--------|--------|


E|--------|--------|--------|--------|--------|--------|--------|--------|--------|
B|--------|--------|--------|--------|--------|--------|--------|--------|--------|
G|--------|--------|--------|--------|--------|--------|--------|--------|--------|
D|--------|--------|--------|--------|--------|--------|--------|--------|--------|
A|--------|--------|--------|--------|--------|--------|--------|--------|--------|
E|--------|--------|--------|--------|--------|--------|--------|--------|--------|


E|--------|--------|--------|--------|--------|--------|--------|--------|--------|
B|--------|--------|--------|--------|--------|--------|--------|--------|--------|
G|--------|--------|--------|--------|--------|--------|--------|--------|--------|
D|--------|--------|--------|--------|--------|--------|--------|--------|--------|
A|--------|--------|--------|--------|--------|--------|--------|--------|--------|
E|--------|--------|--------|--------|--------|--------|--------|--------|--------|


E|--------|--------|--------|--------|--------|--------|--------|--------|-----------------------|
B|--------|--------|--------|--------|--------|--------|--------|--------|-------------3---3-----|
G|--------|--------|--------|--------|--------|--------|--------|--------|-----------------------|
D|--------|--------|--------|--------|--------|--------|--------|--------|---------5-------------|
A|--------|--------|--------|--------|--------|--------|--------|--------|-----5-----------------|
E|--------|--------|--------|--------|--------|--------|--------|--------|-3---------------------|


E|--------|------------------------|--------|-----------------------|--------|------------------------|
B|-3------|-------------2----3-----|-3------|-------------3---3-----|-3------|-------------2----3-----|
G|--------|---------4--------------|--------|-----------------------|--------|---------4--------------|
D|--------|-----4------------------|--------|---------5-------------|--------|-----4------------------|
A|--------|-2----------------------|--------|-----5-----------------|--------|-2----------------------|
E|--------|------------------------|--------|-3---------------------|--------|------------------------|


E|--------|--------|--------|--------|--------|--------|--------|--------|--------|
B|-3------|--------|--------|--------|--------|--------|--------|--------|--------|
G|--------|--------|--------|--------|--------|--------|--------|--------|--------|
D|--------|--------|--------|--------|--------|--------|--------|--------|--------|
A|--------|--------|--------|--------|--------|--------|--------|--------|--------|
E|--------|--------|--------|--------|--------|--------|--------|--------|--------|


E|--------|--------|--------|--------|--------|--------|--------|--------|--------|
B|--------|--------|--------|--------|--------|--------|--------|--------|--------|
G|--------|--------|--------|--------|--------|--------|--------|--------|--------|
D|--------|--------|--------|--------|--------|--------|--------|--------|--------|
A|--------|--------|--------|--------|--------|--------|--------|--------|--------|
E|--------|--------|--------|--------|--------|--------|--------|--------|--------|


E|--------|--------|--------|--------|--------|--------|--------|--------|--------|
B|--------|--------|--------|--------|--------|--------|--------|--------|--------|
G|--------|--------|--------|--------|--------|--------|--------|--------|--------|
D|--------|--------|--------|--------|--------|--------|--------|--------|--------|
A|--------|--------|--------|--------|--------|--------|--------|--------|--------|
E|--------|--------|--------|--------|--------|--------|--------|--------|--------|


E|--------|--------|--------|--------|--------|--------|--------|--------|--------|
B|--------|--------|--------|--------|--------|--------|--------|--------|--------|
G|--------|--------|--------|--------|--------|--------|--------|--------|--------|
D|--------|--------|--------|--------|--------|--------|--------|--------|--------|
A|--------|--------|--------|--------|--------|--------|--------|--------|--------|
E|--------|--------|--------|--------|--------|--------|--------|--------|--------|


E|--------|--------|--------|--------|--------|--------|--------|--------|--------|
B|--------|--------|--------|--------|--------|--------|--------|--------|--------|
G|--------|--------|--------|--------|--------|--------|--------|--------|--------|
D|--------|--------|--------|--------|--------|--------|--------|--------|--------|
A|--------|--------|--------|--------|--------|--------|--------|--------|--------|
E|--------|--------|--------|--------|--------|--------|--------|--------|--------|


E|--------|--------|--------|--------|
B|--------|--------|--------|--------|
G|--------|--------|--------|--------|
D|--------|--------|--------|--------|
A|--------|--------|--------|--------|
E|--------|--------|--------|--------|





Track 8: piano

E|--------|--------|--------|--------|--------|--------|--------|--------|--------|
B|--------|--------|--------|--------|--------|--------|--------|--------|--------|
G|--------|--------|--------|--------|--------|--------|--------|--------|--------|
D|--------|--------|--------|--------|--------|--------|--------|--------|--------|
A|--------|--------|--------|--------|--------|--------|--------|--------|--------|
E|--------|--------|--------|--------|--------|--------|--------|--------|--------|


E|--------|--------|--------|--------|--------|--------|--------|--------|--------|
B|--------|--------|--------|--------|--------|--------|--------|--------|--------|
G|--------|--------|--------|--------|--------|--------|--------|--------|--------|
D|--------|--------|--------|--------|--------|--------|--------|--------|--------|
A|--------|--------|--------|--------|--------|--------|--------|--------|--------|
E|--------|--------|--------|--------|--------|--------|--------|--------|--------|


E|--------|--------|--------|--------|--------|--------|--------|--------|--------|
B|--------|--------|--------|--------|--------|--------|--------|--------|--------|
G|--------|--------|--------|--------|--------|--------|--------|--------|--------|
D|--------|--------|--------|--------|--------|--------|--------|--------|--------|
A|--------|--------|--------|--------|--------|--------|--------|--------|--------|
E|--------|--------|--------|--------|--------|--------|--------|--------|--------|


E|--------|--------|--------|--------|--------|--------|--------|--------|--------|
B|--------|--------|--------|--------|--------|--------|--------|--------|--------|
G|--------|--------|--------|--------|--------|--------|--------|--------|--------|
D|--------|--------|--------|--------|--------|--------|--------|--------|--------|
A|--------|--------|--------|--------|--------|--------|--------|--------|--------|
E|--------|--------|--------|--------|--------|--------|--------|--------|--------|


E|--------|--------|--------|--------|--------|--------|--------|-----------------------|
B|--------|--------|--------|--------|--------|--------|--------|-----------------------|
G|--------|--------|--------|--------|--------|--------|--------|-------------0---0-----|
D|--------|--------|--------|--------|--------|--------|--------|---------4-------------|
A|--------|--------|--------|--------|--------|--------|--------|-----2-----------------|
E|--------|--------|--------|--------|--------|--------|--------|-0---------------------|


E|-----------------------|-----------------------|-----------------------|--------|
B|-----------------------|-----------------------|-----------------------|--------|
G|-------------0---0-----|---------1---2---2-----|---------1---2---2-----|--------|
D|---------4-------------|-----------------------|-----------------------|--------|
A|-----2-----------------|-----4-----------------|-----4-----------------|--------|
E|-0---------------------|-2---------------------|-2---------------------|--------|


E|--------|--------|--------|--------|--------|--------|--------|--------|--------|
B|--------|--------|--------|--------|--------|--------|--------|--------|--------|
G|--------|--------|--------|--------|--------|--------|--------|--------|--------|
D|--------|--------|--------|--------|--------|--------|--------|--------|--------|
A|--------|--------|--------|--------|--------|--------|--------|--------|--------|
E|--------|--------|--------|--------|--------|--------|--------|--------|--------|


E|--------|--------|--------|--------|--------|--------|-----------------------|-----------------------|
B|--------|--------|--------|--------|--------|--------|-----------------------|-----------------------|
G|--------|--------|--------|--------|--------|--------|-------------0---0-----|-------------0---0-----|
D|--------|--------|--------|--------|--------|--------|---------4-------------|---------4-------------|
A|--------|--------|--------|--------|--------|--------|-----2-----------------|-----2-----------------|
E|--------|--------|--------|--------|--------|--------|-0---------------------|-0---------------------|


E|-----------------------|-----------------------|-----------------------|-----------------------|
B|-----------------------|-----------------------|-----------------------|-----------------------|
G|---------1---2---2-----|---------1---2---2-----|-------------0---0-----|-------------0---0-----|
D|-----------------------|-----------------------|---------4-------------|---------4-------------|
A|-----4-----------------|-----4-----------------|-----2-----------------|-----2-----------------|
E|-2---------------------|-2---------------------|-0---------------------|-0---------------------|


E|-----------------------|-----------------------|--------|--------|--------|--------|
B|-----------------------|-----------------------|--------|--------|--------|--------|
G|---------1---2---2-----|---------1---2---2-----|--------|--------|--------|--------|
D|-----------------------|-----------------------|--------|--------|--------|--------|
A|-----4-----------------|-----4-----------------|--------|--------|--------|--------|
E|-2---------------------|-2---------------------|--------|--------|--------|--------|


E|--------|--------|--------|--------|--------|--------|--------|--------|--------|
B|--------|--------|--------|--------|--------|--------|--------|--------|--------|
G|--------|--------|--------|--------|--------|--------|--------|--------|--------|
D|--------|--------|--------|--------|--------|--------|--------|--------|--------|
A|--------|--------|--------|--------|--------|--------|--------|--------|--------|
E|--------|--------|--------|--------|--------|--------|--------|--------|--------|


E|--------|--------|--------|-----------------------|-----------------------|-----------------------|
B|--------|--------|--------|-----------------------|-----------------------|-----------------------|
G|--------|--------|--------|-------------0---0-----|-------------0---0-----|---------1---2---2-----|
D|--------|--------|--------|---------4-------------|---------4-------------|-----------------------|
A|--------|--------|--------|-----2-----------------|-----2-----------------|-----4-----------------|
E|--------|--------|--------|-0---------------------|-0---------------------|-2---------------------|


E|-----------------------|
B|-----------------------|
G|---------1---2---2-----|
D|-----------------------|
A|-----4-----------------|
E|-2---------------------|





Track 9: Untitled

G|--------|--------|-------------------------------|----------------------------|-------------------------------|
D|--------|--------|-------------------------------|----------------------------|-------------------------------|
A|--------|--------|-------------------------------|----------------------------|-2---2-----------2----4--------|
E|--------|--------|-3---3-------0---7----9----0---|-3--------0---7----9----0---|-------------2-------------2---|


G|----------------------------|-------------------------------|----------------------------|
D|----------------------------|-------------------------------|----------------------------|
A|-2------------2----4--------|-------------------------------|----------------------------|
E|----------2-------------2---|-3---3-------0---7----9----0---|-3--------0---7----9----0---|


G|-------------------------------|----------------------------|-------------------------------|
D|-------------------------------|----------------------------|-------------------------------|
A|-2---2-----------2----4--------|-2------------2----4--------|-------------------------------|
E|-------------2-------------2---|----------2-------------2---|-3---3-------0---7----9----0---|


G|----------------------------|-------------------------------|----------------------------|
D|----------------------------|-------------------------------|----------------------------|
A|----------------------------|-2---2-----------2----4--------|-2------------2----4--------|
E|-3--------0---7----9----0---|-------------2-------------2---|----------2-------------2---|


G|-------------------------------|----------------------------|-------------------------------|
D|-------------------------------|----------------------------|-------------------------------|
A|-------------------------------|----------------------------|-2---2-----------2----4--------|
E|-3---3-------0---7----9----0---|-3--------0---7----9----0---|-------------2-------------2---|


G|----------------------------|--------------------------|--------------------------|
D|----------------------------|-----------2--4--2---2----|-----------2--4--2---2----|
A|-2------------2----4--------|--------------------------|--------------------------|
E|----------2-------------2---|-0-----0------------------|-0-----0------------------|


G|--------------------------|--------------------------|---------------------------|
D|-----------4--5--4---4----|-----------4--5--4---4----|---------------------------|
A|--------------------------|--------------------------|---------------------------|
E|-2-----2------------------|-2-----2------------------|-3-----------3---3----3----|


G|---------------------------|---------------------------|---------------------------|
D|---------------------------|---------------------------|---------------------------|
A|---------------------------|-5-----------5---5----5----|-5-----------5---5----5----|
E|-3-----------3---3----3----|---------------------------|---------------------------|


G|---------------------------|---------------------------|---------------------------|
D|---------------------------|---------------------------|---------------------------|
A|-2-----------2---2----2----|-2---------------2----2----|-0-----------0---0----0----|
E|---------------------------|---------------------------|---------------------------|


G|---------------------------|--------|-------------------------------|----------------------------|
D|---------------------------|--------|-------------------------------|----------------------------|
A|-0-----------0---0----0----|-0------|-------------------------------|----------------------------|
E|---------------------------|--------|-3---3-------0---7----9----0---|-3--------0---7----9----0---|


G|-------------------------------|----------------------------|-------------------------------|
D|-------------------------------|----------------------------|-------------------------------|
A|-2---2-----------2----4--------|-2------------2----4--------|-------------------------------|
E|-------------2-------------2---|----------2-------------2---|-3---3-------0---7----9----0---|


G|----------------------------|-------------------------------|----------------------------|
D|----------------------------|-------------------------------|----------------------------|
A|----------------------------|-2---2-----------2----4--------|-2------------2----4--------|
E|-3--------0---7----9----0---|-------------2-------------2---|----------2-------------2---|


G|-------------------------------|----------------------------|-------------------------------|
D|-------------------------------|----------------------------|-------------------------------|
A|-------------------------------|----------------------------|-2---2-----------2----4--------|
E|-3---3-------0---7----9----0---|-3--------0---7----9----0---|-------------2-------------2---|


G|----------------------------|--------------------------|--------------------------|
D|----------------------------|-----------2--4--2---2----|-----------2--4--2---2----|
A|-2------------2----4--------|--------------------------|--------------------------|
E|----------2-------------2---|-0-----0------------------|-0-----0------------------|


G|--------------------------|--------------------------|---------------------------|
D|-----------4--5--4---4----|-----------4--5--4---4----|---------------------------|
A|--------------------------|--------------------------|---------------------------|
E|-2-----2------------------|-2-----2------------------|-3-----------3---3----3----|


G|---------------------------|---------------------------|---------------------------|
D|---------------------------|---------------------------|---------------------------|
A|---------------------------|-5-----------5---5----5----|-5-----------5---5----5----|
E|-3-----------3---3----3----|---------------------------|---------------------------|


G|---------------------------|---------------------------|---------------------------|
D|---------------------------|---------------------------|---------------------------|
A|-2-----------2---2----2----|-2---------------2----2----|-0-----------0---0----0----|
E|---------------------------|---------------------------|---------------------------|


G|---------------------------|---------------------------|---------------------------|
D|---------------------------|---------------------------|---------------------------|
A|-0-----------0---0----0----|---------------------------|---------------------------|
E|---------------------------|-3-----------3---3----3----|-3-----------3---3----3----|


G|---------------------------|---------------------------|---------------------------|
D|---------------------------|---------------------------|---------------------------|
A|-5-----------5---5----5----|-5-----------5---5----5----|-2-----------2---2----2----|
E|---------------------------|---------------------------|---------------------------|


G|---------------------------|---------------------------|---------------------------|
D|---------------------------|---------------------------|---------------------------|
A|-2---------------2----2----|-0-----------0---0----0----|-0-----------0---0----0----|
E|---------------------------|---------------------------|---------------------------|


G|--------|--------|--------|--------|--------|--------|--------|--------|---------------------------|
D|--------|--------|--------|--------|--------|--------|--------|--------|---------------------------|
A|--------|--------|--------|--------|--------|--------|--------|--------|---------------------------|
E|--------|--------|--------|--------|--------|--------|--------|--------|-3-----------3---3----3----|


G|---------------------------|---------------------------|---------------------------|
D|---------------------------|---------------------------|---------------------------|
A|---------------------------|-5-----------5---5----5----|-5-----------5---5----5----|
E|-3-----------3---3----3----|---------------------------|---------------------------|


G|---------------------------|---------------------------|---------------------------|
D|---------------------------|---------------------------|---------------------------|
A|-2-----------2---2----2----|-2---------------2----2----|-0-----------0---0----0----|
E|---------------------------|---------------------------|---------------------------|


G|---------------------------|---------------------------|---------------------------|
D|---------------------------|---------------------------|---------------------------|
A|-0-----------0---0----0----|---------------------------|---------------------------|
E|---------------------------|-3-----------3---3----3----|-3-----------3---3----3----|


G|---------------------------|---------------------------|---------------------------|
D|---------------------------|---------------------------|---------------------------|
A|-5-----------5---5----5----|-5-----------5---5----5----|-2-----------2---2----2----|
E|---------------------------|---------------------------|---------------------------|


G|---------------------------|---------------------------|---------------------------|
D|---------------------------|---------------------------|---------------------------|
A|-2---------------2----2----|-0-----------0---0----0----|-0-----------0---0----0----|
E|---------------------------|---------------------------|---------------------------|


G|--------|--------|--------|--------|
D|--------|--------|--------|--------|
A|--------|--------|--------|--------|
E|--------|--------|--------|--------|