Menu:

 

Search:

 

deicide - worry in the house of thieves:

 



#----------------------------------PLEASE NOTE---------------------------------#
#This file is the author's own work and represents their interpretation of the #
#song. You may only use this file for private study, scholarship, or research. #
#------------------------------------------------------------------------------#

  Visit MetalTabs.com for more metal tablature
  
WORRY IN THE HOUSE OF THIEVES
 By DEICIDE
 As Performed On IN TORMENT IN HELL 2001
 ROADRUNNER Records

 Tabbed By Ema

 Tuning Eb


 RIFF 1 MAIN x4

|-----------------|
|-----------------|
|-----------------|
|-----------5\4/5-|
|---4-5-4---3\2/3-|
|-0-2-3-2-0-------|
  .       .



 RIFF 1A VERSE x4

|ERIC
|-----------------|-----------------|-----------------|-----------------|
|-----------------|-----------------|-----------------|-----------------|
|-----------------|-----------------|-----------------|-----------------|
|-----------------|-----------4\3/4-|-----------4\3/4-|-----------4\3/4-|
|-2---------------|---3-4-3---2\1/2-|---3-4-3---2\1/2-|---3-4-3---2\1/2-|
|-0---------------|-0-1-2-1-0-------|-0-1-2-1-0-------|-0-1-2-1-0-------|
| .x                . . . . .         . . . . .         . . . . .
|
|BRIAN
|-----------------|-----------------|-----------------|-----------------|
|-----------------|-----------------|-----------------|-----------------|
|-----------------|-----------------|-----------------|-----------------|
|-----------4\3/4-|-----------------|-----------4\3/4-|-----------4\3/4-|
|---3-4-3---2\1/2-|-2---------------|---3-4-3---2\1/2-|---3-4-3---2\1/2-|
|-0-1-2-1-0-------|-0---------------|-0-1-2-1-0-------|-0-1-2-1-0-------|
  . . . . .         .x                . . . . .         . . . . .



 RIFF 2 BRIDGE x4
                              A.H.
|-----------------|-----------------|-----------------|-----------------|
|-----------------|-----------------|-----------------|-----------------|
|---7-5-4---------|-----------------|-----------------|-----------------|
|---------7-6-----|-----------------|-----------4\3/4-|-----------4\3/4-|
|-------------8-7-|-----------3b^---|---3-4-3---2\1/2-|---3-4-3---2\1/2-|
|-0---------------|-555555444-------|-0-1-2-1-0-------|-0-1-2-1-0-------|
  .                 .........         . . . . .         . . . . .



 RIFF 3 CHORUS x2

|ERIC
|--------------------------------------------------|
|--------------------------------------------------|
|--------------------------------------------------|
|--------------------------------------------------|
|-------------------------7-----7-----5-----5------|
|-1111111111118888888888885-55555-55553-33333-3333-|
| ........................  ....  ....  ....  ....
|
|BRIAN
|--------------------------------------------------|
|--------------------------------------------------|
|--------------------------------------------------|
|--------------------------------------------------|
|-888888888888------------7-----7----10----10------|
|-------------8888888888885-55555-55558-88888-8888-|
  ........................  ....  ....  ....  ....


|ERIC
|--------------------------------------------------|
|--------------------------------------------------|
|--------------------------------------------------|
|--------------------------------------------------|
|--------------------------------------------------|
|-111111111111888888888888555555555555222222222222-|
| ................................................
|
|BRIAN
|--------------------------------------------------|
|--------------------------------------------------|
|--------------------------------------------------|
|--------------------------------------------------|
|-888888888888------------777777777777999999999999-|
|-------------888888888888-------------------------|
  ................................................






 SOLO 1 BRIAN
  WAH____________________________________________________________________
|-------------------------------------------------------------------------|
|-------------------------------------------------------------------------|
|-10-11-13-10-11-13-11-13-14-11-13-14-13-14-16-13-14-16-14-16-17-14-16-17-|
|-------------------------------------------------------------------------|
|-------------------------------------------------------------------------|
|-------------------------------------------------------------------------|

  WAH_____________________________________________________ A.H.
|-------------------------------------------------------------------|
|-------------------------------------------------------------------|
|-16-19-17-16-19-17-16-17-16-14-17-16-14-16-14-13----------13b^^^---|
|-------------------------------------------------15-13-12----------|
|-------------------------------------------------------------------|
|-------------------------------------------------------------------|

  WAH & BAR   WAH & BAR/\/\/\/\/\/\/\/\/\/\/\/\ WAH & BAR/\/\/\/\/\/\/\/\
|-------------------------------------------------------------------------|
|-0//\\\\\\---0h3p0h3p0h3p0h3p0h3p0h3p0h3p0h3p0---------------------------|
|-----------------------------------------------1h4p2p1h4p2p1h4p2p1h4p2p1-|
|-------------------------------------------------------------------------|
|-------------------------------------------------------------------------|
|-------------------------------------------------------------------------|

  WAH & BAR                   N.H. BAR
|------------------------------------------------------------------|
|------------------------------------------------------------------|
|-4p2p1h4p2p1///\\\\\/\/\\\---4///\\\\\\/\/\\\////\///\/\/\/\\-----|
|------------------------------------------------------------------|
|------------------------------------------------------------------|
|------------------------------------------------------------------|




 RIFF 3 x1 UNDER SOLO 1

 RIFF 1 MAIN x4

 RIFF 1A VERSE x4

 RIFF 2 BRIDGE x4

 RIFF 3 CHORUS x2


 SOLO 2 BRIAN
  WAH__________________________________ A.H.     WAH & BAR/\/\\\/\/\\\/\\\
|--------------------------------------------------------------------------|
|-7-9-10-7-9-10-10-12-13-12-10---------------------------------------------|
|------------------------------13-11-10-11b^^^---1h4p2p1h4p2p1h4p2p1h4p2p1-|
|--------------------------------------------------------------------------|
|--------------------------------------------------------------------------|
|--------------------------------------------------------------------------|

  WAH & BAR    N.H. BAR                WAH       WAH_______________________
|---------------------------------------------------------------------------|
|------------------------------------------------------------------10-12-13-|
|-------------------------------------//10b^^^---10-11-13-10-11-13----------|
|---------------------------------------------------------------------------|
|-0///\\\\\\\\h3//\\\\/\/\/\\/\\--------------------------------------------|
|---------------------------------------------------------------------------|

  WAH______________________________________________________________________
|----------10-11-13-11-10---------------------------------------------------|
|-10-12-13----------------13-12-10-12-13-12-10------------------------------|
|----------------------------------------------13-11-10-11-13-11-10---------|
|-------------------------------------------------------------------12-10-9-|
|---------------------------------------------------------------------------|
|---------------------------------------------------------------------------|

  N.H. BAR
|-----------------------------------------------|
|-----------------------------------------------|
|-9\\\\\\////\/\/\/\\\/\/\\\/\/\\/\/\\/\/\\-----|
|-----------------------------------------------|
|-----------------------------------------------|
|-----------------------------------------------|




 RIFF 3 x1 UNDER SOLO 2

 RIFF 1 MAIN x4

 RIFF 2 BRIDGE x4

 RIFF 3 CHORUS x2


 SOLO 3 ERIC WITH HEAVY REVERB
  N.H. BAR     WAH     WAH & BAR/\/\\ WAH_________________________________
|--------------------------------------------------------------------------|
|--------------------------------------------------------------------------|
|-5///\/\/\\---/13b^^^-13h14p13h14p13-/19-20-22-19-20-22-19-20-22-19-20-22-|
|--------------------------------------------------------------------------|
|--------------------------------------------------------------------------|
|--------------------------------------------------------------------------|

  WAH___________ WAH & BAR                WAH________________________________
|-----------------------------------------------------------------------------|
|-----------------------------------------------------------------------------|
|-19-20-22-19-20-22///\/\\/\\\/\\/\\/\\---------------------------------------|
|-----------------------------------------------------------------------------|
|-----------------------------------------------------------13-15-16-13-15-16-|
|-----------------------------------------13-14-17-13-14-17-------------------|

  WAH_______________________________________________________________________
|----------------------------------------------------------------------------|
|----------------------------------------------------------------------------|
|----------------------------------------------14-15-17-15-14----------------|
|-------------------------------------13-15-16----------------16-15-13-15-16-|
|-------------------13-15-16-13-15-16----------------------------------------|
|-13-14-17-13-14-17----------------------------------------------------------|

  WAH___________ WAH & BAR N.H. BAR
|----------------------------------------------------|
|----------------------------------------------------|
|----------------------------------------------------|
|-15-13----------0//\\\\\\-9////\/\/\//\/\/\\/\\-----|
|-------16-15-13-------------------------------------|
|----------------------------------------------------|




 RIFF 3 x1 UNDER SOLO 3


 RIFF 1B END x1

|x3               |x1
|-----------------|-----------------|
|-----------------|-----------------|
|-----------------|-----------------|
|-----------4\3/4-|-----------4\3-4-|
|---3-4-3---2\1/2-|---3-4-3---2\1-2-|
|-0-1-2-1-0-------|-0-1-2-1-0-------|
  . . . . .         . . . . .      x

  Visit MetalTabs.com for more metal tablature