Menu:

 

Search:

 

deicide - mephistopheles:

 



/---------------------------------------------------------------------------
/ The following is the author's own interpretation of the song, to be used -
/ for studying or private use only, removal of any part of this ten line   -
/ header is illegal!!!  Removal of the transcribers name or anything       -
/ relevant to the transcriber is also illegal, as so is the removal of the -
/ place inwhich the tab was downloaded. Publishing as well as printing of  -
/ the tab is illegal without permission of the transcriber and copyright   -
/ owner of the song. Failure to apply to these laws result will in legal   -
/ action from the appropriate parties.                                     -
/---------------------------------------------------------------------------

downloaded from Displacer's Tablature Site at
        http://www.dsrmusic.com/metaltab
join the death/black tab emailing list by filling out the free
subscription form at http://www.dsrmusic.com/metaltab

Deicide - "Mephistopheles"
from the great album "Deicide"
     (Roadrunner 1990)
tabbed 
by Fasa(jesusanalpenetration@jumpy.it)

Notes :
.... : palm muting
/ : slide up
\ : slide down
guitar tunning : Eb
version 1.0
08\10\02
18:33

Seconda tab che scrivo dei
grandi Deicide! E che tab!
apparsa sul focoso debutto
della band, Mephistopheles
è una canzone che mi ha fatto
sempre impazzire per i suoi
riff durissimi e potenti!!! I
Riff che ho tirato giù sono
abbastanza corretti, però
non ho potuto tirare giù
l'ultimo riff perché non era
un impresa troppo facile...
comunque eccovi la tab
di Mephistopheles!!!

Musica : Deicide
Lyrics : Glen Benton


Intro  :
ripetere 10 volte
--------------------------
--------------------------
--------------------------
----9----8----7----6------
----7----6----5----4------
-00--00---00---00---------
 ..  ..   ..   ..   

Intro b :
ripetere 8 volte
------------------------
------------------------
------------------------
-9-9-8------------------
-7-7-6---6-5-4----------
---------4-3-2----------
.......  ......   
fine Intro

Main Riff 
(lyrics : "Invenctive death"):
ripetere 4 volte
----------------------
----------------------
----------------------
-----4------5---------
-----4------5---------
-000-2--222-3---------
 ...    ...   
continuazione :
-----------------
-----------------
-----------------
-----------------
-----------------
-000022000033----
 .............

fine del Main Riff

Verse Riff :
(lyrics : "Schizophrenic reflex...")
ripetere 4 volte
-------------------------------
-------------------------------
-------------------------------
----------10/9-----------------
----------8-/7-10/9------------
-000000--------8/7--66666666---
 ......            ........
continuazione :
-----------------------
-----------------------
-----------------------
----------10/9---------
----------8-/7-10/9----
-000000--------8/7-7---
 ......
continuazione :
------------------------
------------------------
------------------------
------------------------
-9----8-----9----8------
--77---77----77----7----
  ..   ..    ..    .  
fine del Verse Riff

Ripetere Main Riff per 4 volte
(lyrics : "Satan, take me Mephistopheles...")
solo (Brian) not tabbed
Ripetere Intro b per 8 volte
solo (Eric) not tabbed

sotto l'assolo di Eric :
ripetere 4 volte
--------------------
--------------------
--------------------
--------------------
-------4-----5------
-00222-2-222-3------
 .....   ...

ripetere 4 volte
-------------------
-------------------
-------------------
-------------------
-------------------
-000222222333------
 ............ 

Fill :
suonare alla fine 
dell'assolo :
----------------------
----------------------
----------------------
-----------------2----
------4------5---2----
-000--2--222-3---0----
 ...     ...          

Bridge :
ripetere 
----------------------------
----------------------------
----------------------------
----------------------------
-2--3--2----------5\4--4----
-0--1--0--222222--3\2--2----
          ......
continuazione del bridge :
----------------------
----------------------
----------------------
----------------------
--------4-4--7--6-----
-66666--6-6--5--4-----
 ...... ...... 
continuazione del bridge :
--------------------------
--------------------------
--------------------------
--------------------------
-------10/11--------------
-888888-8/9--1111111------
 ......      ....... 
continuazione del bridge :
------------------------
------------------------
------------------------
------------------------
-4--3------------4/5----
-2--1--0000000---2/3----
       .......
continuazione del bridge :
--------------------
--------------------
--------------------
--------------------
----------6\5-5-----
-4444444--4\3-3-----
 .......
continuazione del bridge :
-----------------------
-----------------------
-----------------------
-----------------------
----------8--9---------
-6666666--6--7---------
........
continuazione del bridge :
--------------------
--------------------
--------------------
--------------------
---------10/11------
-8888888-8/-9-------
 .......
fine del bridge 

Fill :
suonare alla fine del
bridge :
-------------------------
-------------------------
-------------------------
-------------------------
-10-----9-----8----------
-8--888-7-777-6-5555-----
    ...   ...   ....        
continuazione del Fill :
-------------------------
-------------------------
-------------------------
-8-----7-----6-----------
-6-666-5-555-4-3333------
  ....   ...   ..... 
continuazione del Fill :
------------------------------
------------------------------
------------------------------
--------------------------2---
-5----3-------4-------3---2---
-3-33-1--2-2--2--1-1--1---0---
   ...   . .     . .   
fine del Fill 

Riff non trovato...
putroppo non sono riuscito
a trovare l'ultimo riff della
canzone... se qualcuno di
voi è riuscito a tirarlo giù
mi contatti tramite via
e-mail... grazie!

Finale :
---------------------------
---------------------------
---------------------------
-------4--------5----2-----
-------4--------5----2-----
--000--2---222--3----0-----
  ...      ...   
The end!!!