Menu:

 

Search:

 

deicide - i am no one:

 



/---------------------------------------------------------------------------/
/    The following is the author's own interpretation of the song, to be    /
/                     used for private use and studying                     /
/---------------------------------------------------------------------------/

                      DEICIDE - I AM NO ONE
                From the Album SERPENTS OF THE LIGHT
                Copyright 1997 ROADRUNNER RECORDINGS

                    Version 666 - FEBRUARY 2005

Transcribed by: Death8699

For Questions, Comments, Newest Version, or Corrections contact
 Death8699: at MethylinInfo@aol.com

Check Out Death Warp, With More Transcriptions On It:
 http://www.deathwarp.com/

..  - palm mute          /  - slide up to
 \  - slide down to      ~  - vibrato
 h  - hammer on          b  - bend
 p  - pull off            Suffixes for bend
                          ph - pinch harmonic
                           f - full bend    h - half bend
*  - see comment           r - release      t - tap bend
X  - percussion mute       ~ - vibrato bend
@  - slight palm mute     () - ghost note, sustained note

Tune Gtr to E-flat (1/2 Step Down)

--I AM NO ONE--

 |Riff A|
||-------------------------------------||
||-------------------------------------||
||:-----------------------------------:||
||:-----------------------------------:||
||-----------------1---------33333333--||
||--00000000-0-1-3---0-1-3-0-----------||
    ........ . . .   . . . . ........


 |Riff B|
||----------------------------------------------------------||
||----------------------------------------------------------||
||:--------------------------------------------------------:||
||:--------------------------------------------------------:||
||--2-----2-----5-3-2-3-2---2-----2-----2-----------3-2-----||
||----3-2---3-2-----------3---3-2---3-2---3-2-5-3-1-----3---||
    . . . . . . . . . . . . . . . . . . . . . . . . . . .


 |Riff C|
||------------------------------------------------------------------||
||------------------------------------------------------------------||
||:-----------------------------------------------------------------||
||:-----------------------------------------------------(a.h.)------||
||--------------------------33333333222222255555550000000-3~~~------||
||--00000000222222233333333-----------------------------------------||
||  ....................... .............................           ||
||                                                                  ||
||------------------------------------------------------------------||
||------------------------------------------------------------------||
||-----------------------------------------------------------------:||
||-----------------------------------------------------------------:||
||--------------------------33333333222222255555550000000-----------||
||--00000000222222233333333-------------------------------11111111--||
    ....................... ............................. ........


 |Solo Rhythm|                        |1st ending|
||------------------------------------|--------------------------|
||------------------------------------|--------------------------|
||:-----------------------------------|--------------------------|
||:-----------------------------------|--------------------------|
||----4-5---44444444-------3----------|-111111111111111111111111-|
||--0-2-3-0-22222222-0-2-3---0-2-3-0--|--------------------------|
    . . . . ........ . . .   . . . .  ||........................ 
                                      ||
 |2nd ending|                         ||
 |------------------------------------||
 |------------------------------------||
 |-----------------------------------:||
 |-----------------------------------:||
 |------------------------------------||
 |-00000000000000000000000000000000---||
   ................................

Song Structure:

Play Riff A a total of 6 times.
Play Riff B a total of 4 times.
Play Riff C a total of 2 times.
Play Riff A a total of 6 times.
Play Riff B a total of 4 times.
Play Riff C a total of 2 times.
Play Solo Rhythm 1, 2, 1, 2, 1, 2, 1 (Endings)
Play Riff A a total of 6 times.
Play Riff B a total of 4 times.
Play Riff C a total of 2 times.
End on F5 Chord!

Check Out Death Warp, With More Transcriptions On It:
 http://www.deathwarp.com/