Menu:

 

Search:

 

deicide - christ dont care:

 



#----------------------------------PLEASE NOTE---------------------------------#
#This file is the author's own work and represents their interpretation of the #
#song. You may only use this file for private study, scholarship, or research. #
#------------------------------------------------------------------------------#

  Visit MetalTabs.com for more metal tablature
  
CHRIST DON'T CARE
 By DEICIDE
 As Performed On IN TORMENT IN HELL 2001
 ROADRUNNER Records

 Tabbed By Ema

 Tuning D


 RIFF 1 INTRO x1

|-----------------------------------------------|
|-----------------------------------------------|
|-----------------------------------------------|
|-666663333322222-------------------------------|
|----------------33333--------------------------|
|---------------------5555544444222221111122222-|
                      .........................

                                      A.H.
|-----------------------------------------------|
|-----------------------------------------------|
|-----------------------------------------------|
|-666663333322222-------------------------------|
|----------------33333--------------------------|
|---------------------555554444422222-1b^^^^^---|
                      ...............

|-----------------------------------------------|
|-----------------------------------------------|
|-----------------------------------------------|
|-666663333322222-------------------------------|
|----------------33333--------------------------|
|---------------------5555544444222221111122222-|
                      .........................


|-----------------------------------------------|
|-----------------------------------------------|
|-----------------------------------------------|
|-666663333322222-------------------------------|
|----------------33333----------------3---------|
|---------------------555554444422222-1---------|
                      ...............  x



 RIFF 2A INTO VERSE x1

|ERIC
|----------------------------------|----------------------------------|
|----------------------------------|----------------------------------|
|----------------------------------|-------------------------4--------|
|-------------------------5----6---|-------------------------3--------|
|-------------7--6--3--4--3----4---|-------------7--6--3--4-----------|
|-------------5--4--1--2-----------|-------------5--4--1--2-----------|
|             .  .  .  .                         .  .  .  .
|
|BRIAN
|----------------------------------|----------------------------------|
|----------------------------------|----------------------------------|
|----------------------------------|-------------------------4--------|
|-------------------------5----6---|-------------------------3--------|
|-------------7--6--3--4--3----4---|-------------7--6--3--4-----------|
|-0001115554445--4--1--2-----------|-0001115554445--4--1--2-----------|
  .............  .  .  .             .............  .  .  .



 RIFF 2 VERSE x1

|x3
|----------------------------------|----------------------------------|
|----------------------------------|----------------------------------|
|----------------------------------|-------------------------4--------|
|----------------------------------|-------------------------3--------|
|-------------------------33333444-|----------------------------------|
|-000111555444555444111222---------|-000111555444555444111222---------|
  ........................           ........................


|x1
|----------------------------------|----------------------------------|
|----------------------------------|----------------------------------|
|----------------------------------|----------------------------------|
|----------------------------------|----------------------------------|
|-------------------------33333444-|-------------------------3--------|
|-000111555444555444111222---------|-0001115554445554441112221--------|
  ........................           ........................ x



 RIFF 3 CHORUS x2
                                    A.H.
|-------------------------------------------|
|-------------------------------------------|
|-----------------------------------9b^^^---|
|-----------------6--7--8--9-10-10----------|
|-----6-6-----6-6---------------------------|
|-3-4-----3-4-------------------------------|
  . .     . .

                                   A.H.
|-------------------------------------------|
|-------------------------------------------|
|----------------------------------11b^^^---|
|-----------------8--9-10-11-12-12----------|
|-----8-8-----8-8---------------------------|
|-5-6-----5-6-------------------------------|
  . .     . .


|-------------------------------------------|
|-------------------------------------------|
|-------------------------------------------|
|-----------------6--7--8--9-10-10-12b^^^---|
|-----6-6-----6-6---------------------------|
|-3-4-----3-4-------------------------------|
  . .     . .


|-------------------------------------------|
|-------------------------------------------|
|-------------------------------------------|
|-----------------8--9-10-11-12-12-14b^^^---|
|-----8-8-----8-8---------------------------|
|-5-6-----5-6-------------------------------|
  . .     . .



 RIFF 4 BRIDGE x4

|-------------------------|
|-------------------------|
|-------------------------|
|-------------------------|
|-7-------6---------------|
|---6-5-4---5-4-8-4-5-5-6-|
    . . .   . .   . . . .



 RIFF 4A BRIDGE x1

|ERIC x2
|-------------------------|
|-------------------------|
|-------------------------|
|-------------------------|
|-7-------6---------------|
|---6-5-4---5-4-8-4-5-5-6-|
|   . . .   . .   . . . .
|
|BRIAN x2
|-------------------------|
|-------------------------|
|-9-------8-----5---------|
|---8-7-6---7-6---6-7-7-8-|
|-------------------------|
|-------------------------|
    . . .   . .   . . . .

|ERIC x2
|-------------------------|
|-------------------------|
|-------------------------|
|-------------------------|
|-7-------6---------------|
|---6-5-4---5-4-8-4-5-5-6-|
|   . . .   . .   . . . .
|
|BRIAN x2
|-------------------------|
|-------------------------|
|-9-------8-----5---------|
|---8-7-6---7-6---6-7-7-8-|
|-------------------------|
|-------------------------|
|   . . .   . .   . . . .
|
|3RD GUITAR x2
|12------11-----8---------|
|--1110-9--10-9---9101011-|
|-------------------------|
|-------------------------|
|-------------------------|
|-------------------------|




 RIFF 1A BREAK x1

|-------------------------------------------|
|-------------------------------------------|
|-------------------------------------------|
|-6-3-2-------------6-3-2-------------------|
|-------3-----------------3-----------------|
|---------5-4-2-1-2---------5-4-2-1b^^^^^---|
  . . . . . . . . . . . . . . . .


|-------------------------------------------|
|-------------------------------------------|
|-------------------------------------------|
|-6-3-2-------------6-3-2-------------------|
|-------3-----------------3-------3---------|
|---------5-4-2-1-2---------5-4-2-1---------|
  . . . . . . . . . . . . . . . .  x



 RIFF 1 INTERLUDE x1

 RIFF 2A INTO VERSE x1


 LEAD BRIAN OVER RIFF 2 VERSE WITH MANY EFFECTS
  N.H. BAR
|----------------------------|
|----------------------------|
|-6/////\\\\\\\/\/\/\/\\-----|
|----------------------------|
|----------------------------|
|----------------------------|



 RIFF 2 VERSE x4

 RIFF 3 CHORUS x2


 SOLO ERIC
  N.H. BAR      N.H. BAR      N.H. BAR     N.H. BAR    N.H. BAR
|-22///\\\/\\---22///\\\/\\---22//\\/\\\---17///\/\\--------------------|
|------------------------------------------------------24\///\/\/\/\\---|
|-----------------------------------------------------------------------|
|-----------------------------------------------------------------------|
|-----------------------------------------------------------------------|
|-----------------------------------------------------------------------|


|---------------------------------------------------------------------|
|------------15h18p15h17p15h18p15h17p15h18p15h17p15h18p15h17///22b^---|
|-//22\\\\------------------------------------------------------------|
|---------------------------------------------------------------------|
|---------------------------------------------------------------------|
|---------------------------------------------------------------------|

                                                     WAH & BAR/\/\/\/\/\
|------------------------------------------------------------------------|
|-15h18p17///22b^---15-17-18-17-15-------------------3h6p3h5p3h6p3h5p3h6-|
|----------------------------------17-16-14------------------------------|
|-------------------------------------------18-15-14---------------------|
|------------------------------------------------------------------------|
|------------------------------------------------------------------------|

  WAH & BAR/\/\/\   WAH__ N.H. BAR       WAH & BAR          WAH & BAR/\
|-----------------------------------------------------------------------|
|-3h5p3h6p5//10b^---3h6p3-5///\/\/\/\\---0\\///\\\/\/\/\\---3h6p3h5p3h6-|
|-----------------------------------------------------------------------|
|-----------------------------------------------------------------------|
|-----------------------------------------------------------------------|
|-----------------------------------------------------------------------|

  W & B                                         N.H. BAR
|-----------------------8-10-12-10-8-------------------------------|
|-3h5p3-9-10-12-9-10-12--------------12-10-9-----------------------|
|--------------------------------------------10-9///\/\/\\/\\/\\---|
|------------------------------------------------------------------|
|------------------------------------------------------------------|
|------------------------------------------------------------------|

  N.H. BAR            ECHO
|--------------------------------|
|--------------------------------|
|-9////\/\/\/\\------------------|
|--------------------------------|
|--------------------------------|
|--------------------------------|




 RIFF 4 x4 UNDER SOLO

 RIFF 4A x1 UNDER SOLO

 RIFF 1A x1 UNDER SOLO

  Visit MetalTabs.com for more metal tablature