Menu:

 

Search:

 

deicide - blame it on god:

 



/---------------------------------------------------------------------------
/ The following is the author's own interpretation of the song, to be used -
/ for studying or private use only, removal of any part of this ten line   -
/ header is illegal!!!  Removal of the transcribers name or anything       -
/ relevant to the transcriber is also illegal, as so is the removal of the -
/ place inwhich the tab was downloaded. Publishing as well as printing of  -
/ the tab is illegal without permission of the transcriber and copyright   -
/ owner of the song. Failure to apply to these laws will result in legal   -
/ action from the appropriate parties.                                     -
/---------------------------------------------------------------------------

downloaded from the Catacombs of Displacer's Death Tab Site at
        http://www.dsrmusic.com/metaltab
Visit the site to enjoy the largest metal tab archive on the internet.
Email rich@dsrmusic.com for any question

=================================================================================================
Song: Blame It On God
Artist: Deicide
Album: Serpents of the Light (1997)

Tabbed by Chris Rezendes (dudemcrude@yahoo.com)
Solo by Andrew Cray (pain_infliction@hotmail.com)
Date started tab: 4-22-02
Date finished tab: 4-22-02

Tuning: Eb (half step down)

Notation Key
v: vibrato
t: tremolo bar
^: bend
.: palm mute
~: trill
p: pull-off
h: hammer-on
x: ghost note
/: slide up
\: slide down

Comments:  This song is quite easy, and one of my favorite songs to jam with.  Go ahead and see for yourself, it's really fun.  It's also a good warmup song like when you're just stretching out your speed-picking muscles early in the day or whenever it is you get up.  How the hell am I supposed to know when you get up?  Do I live at your fucking house?  I didn't think so.  But anyway, the tab came out great and I want to thank Andrew Cray for the solo.  You can thank him yourself if you like.  I really don't think you are going to find any mistakes, but if you do, please point it out for me and I'll certainly fix it.  Later.
=================================================================================================

Intro x1
e|-----------------------------|
B|-----------------------------|
G|-----------------------------|
D|--4---2-4-5---4-5-7---5-7-8--|
A|--4---2-4-5---4-5-7---5-7-8--|
E|--2---0-2-3---2-3-5---3-5-6--|

e|-----------|-------------|-----------------|-----------------|-----------------|
B|-----------|-------------|-----------------|-----------------|-----------------|
G|-----------|-------------|-----------------|-----------------|-----------------|
D|-----------|-------------|-----------------|-----------------|-----------------|
A|-----------|-------------|-----------------|-----------------|-----------------|
E|--333-6-3--|--666666666--|--3-6-333333333--|--2-3-222222222--|--1-5-111111111--|

e|-----------------|------------------|-----------------|-------------------------|
B|-----------------|------------------|-----------------|-------------------------|
G|-----------------|------------------|-----------------|-------------------------|
D|-----------------|------------------|-----------------|-------------------------|
A|-----------------|------------------|-----------------|--------------------555--|
E|--0-3-222222222--|--0-2-3333333333--|--2-3-555555555--|--3-5-666666666-333------|

e|-------------|-----------------|-----------------|-----------------|
B|-------------|-----------------|-----------------|-----------------|
G|-------------|-----------------|-----------------|-----------------|
D|-------------|-----------------|-----------------|-----------------|
A|--111111111--|--333------------|--111------------|--111------------|
E|-------------|------444444444--|------333333333--|------222222222--|

Riff 1 x3
e|------------------------|-----------------------|
B|------------------------|-----------------------|
G|------------------------|-----------------------|
D|------------------------|-----------------------|
A|------------------------|-----------------------|
E|--1-4-1-4444-000000000--|--1-4-1-0000000000000--|

Riff 2 x1
e|--------------------------------------------|--------------------------------------------|
B|--------------------------------------------|--------------------------------------------|
G|--------------------------------------------|--------------------------------------------|
D|--------------------------------------------|--------------------------------------------|
A|-----------------------------2222222222222--|----2---2222-------------2---5555555555555--|
E|--1-4-1-4444-111111111-4-1-4----------------|--4---4------444444444-4---4----------------|

e|---------------------------------------------------|-----------|
B|---------------------------------------------------|-----------|
G|---------------------------------------------------|-----------|
D|------------------------------333333333------------|-----------|
A|--2-5-2-5555-2222222222-5-2-5-----------555555555--|-----------|
E|---------------------------------------------------|--/13\\\\--|

Riff 3 x4 (God is the reason we live in dismay...)
e|-------------------------|
B|-------------------------|
G|-------------------------|
D|-------------------------|
A|--------------3333-------|
E|--0-0-0-0-2-3------1111--|

Riff 3b x2 (If we do not believe what you fortell...)
e|-------------------------|
B|-------------------------|
G|-------------------------|
D|-------------------------|
A|--------------5555-------|
E|--2-2-2-2-4-5------3333--|

Repeat Riff 3 x4

Riff 3c x2 (Lust was created beginning with hymn...)
e|-------------------------|
B|-------------------------|
G|-------------------------|
D|-------------------------|
A|--------------7777-------|
E|--4-4-4-4-6-7------5555--|

Repeat Riff 3b x2
Repeat Riff 3 x3

Solo (by Andrew Cray)
e|--4h5p4---4--------------------------------------------------------------------------------
B|-------------------6-----6---5----6-5-3--6-5-3---------------------------------------------
G|-----------------------------------------------5-4-2--5-4-2---1h2p1------1-----------------
D|-----------------------------------------------------------------------------3------3---2--
A|-------------------------------------------------------------------------------------------
E|-------------------------------------------------------------------------------------------

e|-----------------0-1-4-------------16h17p16------------------------|
B|------------1-3-----------15-17-18----------18-17-15---------------|
G|------1-2-4------------------------------------------17-16---------|
D|--2-3------------------------------------------------------18--19--|
A|-------------------------------------------------------------------|
E|-------------------------------------------------------------------|

Repeat Riff 1 x3
Repeat Riff 2 x1
Repeat Riff 3 x4

Repeat Riff 3b x2
Repeat Riff 3 x4
Repeat Riff 3c x2
Repeat Riff 3b x2
Repeat Riff 3 x3
Repeat Riff 1 x4

End x1
e|-------------------|-----------------|-----------------|-----------------|
B|-------------------|-----------------|-----------------|-----------------|
G|-------------------|-----------------|-----------------|-----------------|
D|-------------------|-----------------|-----------------|-----------------|
A|-------------------|-----------------|-----------------|-----------------|
E|--1-4-0-222222222--|--0-2-333333333--|--2-3-555555555--|--3-5-666666666--|

e|-----------|-------------|-----------------|-----------------|-----------------|
B|-----------|-------------|-----------------|-----------------|-----------------|
G|-----------|-------------|-----------------|-----------------|-----------------|
D|-----------|-------------|-----------------|-----------------|-----------------|
A|-----------|-------------|-----------------|-----------------|-----------------|
E|--333-6-3--|--666666666--|--3-6-333333333--|--2-3-222222222--|--1-5-111111111--|

e|-----------------|------------------|-----------------|-------------------------|
B|-----------------|------------------|-----------------|-------------------------|
G|-----------------|------------------|-----------------|-------------------------|
D|-----------------|------------------|-----------------|-------------------------|
A|-----------------|------------------|-----------------|--------------------555--|
E|--0-3-222222222--|--0-2-3333333333--|--2-3-555555555--|--3-5-666666666-333------|

e|-------------|-----------------|-----------------|-----------------|---------|
B|-------------|-----------------|-----------------|-----------------|---------|
G|-------------|-----------------|-----------------|-----------------|---------|
D|-------------|-----------------|-----------------|-----------------|------4--|
A|--111111111--|--333------------|--111------------|--111------------|--111-4--|
E|-------------|------444444444--|------333333333--|------222222222--|------2--