Menu:

 

Search:

 

deicide - bible basher:

 



/---------------------------------------------------------------------------
/ The following is the author's own interpretation of the song, to be used -
/ for studying or private use only, removal of any part of this ten line   -
/ header is illegal!!!  Removal of the transcribers name or anything       -
/ relevant to the transcriber is also illegal, as so is the removal of the -
/ place inwhich the tab was downloaded. Publishing as well as printing of  -
/ the tab is illegal without permission of the transcriber and copyright   -
/ owner of the song. Failure to apply to these laws result will in legal   -
/ action from the appropriate parties.                                     -
/---------------------------------------------------------------------------

downloaded from Displacer's Tablature Site at
        http://www.dsrmusic.com/metaltab
join the death/black tab emailing list by filling out the free
subscription form at http://www.dsrmusic.com/metaltab/join.htm

Tune to Eb

Intro             Riff 2-listen for timing 
Eb--------------|--------------------------
Bb--------------|--------------------------
Gb-8888888-9----|--------------------------
Db----------8-9-|-3*3*3*3*3*3--------------
Ab-------------7|-1*1*1*1*1*1---5---4---5--
Eb--------------|-------------0-3-0-2-0-3-0
                            pm************* 

Verse                             Chours
Eb-------------------------------|----------------------
Bb-------------------------------|----------------------
Gb-------------------------------|-----------------9\10-
Db-------------------------------|-------8\9-------7\8--
Ab-7-8-7----7---6---5--3---6---5-|-------6\7------------
Eb-5-6-5--0-5-0-4-0-3--1-0-4-0-3-|-6-5-6-----6-5-6------
pm        *   *   *    * *   *