Menu:

 

Search:

 

deftones - battleaxe:

 



Title: Root
Artist: 
Album: Adrenaline
Author: Deftones


Track 1: Overdriven Guitar

E|---------------------------------|---------------------------------|---------------------------------|
B|---------------------------------|---------------------------------|---------------------------------|
G|---------9---9-------------------|-7---7---------------------------|---------9---9-------------------|
D|-----------------9---9---10--10--|---------10--10--9---9-----------|-----------------9---9---10--10--|
A|-7---7---------------------------|-------------------------10--10--|-7---7---------------------------|
E|---------------------------------|---------------------------------|---------------------------------|


E|---------------------------------|---------------------------------|---------------------------------|
B|---------------------------------|---------------------------------|---------------------------------|
G|-7---7---------------------------|---------9---9-------------------|-7---7---------------------------|
D|---------10--10--9---9-----------|-----------------9---9---10--10--|---------10--10--9---9-----------|
A|-------------------------10--10--|-7---7---------------------------|-------------------------10--10--|
E|---------------------------------|---------------------------------|---------------------------------|


E|---------------------------------|---------------------------|---------------------------------|
B|---------------------------------|---------------------------|---------------------------------|
G|---------9---9-------------------|---------------------------|---------4---4-------------------|
D|-----------------9---9---10--10--|-1---1--------1---1--------|-2---2---2---2---4---4---5---5---|
A|-7---7---------------------------|-1---1--------1---1--------|-2---2---2---2---2---2---3---3---|
E|---------------------------------|-0---0--------0---0--------|-0---0---------------------------|


E|---------------------------------|---------------------------------|------------------------------|
B|---------------------------------|---------------------------------|------------------------------|
G|---------------------------------|---------4---4-------------------|------------------------------|
D|-7---7---5---5---4---4-----------|-2---2---2---2---4---4---5---5---|-7---7---5---5---4---4--------|
A|-5---5---3---3---2---2---5---5---|-2---2---2---2---2---2---3---3---|-5---5---3---3---2---2---5----|
E|-------------------------3---3---|-0---0---------------------------|-------------------------3----|


E|---------------------------------|---------------------------------|---------------------------------|
B|---------------------------------|---------------------------------|---------------------------------|
G|---------4---4-------------------|---------------------------------|---------4---4-------------------|
D|-2---2---2---2---4---4---5---5---|-7---7---5---5---4---4-----------|-2---2---2---2---4---4---5---5---|
A|-2---2---2---2---2---2---3---3---|-5---5---3---3---2---2---5---5---|-2---2---2---2---2---2---3---3---|
E|-0---0---------------------------|-------------------------3---3---|-0---0---------------------------|


E|------------------------------|-0------|-0---------------------|-0------|-0---------------------|
B|------------------------------|-0------|-0---------------------|-0------|-0---------------------|
G|------------------------------|-1------|-1---------------------|-1------|-1---------------------|
D|-7---7---5---5---4---4--------|-1------|-1-----1---1---1---1---|-1------|-1-----1---1---1---1---|
A|-5---5---3---3---2---2---5----|-1------|-1-----1---1---1---1---|-1------|-1-----1---1---1---1---|
E|-------------------------3----|-0------|-0-----0---0---0---0---|-0------|-0-----0---0---0---0---|


E|-0------|-0---------------------|-0------|-0---------------------|--------|--------|
B|-0------|-0---------------------|-0------|-0---------------------|--------|--------|
G|-1------|-1---------------------|-1------|-1---------------------|--------|--------|
D|-1------|-1-----1---1-------1---|-1------|-1-----1---1---1---1---|--------|--------|
A|-1------|-1-----1---1-------1---|-1------|-1-----1---1---1---1---|--------|--------|
E|-0------|-0-----0---0-------0---|-0------|-0-----0---0---0---0---|--------|--------|


E|--------|--------|--------|--------|--------|--------|---------------------------------|
B|--------|--------|--------|--------|--------|--------|---------------------------------|
G|--------|--------|--------|--------|--------|--------|---------9---9-------------------|
D|--------|--------|--------|--------|--------|--------|-----------------9---9---10--10--|
A|--------|--------|--------|--------|--------|--------|-7---7---------------------------|
E|--------|--------|--------|--------|--------|--------|---------------------------------|


E|---------------------------------|---------------------------------|---------------------------------|
B|---------------------------------|---------------------------------|---------------------------------|
G|-7---7---------------------------|---------9---9-------------------|-7---7---------------------------|
D|---------10--10--9---9-----------|-----------------9---9---10--10--|---------10--10--9---9-----------|
A|-------------------------10--10--|-7---7---------------------------|-------------------------10--10--|
E|---------------------------------|---------------------------------|---------------------------------|


E|---------------------------------|---------------------------------|---------------------------------|
B|---------------------------------|---------------------------------|---------------------------------|
G|---------9---9-------------------|-7---7---------------------------|---------9---9-------------------|
D|-----------------9---9---10--10--|---------10--10--9---9-----------|-----------------9---9---10--10--|
A|-7---7---------------------------|-------------------------10--10--|-7---7---------------------------|
E|---------------------------------|---------------------------------|---------------------------------|


E|---------------------------------|---------------------------------|---------------------------------|
B|---------------------------------|---------------------------------|---------------------------------|
G|-7---7---------------------------|---------9---9-------------------|-7---7---------------------------|
D|---------10--10--9---9-----------|-----------------9---9---10--10--|---------10--10--9---9-----------|
A|-------------------------10--10--|-7---7---------------------------|-------------------------10--10--|
E|---------------------------------|---------------------------------|---------------------------------|


E|---------------------------------|---------------------------------|---------------------------------|
B|---------------------------------|---------------------------------|---------------------------------|
G|---------9---9-------------------|-7---7---------------------------|---------9---9-------------------|
D|-----------------9---9---10--10--|---------10--10--9---9-----------|-----------------9---9---10--10--|
A|-7---7---------------------------|-------------------------10--10--|-7---7---------------------------|
E|---------------------------------|---------------------------------|---------------------------------|


E|---------------------------------|---------------------------------|------------------------------|
B|---------------------------------|---------------------------------|------------------------------|
G|-7---7---------------------------|---------9---9-------------------|-7---7-------------------9----|
D|---------10--10--9---9-----------|-----------------9---9---10--10--|---------10--10--9---9---9----|
A|-------------------------10--10--|-7---7---------------------------|-------------------------7----|
E|---------------------------------|---------------------------------|-------------------------7----|


E|---------------------------------|---------------------------------|---------------------------------|
B|---------------------------------|---------------------------------|---------------------------------|
G|---------4---4-------------------|---------------------------------|---------4---4-------------------|
D|-2---2---2---2---4---4---5---5---|-7---7---5---5---4---4-----------|-2---2---2---2---4---4---5---5---|
A|-2---2---2---2---2---2---3---3---|-5---5---3---3---2---2---5---5---|-2---2---2---2---2---2---3---3---|
E|-0---0---------------------------|-------------------------3---3---|-0---0---------------------------|


E|------------------------------|---------------------------------|---------------------------------|
B|------------------------------|---------------------------------|---------------------------------|
G|------------------------------|---------4---4-------------------|---------------------------------|
D|-7---7---5---5---4---4--------|-2---2---2---2---4---4---5---5---|-7---7---5---5---4---4-----------|
A|-5---5---3---3---2---2---5----|-2---2---2---2---2---2---3---3---|-5---5---3---3---2---2---5---5---|
E|-------------------------3----|-0---0---------------------------|-------------------------3---3---|


E|---------------------------------|------------------------------|---------------------------------|
B|---------------------------------|------------------------------|---------------------------------|
G|---------4---4-------------------|------------------------------|---------4---4-------------------|
D|-2---2---2---2---4---4---5---5---|-7---7---5---5---4---4--------|-2---2---2---2---4---4---5---5---|
A|-2---2---2---2---2---2---3---3---|-5---5---3---3---2---2---5----|-2---2---2---2---2---2---3---3---|
E|-0---0---------------------------|-------------------------3----|-0---0---------------------------|


E|---------------------------------|---------------------------------|------------------------------|
B|---------------------------------|---------------------------------|------------------------------|
G|---------------------------------|---------4---4-------------------|------------------------------|
D|-7---7---5---5---4---4-----------|-2---2---2---2---4---4---5---5---|-7---7---5---5---4---4--------|
A|-5---5---3---3---2---2---5---5---|-2---2---2---2---2---2---3---3---|-5---5---3---3---2---2---5----|
E|-------------------------3---3---|-0---0---------------------------|-------------------------3----|


E|---------------------------------|---------------------------------|---------------------------------|
B|---------------------------------|---------------------------------|---------------------------------|
G|---------4---4-------------------|---------------------------------|---------4---4-------------------|
D|-2---2---2---2---4---4---5---5---|-7---7---5---5---4---4-----------|-2---2---2---2---4---4---5---5---|
A|-2---2---2---2---2---2---3---3---|-5---5---3---3---2---2---5---5---|-2---2---2---2---2---2---3---3---|
E|-0---0---------------------------|-------------------------3---3---|-0---0---------------------------|


E|------------------------------|---------------------------------|--------|--------|
B|------------------------------|---------------------------------|--------|--------|
G|------------------------------|---------------------------------|--------|--------|
D|-7---7---5---5---4---4--------|-1---1---1---1---1---1---1---1---|--------|--------|
A|-5---5---3---3---2---2---5----|-1---1---1---1---1---1---1---1---|--------|--------|
E|-------------------------3----|-0---0---0---0---0---0---0---0---|--------|--------|


E|--------|--------|--------|--------|--------|--------|---------------------------------|
B|--------|--------|--------|--------|--------|--------|---------------------------------|
G|--------|--------|--------|--------|--------|--------|---------9---9-------------------|
D|--------|--------|--------|--------|--------|--------|-----------------9---9---10--10--|
A|--------|--------|--------|--------|--------|--------|-7---7---------------------------|
E|--------|--------|--------|--------|--------|--------|---------------------------------|


E|---------------------------------|---------------------------------|---------------------------------|
B|---------------------------------|---------------------------------|---------------------------------|
G|-7---7---------------------------|---------9---9-------------------|-7---7---------------------------|
D|---------10--10--9---9-----------|-----------------9---9---10--10--|---------10--10--9---9-----------|
A|-------------------------10--10--|-7---7---------------------------|-------------------------10--10--|
E|---------------------------------|---------------------------------|---------------------------------|


E|---------------------------------|---------------------------------|---------------------------------|
B|---------------------------------|---------------------------------|---------------------------------|
G|---------9---9-------------------|-7---7---------------------------|---------9---9-------------------|
D|-----------------9---9---10--10--|---------10--10--9---9-----------|-----------------9---9---10--10--|
A|-7---7---------------------------|-------------------------10--10--|-7---7---------------------------|
E|---------------------------------|---------------------------------|---------------------------------|


E|---------------------------------|---------------------------------|---------------------------------|
B|---------------------------------|---------------------------------|---------------------------------|
G|-7---7---------------------------|---------9---9-------------------|-7---7---------------------------|
D|---------10--10--9---9-----------|-----------------9---9---10--10--|---------10--10--9---9-----------|
A|-------------------------10--10--|-7---7---------------------------|-------------------------10--10--|
E|---------------------------------|---------------------------------|---------------------------------|


E|---------------------------------|---------------------------------|---------------------------------|
B|---------------------------------|---------------------------------|---------------------------------|
G|---------9---9-------------------|-7---7---------------------------|---------9---9-------------------|
D|-----------------9---9---10--10--|---------10--10--9---9-----------|-----------------9---9---10--10--|
A|-7---7---------------------------|-------------------------10--10--|-7---7---------------------------|
E|---------------------------------|---------------------------------|---------------------------------|


E|---------------------------------|---------------------------------|------------------------------|
B|---------------------------------|---------------------------------|------------------------------|
G|-7---7---------------------------|---------9---9-------------------|-7---7-------------------9----|
D|---------10--10--9---9-----------|-----------------9---9---10--10--|---------10--10--9---9---9----|
A|-------------------------10--10--|-7---7---------------------------|---------------------7---7----|
E|---------------------------------|---------------------------------|-------------------------7----|


E|---------------------------------|---------------------------------|---------------------------------|
B|---------------------------------|---------------------------------|---------------------------------|
G|---------4---4-------------------|---------------------------------|---------4---4-------------------|
D|-2---2---2---2---4---4---5---5---|-7---7---5---5---4---4-----------|-2---2---2---2---4---4---5---5---|
A|-2---2---2---2---2---2---3---3---|-5---5---3---3---2---2---5---5---|-2---2---2---2---2---2---3---3---|
E|-0---0---------------------------|-------------------------3---3---|-0---0---------------------------|


E|------------------------------|---------------------------------|---------------------------------|
B|------------------------------|---------------------------------|---------------------------------|
G|------------------------------|---------4---4-------------------|---------------------------------|
D|-7---7---5---5---4---4--------|-2---2---2---2---4---4---5---5---|-7---7---5---5---4---4-----------|
A|-5---5---3---3---2---2---5----|-2---2---2---2---2---2---3---3---|-5---5---3---3---2---2---5---5---|
E|-------------------------3----|-0---0---------------------------|-------------------------3---3---|


E|---------------------------------|------------------------------|---------------------------------|
B|---------------------------------|------------------------------|---------------------------------|
G|---------4---4-------------------|------------------------------|---------4---4-------------------|
D|-2---2---2---2---4---4---5---5---|-7---7---5---5---4---4--------|-2---2---2---2---4---4---5---5---|
A|-2---2---2---2---2---2---3---3---|-5---5---3---3---2---2---5----|-2---2---2---2---2---2---3---3---|
E|-0---0---------------------------|-------------------------3----|-0---0---------------------------|


E|---------------------------------|---------------------------------|------------------------------|
B|---------------------------------|---------------------------------|------------------------------|
G|---------------------------------|---------4---4-------------------|------------------------------|
D|-7---7---5---5---4---4-----------|-2---2---2---2---4---4---5---5---|-7---7---5---5---4---4--------|
A|-5---5---3---3---2---2---5---5---|-2---2---2---2---2---2---3---3---|-5---5---3---3---2---2---5----|
E|-------------------------3---3---|-0---0---------------------------|-------------------------3----|


E|---------------------------------|---------------------------------|---------------------------------|
B|---------------------------------|---------------------------------|---------------------------------|
G|---------4---4-------------------|---------------------------------|---------4---4-------------------|
D|-2---2---2---2---4---4---5---5---|-7---7---5---5---4---4-----------|-2---2---2---2---4---4---5---5---|
A|-2---2---2---2---2---2---3---3---|-5---5---3---3---2---2---5---5---|-2---2---2---2---2---2---3---3---|
E|-0---0---------------------------|-------------------------3---3---|-0---0---------------------------|


E|------------------------------|---------------------------------|---------------------------------|
B|------------------------------|---------------------------------|---------------------------------|
G|------------------------------|---------------------------------|---------------------------------|
D|-7---7---5---5---4---4--------|-2---2---2---2---2---2---2---2---|-8---7-------7---6-------6---5---|
A|-5---5---3---3---2---2---5----|-1---1---1---1---1---1---1---1---|-8---7-------7---6-------6---5---|
E|-------------------------3----|-0---0---0---0---0---0---0---0---|-6---5-------5---4-------4---3---|


E|------------------------------|------------------------------|------------------------|
B|------------------------------|------------------------------|------------------------|
G|------------------------------|-----------------0------------|---------0----0----0----|
D|-----5---4-------4---3---3----|-2---2---2---2---2----2---2---|-2---2---2----2----2----|
A|-----5---4-------4---3---3----|-1---1---1---1---2----1---1---|-1---1---2----2----2----|
E|-----3---2-------2---1---1----|-0---0---0---0---0----0---0---|-0---0---0----0----0----|


E|---------------------------------|------------------------------|------------------------------|
B|---------------------------------|------------------------------|------------------------------|
G|---------------------------------|------------------------------|-----------------0------------|
D|-8---7-------7---6-------6---5---|-----5---4-------4---3---3----|-2---2---2---2---2----2---2---|
A|-8---7-------7---6-------6---5---|-----5---4-------4---3---3----|-1---1---1---1---2----1---1---|
E|-6---5-------5---4-------4---3---|-----3---2-------2---1---1----|-0---0---0---0---0----0---0---|


E|-----------------------------|---------------------------------|------------------------------|
B|-----------------------------|---------------------------------|------------------------------|
G|---------3---3--4--3----3----|---------------------------------|------------------------------|
D|-2---2---3---3--4--3----3----|-8---7-------7---6-------6---5---|-----5---4-------4---3---3----|
A|-1---1---1---1--2--1----1----|-8---7-------7---6-------6---5---|-----5---4-------4---3---3----|
E|-0---0-----------------------|-6---5-------5---4-------4---3---|-----3---2-------2---1---1----|


E|------------------------------|------------------------|---------------------------------|
B|------------------------------|------------------------|---------------------------------|
G|-----------------0------------|---------0----0----0----|---------------------------------|
D|-2---2---2---2---2----2---2---|-2---2---2----2----2----|-8---7-------7---6-------6---5---|
A|-1---1---1---1---2----1---1---|-1---1---2----2----2----|-8---7-------7---6-------6---5---|
E|-0---0---0---0---0----0---0---|-0---0---0----0----0----|-6---5-------5---4-------4---3---|


E|------------------------------|------------------------------|-----------------------------|
B|------------------------------|------------------------------|-----------------------------|
G|------------------------------|-----------------0------------|---------3---3--4--3----3----|
D|-----5---4-------4---3---3----|-2---2---2---2---2----2---2---|-2---2---3---3--4--3----3----|
A|-----5---4-------4---3---3----|-1---1---1---1---2----1---1---|-1---1---1---1--2--1----1----|
E|-----3---2-------2---1---1----|-0---0---0---0---0----0---0---|-0---0-----------------------|


E|-0------|-0---------------------|-0------|-0---------------------|-0------|-0---------------------|
B|-0------|-0---------------------|-0------|-0---------------------|-0------|-0---------------------|
G|-1------|-1---------------------|-1------|-1---------------------|-1------|-1---------------------|
D|-1------|-1-----1---1---1---1---|-1------|-1-----1---1---1---1---|-1------|-1-----1---1-------1---|
A|-1------|-1-----1---1---1---1---|-1------|-1-----1---1---1---1---|-1------|-1-----1---1-------1---|
E|-0------|-0-----0---0---0---0---|-0------|-0-----0---0---0---0---|-0------|-0-----0---0-------0---|


E|-0------|-0---------------------|--------|--------|--------|--------|--------|--------|
B|-0------|-0---------------------|--------|--------|--------|--------|--------|--------|
G|-1------|-1---------------------|--------|--------|--------|--------|--------|--------|
D|-1------|-1-----1---1---1---1---|--------|--------|--------|--------|--------|--------|
A|-1------|-1-----1---1---1---1---|--------|--------|--------|--------|--------|--------|
E|-0------|-0-----0---0---0---0---|--------|--------|--------|--------|--------|--------|


E|--------|--------|--------|--------|--------|--------|--------|--------|-------------0----|
B|--------|--------|--------|--------|--------|--------|--------|--------|-------------0----|
G|--------|--------|--------|--------|--------|--------|--------|--------|-0-----------0----|
D|--------|--------|--------|--------|--------|--------|--------|--------|-9-----2-----0----|
A|--------|--------|--------|--------|--------|--------|--------|--------|-7-----2-----0----|
E|--------|--------|--------|--------|--------|--------|--------|--------|-0-----0-----0----|


E|-0------|----------------------|------------------------|----------------------|
B|-0------|----------------------|------------------------|----------------------|
G|-0------|----------------------|------------------------|----------------------|
D|-0------|----------------------|------------------------|----------------------|
A|-0------|-7-----8----8----11---|-11---12---11---11-8----|-7-----8----8----11---|
E|-0------|----------------------|------------------------|----------------------|


E|------------------------|-------------0----|-0------|-------------0----|-0------|
B|------------------------|-------------0----|-0------|-------------0----|-0------|
G|------------------------|-------------0----|-0------|-------------0----|-0------|
D|------------------------|-9-----2-----0----|-0------|-9-----2-----0----|-0------|
A|-11---12---11---11-8----|-7-----2-----0----|-0------|-7-----2-----0----|-0------|
E|------------------------|-0-----0-----0----|-0------|-0-----0-----0----|-0------|


E|----------------------|------------------------|----------------------|------------------------|
B|----------------------|------------------------|----------------------|------------------------|
G|----------------------|------------------------|----------------------|------------------------|
D|----------------------|------------------------|----------------------|------------------------|
A|-7-----8----8----11---|-11---12---11---11-8----|-7-----8----8----11---|-11---12---11---11-8----|
E|----------------------|------------------------|----------------------|------------------------|


E|-------------0----|-0------|-------------0----|-0------|------------------|--------|
B|-------------0----|-0------|-------------0----|-0------|------------------|--------|
G|-------------0----|-0------|-------------0----|-0------|------------------|--------|
D|-9-----2-----0----|-0------|-9-----2-----0----|-0------|-3-----3-----3----|-3------|
A|-7-----2-----0----|-0------|-7-----2-----0----|-0------|-3-----3-----3----|-3------|
E|-0-----0-----0----|-0------|-0-----0-----0----|-0------|-1-----1-----1----|-1------|


E|----------------------|--------|--------|--------|--------|
B|----------------------|--------|--------|--------|--------|
G|----------------------|--------|--------|--------|--------|
D|-2---------2----------|--------|--------|--------|--------|
A|-2---------2----------|--------|--------|--------|--------|
E|-0---------0----------|--------|--------|--------|--------|





Track 2: Slightly distorted guitar

E|--------|--------|--------|--------|--------|--------|--------|--------|--------|
B|--------|--------|--------|--------|--------|--------|--------|--------|--------|
G|--------|--------|--------|--------|--------|--------|--------|--------|--------|
D|--------|--------|--------|--------|--------|--------|--------|--------|--------|
A|--------|--------|--------|--------|--------|--------|--------|--------|--------|
E|--------|--------|--------|--------|--------|--------|--------|--------|--------|


E|--------|--------|--------|--------|--------|--------|--------|--------|--------|
B|--------|--------|--------|--------|--------|--------|--------|--------|--------|
G|--------|--------|--------|--------|--------|--------|--------|--------|--------|
D|--------|--------|--------|--------|--------|--------|--------|--------|--------|
A|--------|--------|--------|--------|--------|--------|--------|--------|--------|
E|--------|--------|--------|--------|--------|--------|--------|--------|--------|


E|--------|--------|--------|--------|--------|--------|-0------|-0------|-0------|
B|--------|--------|--------|--------|--------|--------|-0------|-0------|-0------|
G|--------|--------|--------|--------|--------|--------|-9------|-9------|-9------|
D|--------|--------|--------|--------|--------|--------|-9------|-9------|-9------|
A|--------|--------|--------|--------|--------|--------|-7------|-7------|-7------|
E|--------|--------|--------|--------|--------|--------|-0------|-0------|-0------|


E|-0------|-0------|-0------|-0------|-0-----0---------------|--------|--------|--------|
B|-0------|-0------|-0------|-0------|-0-----0---------------|--------|--------|--------|
G|-9------|-0------|-0------|-0------|-0-----0---5---5-------|--------|--------|--------|
D|-9------|-9------|-9------|-9------|-9-----9---5---5-------|--------|--------|--------|
A|-7------|-7------|-7------|-7------|-7-----7---5---5-------|--------|--------|--------|
E|-0------|-0------|-0------|-0------|-0-----0---5---5-------|--------|--------|--------|


E|--------|--------|--------|--------|--------|--------|--------|--------|--------|
B|--------|--------|--------|--------|--------|--------|--------|--------|--------|
G|--------|--------|--------|--------|--------|--------|--------|--------|--------|
D|--------|--------|--------|--------|--------|--------|--------|--------|--------|
A|--------|--------|--------|--------|--------|--------|--------|--------|--------|
E|--------|--------|--------|--------|--------|--------|--------|--------|--------|


E|--------|--------|--------|--------|--------|--------|--------|--------|--------|
B|--------|--------|--------|--------|--------|--------|--------|--------|--------|
G|--------|--------|--------|--------|--------|--------|--------|--------|--------|
D|--------|--------|--------|--------|--------|--------|--------|--------|--------|
A|--------|--------|--------|--------|--------|--------|--------|--------|--------|
E|--------|--------|--------|--------|--------|--------|--------|--------|--------|


E|--------|--------|--------|--------|--------|--------|--------|--------|--------|
B|--------|--------|--------|--------|--------|--------|--------|--------|--------|
G|--------|--------|--------|--------|--------|--------|--------|--------|--------|
D|--------|--------|--------|--------|--------|--------|--------|--------|--------|
A|--------|--------|--------|--------|--------|--------|--------|--------|--------|
E|--------|--------|--------|--------|--------|--------|--------|--------|--------|


E|--------|--------|--------|-0------|-0------|-0------|-0------|-0------|-0------|
B|--------|--------|--------|-0------|-0------|-0------|-0------|-0------|-0------|
G|--------|--------|--------|-9------|-9------|-9------|-9------|-0------|-0------|
D|--------|--------|--------|-9------|-9------|-9------|-9------|-9------|-9------|
A|--------|--------|--------|-7------|-7------|-7------|-7------|-7------|-7------|
E|--------|--------|--------|-0------|-0------|-0------|-0------|-0------|-0------|


E|-0------|-0-----0---------------|--------|--------|--------|--------|--------|--------|
B|-0------|-0-----0---------------|--------|--------|--------|--------|--------|--------|
G|-0------|-0-----0---5---5-------|--------|--------|--------|--------|--------|--------|
D|-9------|-9-----9---5---5-------|--------|--------|--------|--------|--------|--------|
A|-7------|-7-----7---5---5-------|--------|--------|--------|--------|--------|--------|
E|-0------|-0-----0---5---5-------|--------|--------|--------|--------|--------|--------|


E|--------|--------|--------|--------|--------|--------|--------|--------|--------|
B|--------|--------|--------|--------|--------|--------|--------|--------|--------|
G|--------|--------|--------|--------|--------|--------|--------|--------|--------|
D|--------|--------|--------|--------|--------|--------|--------|--------|--------|
A|--------|--------|--------|--------|--------|--------|--------|--------|--------|
E|--------|--------|--------|--------|--------|--------|--------|--------|--------|


E|--------|--------|--------|--------|--------|--------|--------|--------|--------|
B|--------|--------|--------|--------|--------|--------|--------|--------|--------|
G|--------|--------|--------|--------|--------|--------|--------|--------|--------|
D|--------|--------|--------|--------|--------|--------|--------|--------|--------|
A|--------|--------|--------|--------|--------|--------|--------|--------|--------|
E|--------|--------|--------|--------|--------|--------|--------|--------|--------|


E|--------|--------|--------|--------|--------|--------|--------|--------|--------|
B|--------|--------|--------|--------|--------|--------|--------|--------|--------|
G|--------|--------|--------|--------|--------|--------|--------|--------|--------|
D|--------|--------|--------|--------|--------|--------|--------|--------|--------|
A|--------|--------|--------|--------|--------|--------|--------|--------|--------|
E|--------|--------|--------|--------|--------|--------|--------|--------|--------|


E|--------|--------|--------|--------|--------|--------|--------|--------|--------|
B|--------|--------|--------|--------|--------|--------|--------|--------|--------|
G|--------|--------|--------|--------|--------|--------|--------|--------|--------|
D|--------|--------|--------|--------|--------|--------|--------|--------|--------|
A|--------|--------|--------|--------|--------|--------|--------|--------|--------|
E|--------|--------|--------|--------|--------|--------|--------|--------|--------|


E|--------|--------|--------|--------|--------|--------|--------|--------|--------|
B|--------|--------|--------|--------|--------|--------|--------|--------|--------|
G|--------|--------|--------|--------|--------|--------|--------|--------|--------|
D|--------|--------|--------|--------|--------|--------|--------|--------|--------|
A|--------|--------|--------|--------|--------|--------|--------|--------|--------|
E|--------|--------|--------|--------|--------|--------|--------|--------|--------|


E|--------|--------|--------|--------|--------|--------|--------|--------|--------|
B|--------|--------|--------|--------|--------|--------|--------|--------|--------|
G|--------|--------|--------|--------|--------|--------|--------|--------|--------|
D|--------|--------|--------|--------|--------|--------|--------|--------|--------|
A|--------|--------|--------|--------|--------|--------|--------|--------|--------|
E|--------|--------|--------|--------|--------|--------|--------|--------|--------|


E|--------|--------|--------|--------|--------|--------|--------|--------|--------|
B|--------|--------|--------|--------|--------|--------|--------|--------|--------|
G|--------|--------|--------|--------|--------|--------|--------|--------|--------|
D|--------|--------|--------|--------|--------|--------|--------|--------|--------|
A|--------|--------|--------|--------|--------|--------|--------|--------|--------|
E|--------|--------|--------|--------|--------|--------|--------|--------|--------|


E|--------|--------|--------|--------|--------|--------|--------|--------|--------|
B|--------|--------|--------|--------|--------|--------|--------|--------|--------|
G|--------|--------|--------|--------|--------|--------|--------|--------|--------|
D|--------|--------|--------|--------|--------|--------|--------|--------|--------|
A|--------|--------|--------|--------|--------|--------|--------|--------|--------|
E|--------|--------|--------|--------|--------|--------|--------|--------|--------|


E|--------|--------|--------|--------|--------|--------|--------|--------|--------|
B|--------|--------|--------|--------|--------|--------|--------|--------|--------|
G|--------|--------|--------|--------|--------|--------|--------|--------|--------|
D|--------|--------|--------|--------|--------|--------|--------|--------|--------|
A|--------|--------|--------|--------|--------|--------|--------|--------|--------|
E|--------|--------|--------|--------|--------|--------|--------|--------|--------|


E|--------|--------|--------|--------|--------|--------|--------|--------|--------|
B|--------|--------|--------|--------|--------|--------|--------|--------|--------|
G|--------|--------|--------|--------|--------|--------|--------|--------|--------|
D|--------|--------|--------|--------|--------|--------|--------|--------|--------|
A|--------|--------|--------|--------|--------|--------|--------|--------|--------|
E|--------|--------|--------|--------|--------|--------|--------|--------|--------|





Track 3: Clean Guitar

E|--------|--------|--------|--------|--------|--------|--------|--------|--------|
B|--------|--------|--------|--------|--------|--------|--------|--------|--------|
G|--------|--------|--------|--------|--------|--------|--------|--------|--------|
D|--------|--------|--------|--------|--------|--------|--------|--------|--------|
A|--------|--------|--------|--------|--------|--------|--------|--------|--------|
E|--------|--------|--------|--------|--------|--------|--------|--------|--------|


E|--------|--------|--------|--------|--------|--------|--------|--------|--------|
B|--------|--------|--------|--------|--------|--------|--------|--------|--------|
G|--------|--------|--------|--------|--------|--------|--------|--------|--------|
D|--------|--------|--------|--------|--------|--------|--------|--------|--------|
A|--------|--------|--------|--------|--------|--------|--------|--------|--------|
E|--------|--------|--------|--------|--------|--------|--------|--------|--------|


E|--------|--------|--------|--------|--------|--------|--------|--------|--------|
B|--------|--------|--------|--------|--------|--------|--------|--------|--------|
G|--------|--------|--------|--------|--------|--------|--------|--------|--------|
D|--------|--------|--------|--------|--------|--------|--------|--------|--------|
A|--------|--------|--------|--------|--------|--------|--------|--------|--------|
E|--------|--------|--------|--------|--------|--------|--------|--------|--------|


E|--------|--------|--------|--------|--------|--------|--------|--------|--------|
B|--------|--------|--------|--------|--------|--------|--------|--------|--------|
G|--------|--------|--------|--------|--------|--------|--------|--------|--------|
D|--------|--------|--------|--------|--------|--------|--------|--------|--------|
A|--------|--------|--------|--------|--------|--------|--------|--------|--------|
E|--------|--------|--------|--------|--------|--------|--------|--------|--------|


E|--------|--------|--------|--------|--------|--------|--------|--------|--------|
B|--------|--------|--------|--------|--------|--------|--------|--------|--------|
G|--------|--------|--------|--------|--------|--------|--------|--------|--------|
D|--------|--------|--------|--------|--------|--------|--------|--------|--------|
A|--------|--------|--------|--------|--------|--------|--------|--------|--------|
E|--------|--------|--------|--------|--------|--------|--------|--------|--------|


E|--------|--------|--------|--------|--------|--------|--------|--------|--------|
B|--------|--------|--------|--------|--------|--------|--------|--------|--------|
G|--------|--------|--------|--------|--------|--------|--------|--------|--------|
D|--------|--------|--------|--------|--------|--------|--------|--------|--------|
A|--------|--------|--------|--------|--------|--------|--------|--------|--------|
E|--------|--------|--------|--------|--------|--------|--------|--------|--------|


E|--------|--------|--------|--------|--------|--------|--------|--------|--------|
B|--------|--------|--------|--------|--------|--------|--------|--------|--------|
G|--------|--------|--------|--------|--------|--------|--------|--------|--------|
D|--------|--------|--------|--------|--------|--------|--------|--------|--------|
A|--------|--------|--------|--------|--------|--------|--------|--------|--------|
E|--------|--------|--------|--------|--------|--------|--------|--------|--------|


E|--------|--------|--------|--------|--------|--------|--------|--------|--------|
B|--------|--------|--------|--------|--------|--------|--------|--------|--------|
G|--------|--------|--------|--------|--------|--------|--------|--------|--------|
D|--------|--------|--------|--------|--------|--------|--------|--------|--------|
A|--------|--------|--------|--------|--------|--------|--------|--------|--------|
E|--------|--------|--------|--------|--------|--------|--------|--------|--------|


E|--------|--------|--------|--------|--------|--------|--------|--------|--------|
B|--------|--------|--------|--------|--------|--------|--------|--------|--------|
G|--------|--------|--------|--------|--------|--------|--------|--------|--------|
D|--------|--------|--------|--------|--------|--------|--------|--------|--------|
A|--------|--------|--------|--------|--------|--------|--------|--------|--------|
E|--------|--------|--------|--------|--------|--------|--------|--------|--------|


E|--------|--------|--------|--------|--------|--------|--------|--------|--------|
B|--------|--------|--------|--------|--------|--------|--------|--------|--------|
G|--------|--------|--------|--------|--------|--------|--------|--------|--------|
D|--------|--------|--------|--------|--------|--------|--------|--------|--------|
A|--------|--------|--------|--------|--------|--------|--------|--------|--------|
E|--------|--------|--------|--------|--------|--------|--------|--------|--------|


E|--------|--------|--------|--------|--------|--------|--------|--------|--------|
B|--------|--------|--------|--------|--------|--------|--------|--------|--------|
G|--------|--------|--------|--------|--------|--------|--------|--------|--------|
D|--------|--------|--------|--------|--------|--------|--------|--------|--------|
A|--------|--------|--------|--------|--------|--------|--------|--------|--------|
E|--------|--------|--------|--------|--------|--------|--------|--------|--------|


E|--------|--------|--------|--------|--------|--------|--------|--------|--------|
B|--------|--------|--------|--------|--------|--------|--------|--------|--------|
G|--------|--------|--------|--------|--------|--------|--------|--------|--------|
D|--------|--------|--------|--------|--------|--------|--------|--------|--------|
A|--------|--------|--------|--------|--------|--------|--------|--------|--------|
E|--------|--------|--------|--------|--------|--------|--------|--------|--------|


E|--------|--------|--------|--------|--------|--------|--------|--------|--------|
B|--------|--------|--------|--------|--------|--------|--------|--------|--------|
G|--------|--------|--------|--------|--------|--------|--------|--------|--------|
D|--------|--------|--------|--------|--------|--------|--------|--------|--------|
A|--------|--------|--------|--------|--------|--------|--------|--------|--------|
E|--------|--------|--------|--------|--------|--------|--------|--------|--------|


E|--------|--------|--------|--------|--------|--------|--------|--------|--------|
B|--------|--------|--------|--------|--------|--------|--------|--------|--------|
G|--------|--------|--------|--------|--------|--------|--------|--------|--------|
D|--------|--------|--------|--------|--------|--------|--------|--------|--------|
A|--------|--------|--------|--------|--------|--------|--------|--------|--------|
E|--------|--------|--------|--------|--------|--------|--------|--------|--------|


E|--------|--------|--------|--------|-0------|-0------|-0------|-0------|------------------|
B|--------|--------|--------|--------|-0------|-0------|-0------|-0------|------------------|
G|--------|--------|--------|--------|-2------|-2------|-2------|-2------|-------------0----|
D|--------|--------|--------|--------|-2------|-2------|-2------|-2------|-2----------------|
A|--------|--------|--------|--------|-2------|-2------|-2------|-2------|-------2----------|
E|--------|--------|--------|--------|-0------|-0------|-0------|-0------|------------------|


E|--------|-0----------------|--------|--------|--------|--------|--------|-0------|
B|--------|-------0----------|--------|--------|--------|--------|--------|-0------|
G|-0------|-------------0----|-0------|-0------|-0------|--------|--------|-0------|
D|--------|------------------|--------|--------|--------|--------|--------|--------|
A|--------|------------------|--------|--------|--------|--------|--------|--------|
E|--------|------------------|--------|--------|--------|--------|--------|--------|


E|-0------|--------|--------|--------|--------|--------|--------|--------|--------|
B|-0------|--------|--------|--------|--------|--------|--------|--------|--------|
G|-0------|--------|--------|--------|--------|--------|--------|--------|--------|
D|--------|--------|--------|--------|--------|--------|--------|--------|--------|
A|--------|--------|--------|--------|--------|--------|--------|--------|--------|
E|--------|--------|--------|--------|--------|--------|--------|--------|--------|


E|--------|--------|--------|--------|--------|--------|--------|--------|--------|
B|--------|--------|--------|--------|--------|--------|--------|--------|--------|
G|--------|--------|--------|--------|--------|--------|--------|--------|--------|
D|--------|--------|--------|--------|--------|--------|--------|--------|--------|
A|--------|--------|--------|--------|--------|--------|--------|--------|--------|
E|--------|--------|--------|--------|--------|--------|--------|--------|--------|


E|--------|--------|--------|--------|-------------------0--0-----|-0------|-0------|
B|--------|--------|--------|--------|-------------------0--0-----|-0------|-0------|
G|--------|--------|--------|--------|----------------2-----------|--------|--------|
D|--------|--------|--------|--------|------------3---------------|--------|--------|
A|--------|--------|--------|--------|--------3-------------------|--------|--------|
E|--------|--------|--------|--------|----1-----------------------|--------|--------|


E|-0------|
B|-0------|
G|--------|
D|--------|
A|--------|
E|--------|





Track 4: Bass

G|--------|--------|--------|--------|--------|--------|--------|--------|---------9---9-------------------|
D|--------|--------|--------|--------|--------|--------|--------|--------|-----------------9---9---10--10--|
A|--------|--------|--------|--------|--------|--------|--------|--------|-7---7---------------------------|
E|--------|--------|--------|--------|--------|--------|--------|--------|---------------------------------|


G|-7---7---------------------------|---------9---9-------------------|-7---7------------------------|
D|---------10--10--9---9-----------|-----------------9---9---10--10--|---------10--10--9---9--------|
A|-------------------------10--10--|-7---7---------------------------|-------------------------10---|
E|---------------------------------|---------------------------------|------------------------------|


G|---------9---9-------------------|-7---7---------------------------|---------9---9-------------------|
D|-----------------9---9---10--10--|---------10--10--9---9-----------|-----------------9---9---10--10--|
A|-7---7---------------------------|-------------------------10--10--|-7---7---------------------------|
E|---------------------------------|---------------------------------|---------------------------------|


G|-7---7------------------------|--------|-----------------------|--------|-----------------------|
D|---------10--10--9---9--------|--------|-----------------------|--------|-----------------------|
A|------------------------------|--------|-----------------------|--------|-----------------------|
E|------------------------------|-0------|-0-----0---0---0---0---|-0------|-0-----0---0---0---0---|


G|--------|-----------------------|--------|-----------------------|---------9---9-------------------|
D|--------|-----------------------|--------|-----------------------|-----------------9---9---10--10--|
A|--------|-----------------------|--------|-----------------------|-7---7---------------------------|
E|-0------|-0-----0---0-------0---|-0------|-0-----0---0---0---0---|---------------------------------|


G|-7---7---------------------------|---------9---9-------------------|-7---7------------------------|
D|---------10--10--9---9-----------|-----------------9---9---10--10--|---------10--10--9---9--------|
A|-------------------------10--10--|-7---7---------------------------|-------------------------10---|
E|---------------------------------|---------------------------------|------------------------------|


G|---------9---9-------------------|-7---7---------------------------|---------9---9-------------------|
D|-----------------9---9---10--10--|---------10--10--9---9-----------|-----------------9---9---10--10--|
A|-7---7---------------------------|-------------------------10--10--|-7---7---------------------------|
E|---------------------------------|---------------------------------|---------------------------------|


G|-7---7------------------------|---------9---9-------------------|-7---7---------------------------|
D|---------10--10--9---9--------|-----------------9---9---10--10--|---------10--10--9---9-----------|
A|-------------------------10---|-7---7---------------------------|-------------------------10--10--|
E|------------------------------|---------------------------------|---------------------------------|


G|---------9---9-------------------|-7---7---------------------------|---------9---9-------------------|
D|-----------------9---9---10--10--|---------10--10--9---9-----------|-----------------9---9---10--10--|
A|-7---7---------------------------|-------------------------10--10--|-7---7---------------------------|
E|---------------------------------|---------------------------------|---------------------------------|


G|-7---7---------------------------|---------9---9-------------------|-7---7---------------------------|
D|---------10--10--9---9-----------|-----------------9---9---10--10--|---------10--10--9---9-----------|
A|-------------------------10--10--|-7---7---------------------------|-------------------------10--10--|
E|---------------------------------|---------------------------------|---------------------------------|


G|---------9---9-------------------|-7---7---------------------------|---------9---9-------------------|
D|-----------------9---9---10--10--|---------10--10--9---9-----------|-----------------9---9---10--10--|
A|-7---7---------------------------|-------------------------10--10--|-7---7---------------------------|
E|---------------------------------|---------------------------------|---------------------------------|


G|-7---7---------------------------|---------9---9-------------------|-7---7---------------------------|
D|---------10--10--9---9-----------|-----------------9---9---10--10--|---------10--10--9---9-----------|
A|-------------------------10--10--|-7---7---------------------------|-------------------------10--10--|
E|---------------------------------|---------------------------------|---------------------------------|


G|---------9---9-------------------|-7---7------------------------|---------9---9-------------------|
D|-----------------9---9---10--10--|---------10--10--9---9--------|-----------------9---9---10--10--|
A|-7---7---------------------------|------------------------------|-7---7---------------------------|
E|---------------------------------|------------------------------|---------------------------------|


G|-7---7---------------------------|---------9---9-------------------|-7---7------------------------|
D|---------10--10--9---9-----------|-----------------9---9---10--10--|---------10--10--9---9--------|
A|-------------------------10--10--|-7---7---------------------------|-------------------------10---|
E|---------------------------------|---------------------------------|------------------------------|


G|---------9---9-------------------|-7---7---------------------------|---------9---9-------------------|
D|-----------------9---9---10--10--|---------10--10--9---9-----------|-----------------9---9---10--10--|
A|-7---7---------------------------|-------------------------10--10--|-7---7---------------------------|
E|---------------------------------|---------------------------------|---------------------------------|


G|-7---7------------------------|---------9---9-------------------|-7---7---------------------------|
D|---------10--10--9---9--------|-----------------9---9---10--10--|---------10--10--9---9-----------|
A|-------------------------10---|-7---7---------------------------|-------------------------10--10--|
E|------------------------------|---------------------------------|---------------------------------|


G|---------9---9-------------------|-7---7------------------------|---------9---9-------------------|
D|-----------------9---9---10--10--|---------10--10--9---9--------|-----------------9---9---10--10--|
A|-7---7---------------------------|-------------------------10---|-7---7---------------------------|
E|---------------------------------|------------------------------|---------------------------------|


G|-7---7---------------------------|---------9---9-------------------|-7---7------------------------|
D|---------10--10--9---9-----------|-----------------9---9---10--10--|---------10--10--9---9--------|
A|-------------------------10--10--|-7---7---------------------------|-------------------------10---|
E|---------------------------------|---------------------------------|------------------------------|


G|---------------------------------|---------9---9-------------------|-7---7---------------------------|
D|---------------------------------|-----------------9---9---10--10--|---------10--10--9---9-----------|
A|---------------------------------|-7---7---------------------------|-------------------------10--10--|
E|-0---0---0---0---0---0---0---0---|---------------------------------|---------------------------------|


G|---------9---9-------------------|-7---7---------------------------|---------9---9-------------------|
D|-----------------9---9---10--10--|---------10--10--9---9-----------|-----------------9---9---10--10--|
A|-7---7---------------------------|-------------------------10--10--|-7---7---------------------------|
E|---------------------------------|---------------------------------|---------------------------------|


G|-7---7---------------------------|---------9---9-------------------|-7---7---------------------------|
D|---------10--10--9---9-----------|-----------------9---9---10--10--|---------10--10--9---9-----------|
A|-------------------------10--10--|-7---7---------------------------|-------------------------10--10--|
E|---------------------------------|---------------------------------|---------------------------------|


G|---------9---9-------------------|-7---7---------------------------|---------9---9-------------------|
D|-----------------9---9---10--10--|---------10--10--9---9-----------|-----------------9---9---10--10--|
A|-7---7---------------------------|-------------------------10--10--|-7---7---------------------------|
E|---------------------------------|---------------------------------|---------------------------------|


G|-7---7---------------------------|---------9---9-------------------|-7---7---------------------------|
D|---------10--10--9---9-----------|-----------------9---9---10--10--|---------10--10--9---9-----------|
A|-------------------------10--10--|-7---7---------------------------|-------------------------10--10--|
E|---------------------------------|---------------------------------|---------------------------------|


G|---------9---9-------------------|-7---7---------------------------|---------9---9-------------------|
D|-----------------9---9---10--10--|---------10--10--9---9-----------|-----------------9---9---10--10--|
A|-7---7---------------------------|-------------------------10--10--|-7---7---------------------------|
E|---------------------------------|---------------------------------|---------------------------------|


G|-7---7---------------------------|---------9---9-------------------|-7---7---------------------------|
D|---------10--10--9---9-----------|-----------------9---9---10--10--|---------10--10--9---9-----------|
A|-------------------------10--10--|-7---7---------------------------|-------------------------10--10--|
E|---------------------------------|---------------------------------|---------------------------------|


G|---------9---9-------------------|-7---7---------------------------|---------9---9-------------------|
D|-----------------9---9---10--10--|---------10--10--9---9-----------|-----------------9---9---10--10--|
A|-7---7---------------------------|-------------------------10--10--|-7---7---------------------------|
E|---------------------------------|---------------------------------|---------------------------------|


G|-7---7------------------------|---------9---9-------------------|-7---7---------------------------|
D|---------10--10--9---9--------|-----------------9---9---10--10--|---------10--10--9---9-----------|
A|------------------------------|-7---7---------------------------|-------------------------10--10--|
E|------------------------------|---------------------------------|---------------------------------|


G|---------9---9-------------------|-7---7------------------------|---------9---9-------------------|
D|-----------------9---9---10--10--|---------10--10--9---9--------|-----------------9---9---10--10--|
A|-7---7---------------------------|-------------------------10---|-7---7---------------------------|
E|---------------------------------|------------------------------|---------------------------------|


G|-7---7---------------------------|---------9---9-------------------|-7---7------------------------|
D|---------10--10--9---9-----------|-----------------9---9---10--10--|---------10--10--9---9--------|
A|-------------------------10--10--|-7---7---------------------------|-------------------------10---|
E|---------------------------------|---------------------------------|------------------------------|


G|---------9---9-------------------|-7---7---------------------------|---------9---9-------------------|
D|-----------------9---9---10--10--|---------10--10--9---9-----------|-----------------9---9---10--10--|
A|-7---7---------------------------|-------------------------10--10--|-7---7---------------------------|
E|---------------------------------|---------------------------------|---------------------------------|


G|-7---7------------------------|---------9---9-------------------|-7---7---------------------------|
D|---------10--10--9---9--------|-----------------9---9---10--10--|---------10--10--9---9-----------|
A|-------------------------10---|-7---7---------------------------|-------------------------10--10--|
E|------------------------------|---------------------------------|---------------------------------|


G|---------9---9-------------------|-7---7------------------------|---------------------------------|
D|-----------------9---9---10--10--|---------10--10--9---9--------|---------------------------------|
A|-7---7---------------------------|-------------------------10---|---------------------------------|
E|---------------------------------|------------------------------|-0---0---0---0---0---0---0---0---|


G|---------------------------------|------------------------------|------------------------------|
D|---------------------------------|------------------------------|------------------------------|
A|---------------------------------|------------------------------|------------------------------|
E|-6---5---0---5---4---0---4---3---|-0---3---2---0---2---1---1----|-0---0---0---0---0----0---0---|


G|------------------------|---------------------------------|------------------------------|
D|------------------------|---------------------------------|------------------------------|
A|------------------------|---------------------------------|------------------------------|
E|-0---0---0----0----0----|-6---5---0---5---4---0---4---3---|-0---3---2---0---2---1---1----|


G|------------------------------|-----------------------------|---------------------------------|
D|------------------------------|-----------------------------|---------------------------------|
A|------------------------------|---------1---1--2--1----1----|---------------------------------|
E|-0---0---0---0---0----0---0---|-0---0-----------------------|-6---5---0---5---4---0---4---3---|


G|------------------------------|------------------------------|------------------------|
D|------------------------------|------------------------------|------------------------|
A|------------------------------|------------------------------|------------------------|
E|-0---3---2---0---2---1---1----|-0---0---0---0---0----0---0---|-0---0---0----0----0----|


G|---------------------------------|------------------------------|------------------------------|
D|---------------------------------|------------------------------|------------------------------|
A|---------------------------------|------------------------------|------------------------------|
E|-6---5---0---5---4---0---4---3---|-0---3---2---0---2---1---1----|-0---0---0---0---0----0---0---|


G|-----------------------------|--------|-----------------------|--------|-----------------------|
D|-----------------------------|--------|-----------------------|--------|-----------------------|
A|---------1---1--2--1----1----|--------|-----------------------|--------|-----------------------|
E|-0---0-----------------------|-0------|-0-----0---0---0---0---|-0------|-0-----0---0---0---0---|


G|--------|-----------------------|--------|-----------------------|-------------1----|
D|--------|-----------------------|--------|-----------------------|-2-----3----------|
A|--------|-----------------------|--------|-----------------------|------------------|
E|-0------|-0-----0---0-------0---|-0------|-0-----0---0---0---0---|------------------|


G|-1----1---2---1---------|-------------1----|-1----1---2---1---------|----------------------------|
D|-------------------3----|-2-----3----------|-------------------3----|-2--------------------------|
A|------------------------|------------------|------------------------|-----2-------2---------2----|
E|------------------------|------------------|------------------------|----------------------------|


G|--------|----------------------------|--------|-------------1----|-1----1---2---1---------|
D|--------|-2--------------------------|--------|-2-----3----------|-------------------3----|
A|-2------|-----2-------2---------2----|-2------|------------------|------------------------|
E|--------|----------------------------|--------|------------------|------------------------|


G|-------------1----|-1----1---2---1---------|----------------------------|--------|
D|-2-----3----------|-------------------3----|-2--------------------------|--------|
A|------------------|------------------------|-----2-------2---------2----|-2------|
E|------------------|------------------------|----------------------------|--------|


G|----------------------------|--------|-------------1----|-1----1---2---1---------|
D|-2--------------------------|--------|-2-----3----------|-------------------3----|
A|-----2-------2---------2----|-2------|------------------|------------------------|
E|----------------------------|--------|------------------|------------------------|


G|-------------1----|-1----1---2---1---------|----------------------------|--------|
D|-2-----3----------|-------------------3----|-2--------------------------|--------|
A|------------------|------------------------|-----2-------2---------2----|-2------|
E|------------------|------------------------|----------------------------|--------|


G|----------------------------|--------|-------------1----|-1----1---2---1---------|
D|-2--------------------------|--------|-2-----3----------|-------------------3----|
A|-----2-------2---------2----|-2------|------------------|------------------------|
E|----------------------------|--------|------------------|------------------------|


G|-------------1----|-1----1---2---1---------|----------------------------|--------|
D|-2-----3----------|-------------------3----|-2--------------------------|--------|
A|------------------|------------------------|-----2-------2---------2----|-2------|
E|------------------|------------------------|----------------------------|--------|


G|----------------------------|--------|------------------|--------|-------------------------|
D|-2--------------------------|--------|------------------|--------|-------------------------|
A|-----2-------2---------2----|-2------|-3-----3-----3----|-3------|-2---------2-------------|
E|----------------------------|--------|------------------|--------|-------------------------|


G|--------|--------|--------|--------|
D|--------|--------|--------|--------|
A|--------|--------|--------|--------|
E|--------|--------|--------|--------|