Menu:

 

Search:

 

david surette - down the brae:

 



Title: Down The Brae
Artist: 
Album: Down The Brae
Author: Traditional - Scottish March


Track 1: Steel String Acoustic Guitar

D|------------------------|-----------------0---------------|------------------------------|
A|------------------------|---------------------0---3---0---|------------------0-----------|
G|------------------------|-----0---2---------------0-------|-----0---0------------0-------|
D|------0----0---2---3----|-------------0-----------2-------|---------3----3-----------2---|
A|-0----0-----------------|-------------------------0---0---|---------3----3-------3-------|
D|------0-----------------|---------0-----------------------|------------------------------|


D|--------------------------------------|-------------------------------|-----------------0---------------|
A|--------------------------------------|-------------------------------|---------------------0---3---0---|
G|--------------------------------------|-------------------------------|-----0---2---------------0-------|
D|-----0---2---3--2--0--2---0-----------|---------0--------0---2---3----|-------------0-----------2-------|
A|-3-------0--------------------3---0---|-----0---0------0--------------|-------------------------0---0---|
D|--------------------------------------|---------0----0----------------|-0-------0-----------------------|


D|------------------------------|-----------------------------------|-0---------------0-------0---------|
A|------------------0-----------|-----------------------------------|-----3---0-----------0-------------|
G|-----0----------------0-------|-----------------------------------|--------------------------------2--|
D|-2-------3----3-----------2---|-----0---2---3--2--0--2-------0----|-------------0---------------0-----|
A|---------1----1-------3-------|-3-------0----------------3---5----|-----------------------------------|
D|------------------------------|-----------------------------------|---------0---------------0---------|


D|-----0---2----0---------------|----------------------------|-----0-----------------------------|
A|-3-------0------------3---0---|---------------0---3--------|-3-------3---0-------0---3---------|
G|---------0------------0-------|------0----0--------------0-|-----------------0--------------0--|
D|---------2--------2-----------|-----------2------------2---|-----------------------------2-----|
A|---------0----0---------------|------3------------3--------|---------0---------------0---------|
D|------------------------------|----------------------------|-----------------------------------|


D|-----------------0-------0---------|-----0---2----0---------------|------------------------------|
A|-0-------0-----------0-------------|-3-------0------------3---0---|------------------0-----------|
G|-----0--------------------------2--|---------0------------0-------|-----0----------------0-------|
D|-------------0---------------0-----|---------2--------2-----------|---------3----3-----------2---|
A|-----------------------------------|---------0----0---------------|-0-------1----1-------3-------|
D|---------0---------------0---------|------------------------------|------------------------------|


D|-----------------------------------|-----------------------------|---------7-------12---10--7---|
A|-----------------------------------|---------------7---8---------|-8---10--8-------0------------|
G|-----------------------------------|------7-------------------7--|-----------------10-----------|
D|-----0---2---3--2--0--2-------0----|-0---------0-----------0-----|-------------0---0------------|
A|-3-------0----------------3--------|-----------------------------|------------------------------|
D|------------------------------5----|------0------------0---------|---------0------------0-------|


D|---------------------7---5-------|---------------------------------|--------------------------------|
A|-----10--8-------8-----------7---|-----5---7-------5---------------|------------------7---8---------|
G|-----------------7---------------|-5-----------------------5-------|---------7-------------------7--|
D|-------------0-------------------|-------------0-------0-------7---|-----7--------0-----------0-----|
A|-------------------------0-------|---------0---------------0-------|--------------------------------|
D|---------0-----------------------|---------------------------------|---------0------------0---------|


D|---------7----12---10--7---|---------------------7---5-------|---------------------------|
A|-8---10--8----0------------|-----10--8-------8-----------7---|-----5---7-------5---------|
G|--------------10---9-------|-----------------7---------------|-5--------------------7----|
D|--------------0------------|-------------8-------------------|-------------0-------------|
A|-------------------0-------|-------------------------0-------|---------0-----------------|
D|---------0-----------------|---------------------------------|----------------------0----|


D|-12--10-------12---12---|-10--12--14---12---10--7---|-------------------10---|-10--12--10--------------10---|
A|---------12---0---------|---------0----0------------|------10---10--12--10---|-------------12------12-------|
G|--------------10--------|---------12---10-----------|------9------------9----|-----------------12-----------|
D|--------------0---------|---------0----0------------|------------------------|------------------------------|
A|------------------------|---------------------------|------0-----------------|---------0--------------------|
D|---------0--------------|---------------------------|------------------------|------------------------------|


D|--------------12---12---|-10--12--14---12---10--7---|---------------------7---5-------|
A|-12------12-------------|---------0----0------------|-----10--8-------8-----------7---|
G|-----12-----------------|---------12---10-----------|-----------------7---------------|
D|-------------------12---|---------0----0------------|-------------8-------------------|
A|---------0--------------|---------------------------|-------------------------0-------|
D|------------------------|---------------------------|---------------------------------|


D|-----------------------------|--------------------------------|-----------------0------------|
A|-----5---7------5------------|--------------------------------|----------------------3---0---|
G|-5------------5-----5---7----|--------------------------------|-----0---2------------0-------|
D|-----------------------------|---------0---------0---2---3----|-------------0--------2-------|
A|---------0-------------------|-----0----------0---------------|----------------------0---0---|
D|------------------------0----|---------0---0-----0------------|-0-------0--------------------|


D|------------------------------|----------------------------------------|-------------------------------------|
A|------------------0-----------|--------------------------------0-------|-------------------------------------|
G|-----0----------------0-------|----------------------------0-------0---|-------------------------------------|
D|-2-------3----3-----------2---|-----0---2---3--2--0--2--3--------------|-0--2--0------0---------0---2---3----|
A|---------3----3-------3-------|-3-------0------------0-----------------|----------3----------0---------------|
D|------------------------------|----------------------------------------|--------------0---0-----0------------|


D|-----------------0---------------|------------------------------|-----------------------------------|
A|---------------------0---3---0---|------------------0-----------|-----------------------------------|
G|-----0---2---------------0-------|-----0----------------0-------|-----------------------------------|
D|-------------0-----------2-------|-2-------3----3-----------2---|-----0---2---3--2--0--2-------0----|
A|-------------------------0---0---|---------1----1-------3-------|-3-------0----------------3--------|
D|-0-------0-----------------------|------------------------------|------------------------------0----|


D|-0-----------------0-------0---------|-----0---2----0---------------|----------------------------------|
A|-----3---0---------------------------|-3-------0------------3---0---|-----0----------------0---3-------|
G|----------------2--------------------|-2-------0------------0-------|---------0--------0---------------|
D|-------------0-----0--------------0--|---------2--------2-----------|----------------2-------------2---|
A|-------------------------------0-----|---------0----0---------------|-0-------3----3-----------3-------|
D|---------0-------------0---0---------|------------------------------|----------------------------------|


D|-----0-----------------------------|--------------0----0-------|-----0---2----0---------------|
A|-3-------3---0-------0---3---------|-0-------0----0------------|-3-------0------------3---0---|
G|-0---------------0--------------0--|-----0--------2------------|-2-------0------------0-------|
D|-----------------------------2-----|--------------0--------0---|---------2--------2-----------|
A|---------0---------------0---------|--------------0------------|---------0----0---------------|
D|-----------------------------------|---------0----0----0-------|------------------------------|


D|------------------------------|-----------------------------------|------------------------|
A|------------------0-----------|-----------------------------------|------------------------|
G|-----0----------------0-------|-----------------------------------|------------------------|
D|---------3----3-----------2---|-----0---2---3--2--0--2-------0----|------0---------0-------|
A|-0-------1----1-------3-------|-3-------0----------------3--------|-----------0---------0--|
D|------------------------------|------------------------------0----|-0----0---------0-------|


D|---------------------------------|-0----------------------------|--------------------------------------|
A|---------------------------------|------0--3---0----------------|-----0--------------------------------|
G|---------------------0---2----2--|---------------------0--------|---------0----------------------------|
D|-0---2---3-------3---------------|-------------------------3----|-3-----------2-------0---2---3--2--0--|
A|--------------0------------------|-------------------------3----|-3-------3-------3-------0------------|
D|-0-------0-------0-------0-------|-0-------0-------0------------|--------------------------------------|


D|------------------------------|---------------------------------|-0----------------------------|
A|------------------------------|---------------------------------|-----0---3---0----------------|
G|------------------------------|---------------------0---2----2--|---------------------0--------|
D|-2---0---0------------0-------|-0---2---3-------3---------------|-------------------------3----|
A|-0-------3---0----0--------0--|--------------0------------------|-------------------------1----|
D|----------------------0-------|-0-------0-------0-------0-------|-0-------0-------0------------|


D|--------------------------------------|--------------0------------|-0----0--------0---2----|
A|-----0--------------------------------|------------------3---0----|-----------3------------|
G|---------0----------------------------|---------------------------|------------------------|
D|-3-----------2-------0---2---3--2--0--|-2-------0-----------------|------------------------|
A|-1-------3-------3-------0------------|-0---3---------------------|-------------------0----|
D|--------------------------------------|---------0----0-------0----|-0----0----0------------|


D|-0---2--0--------------------------|---------------------0-----------|---------------------------|
A|-----------3---0-------0-----------|-----0---3----0--3-------3---0---|-----0---3------------0----|
G|---------------------------0-------|-0-------------------------------|-0------------2---0--------|
D|--------------------------------2--|---------------------------------|---------------------------|
A|-0---------0-------0-------3-------|-3-------3-------3-------0-------|-0-------0----0------------|
D|-----------------------------------|---------------------------------|----------------------0----|


D|-0----0--------0---2----|-0---2--0-----------------------|--------------------------------------|
A|-----------3------------|-----------3---0----------------|-----0--------------------------------|
G|------------------------|-----------------------0--------|---------0----------------------------|
D|------------------------|---------------------------3----|-3-----------2-------0---2---3--2--0--|
A|-------------------0----|-0---------0-------0-------1----|-1-------3-------3-------0------------|
D|-0----0----0------------|--------------------------------|--------------------------------------|


D|--------------------------------|---------------------------------|-0----------------------------|
A|--------------------------------|---------------------------------|------0--3---0----------------|
G|--------------------------------|---------------------0---2----2--|---------------------0--------|
D|-2--0------0-------0----0-------|-0---2---3-------3---------------|-------------------------3----|
A|-------3--------0------------0--|--------------0------------------|-------------------------3----|
D|-----------0-------0----0-------|-0-------0-------0-------0-------|-0-------0-------0------------|


D|--------------------------------------|------------------------------|---------------------------------|
A|-----0--------------------------------|------------------------------|---------------------------------|
G|---------0----------------------------|------------------------------|---------------------0---2----2--|
D|-3-----------2-------0---2---3--2--0--|-2---0---0------------0-------|-0---2---3-------3---------------|
A|-3-------3-------3-------0------------|-0-------3---0----0--------0--|--------------0------------------|
D|--------------------------------------|----------------------0-------|-0-------0-------0-------0-------|


D|-0----------------------------|--------------------------------------|--------------0------------|
A|-----0---3---0----------------|-----0--------------------------------|------------------3---0----|
G|---------------------0--------|---------0----------------------------|---------------------------|
D|-------------------------3----|-3-----------2-------0---2---3--2--0--|-2-------0-----------------|
A|-------------------------1----|-1-------3-------3-------0------------|-0---3---------------------|
D|-0-------0-------0------------|--------------------------------------|---------0----0-------0----|


D|-0----0--------0---2----|-0---2--0--------------------------|---------------------0-----------|
A|-----------3------------|-----------3---0-------0-----------|-----0---3----0--3-------3---0---|
G|------------------------|---------------------------0-------|-0-------------------------------|
D|------------------------|--------------------------------2--|---------------------------------|
A|-------------------0----|-0---------0-------0-------3-------|-3-------3-------3-------0-------|
D|-0----0----0------------|-----------------------------------|---------------------------------|


D|---------------------------|-0----0--------0---2----|-0---2--0-----------------------|
A|-----0---3------------0----|-----------3------------|-----------3---0----------------|
G|-0------------2---0--------|------------------------|-----------------------0--------|
D|---------------------------|------------------------|---------------------------3----|
A|-0-------0----0------------|-------------------0----|-0---------0-------0-------1----|
D|----------------------0----|-0----0----0------------|--------------------------------|


D|--------------------------------------|-------------------------------------|--------------------------------|
A|-----0--------------------------------|-------------------------------------|--------------------------------|
G|---------0----------------------------|-------------------------------------|--------------------------------|
D|-3-----------2-------0---2---3--2--0--|-2--0------0-------0----2---3--2--0--|-2--0------0-------0---2---3----|
A|-1-------3-------3-------0------------|-------3--------0-------0------------|-------3--------0---------------|
D|--------------------------------------|-----------0-------0-----------------|-----------0-------0------------|


D|--------------------------------------|-----------------------------|
A|-----0--------------------------------|-----------------------------|
G|---------0----------------------------|-----------------------------|
D|-3-----------2-------0---2---3--2--0--|-2--0------0-----------------|
A|-1-------3-------3-------0------------|-------3-------0-------------|
D|--------------------------------------|-------------------0----0----|





Track 2: Untitled

G|--------|--------|--------|--------|--------|--------|--------|--------|--------|
D|--------|--------|--------|--------|--------|--------|--------|--------|--------|
A|--------|--------|--------|--------|--------|--------|--------|--------|--------|
E|--------|--------|--------|--------|--------|--------|--------|--------|--------|


G|--------|--------|--------|--------|--------|--------|--------|--------|--------|
D|--------|--------|--------|--------|--------|--------|--------|--------|--------|
A|--------|--------|--------|--------|--------|--------|--------|--------|--------|
E|--------|--------|--------|--------|--------|--------|--------|--------|--------|


G|--------|--------|--------|--------|--------|--------|--------|--------|--------|
D|--------|--------|--------|--------|--------|--------|--------|--------|--------|
A|--------|--------|--------|--------|--------|--------|--------|--------|--------|
E|--------|--------|--------|--------|--------|--------|--------|--------|--------|


G|--------|--------|--------|--------|--------|--------|--------|--------|--------|
D|--------|--------|--------|--------|--------|--------|--------|--------|--------|
A|--------|--------|--------|--------|--------|--------|--------|--------|--------|
E|--------|--------|--------|--------|--------|--------|--------|--------|--------|


G|--------|--------|--------|--------|--------|--------|--------|--------|--------|
D|--------|--------|--------|--------|--------|--------|--------|--------|--------|
A|--------|--------|--------|--------|--------|--------|--------|--------|--------|
E|--------|--------|--------|--------|--------|--------|--------|--------|--------|


G|--------|--------|--------|--------|--------|--------|--------|--------|--------|
D|--------|--------|--------|--------|--------|--------|--------|--------|--------|
A|--------|--------|--------|--------|--------|--------|--------|--------|--------|
E|--------|--------|--------|--------|--------|--------|--------|--------|--------|


G|--------|--------|--------|--------|--------|--------|--------|--------|--------|
D|--------|--------|--------|--------|--------|--------|--------|--------|--------|
A|--------|--------|--------|--------|--------|--------|--------|--------|--------|
E|--------|--------|--------|--------|--------|--------|--------|--------|--------|


G|--------|--------|--------|--------|--------|--------|--------|--------|--------|
D|--------|--------|--------|--------|--------|--------|--------|--------|--------|
A|--------|--------|--------|--------|--------|--------|--------|--------|--------|
E|--------|--------|--------|--------|--------|--------|--------|--------|--------|


G|--------|--------|--------|--------|--------|--------|--------|--------|--------|
D|--------|--------|--------|--------|--------|--------|--------|--------|--------|
A|--------|--------|--------|--------|--------|--------|--------|--------|--------|
E|--------|--------|--------|--------|--------|--------|--------|--------|--------|


G|--------|--------|--------|
D|--------|--------|--------|
A|--------|--------|--------|
E|--------|--------|--------|