Menu:

 

Search:

 

darkane - hostile phantasm:

 



/---------------------------------------------------------------------------
/ The following is the author's own interpretation of the song, to be used -
/ for studying or private use only, removal of any part of this ten line   -
/ header is illegal!!!  Removal of the transcribers name or anything       -
/ relevant to the transcriber is also illegal, as so is the removal of the -
/ place inwhich the tab was downloaded. Publishing as well as printing of  -
/ the tab is illegal without permission of the transcriber and copyright   -
/ owner of the song. Failure to apply to these laws result will in legal   -
/ action from the appropriate parties.                                     -
/---------------------------------------------------------------------------

downloaded from Displacer's Tablature Site at
http://www.dsrmusic.com/metaltab
join the death/black tab emailing list by filling out the free
subscription form at http://www.dsrmusic.com/metaltab

HOSTILE PHANTASM
Taken from the Darkane album ?Insanity?
Nuclear Blast (Europe), Century Media (U.S)
?2001
Malmstr?/Wildoer

I?ve tried to translate my own solo. Will try to get Klas to translate his someday. 
All notes aren?t 100% correct at the fast parts of the solo.

Listen to the midifiles
Part 1 (Riff A1 & A2)
Part 2 (Riff B to F)
Part 3 (Riff G) 


Riff A1
		Guitar I & II
B ||---------------------------|---------------------------|---------------------------|
F#||---------------------------|---------------------------|---------------------------|
D ||---------------------------|---------------------------|---------------------------|
A ||---------------------------|----------------9----------|---------------------------|
E ||--2--------3----5----6--3--|--2--------3----7----9--8--|--2--------3----5----6--3--|
B ||--0--------1----3----4--1--|--0--------1---------7--6--|--0--------1----3----4--1--|



|------------------------------------------|
|------------------------------------------|
|-----------9----10------------------------|
|-----------9----10----7----9----5---------|Repeat
|--2-------------------7----9----5----6----|
|--0----------------------------------6----|


Riff A2
		Guitar I & II
|---------------------------|---------------------------|---------------------------|
|---------------------------|---------------------------|---------------------------|
|---------------------------|---------------------------|---------------------------|
|---------------------------|----------------9----------|---------------------------|
|--2--------3----5----6--3--|--2--------3----7----9--8--|--2--------3----5----6--3--|
|--0--------1----3----4--1--|--0--------1---------7--6--|--0--------1----3----4--1--|



|--------------------------------------------------|---------------------------|
|--------------------------------------------------|---------------------------|
|--------------------------------------------------|---------------------------|
|--------------------------------------------------|---------------------------|
|--2------------------0----2-2-2-2---------6-6-6-6-|--2--------3----5----6--3--|
|--0--------0----1-----------------3-3-3-3---------|--0--------1----3----4--1--|



|---------------------------|--------------------------|--------------------------|
|---------------------------|--------------------------|--------------------------|
|---------------------------|--------------------------|--------------------------|
|----------------9----------|--------------------------|-----------7----6----8----|Repeat
|--2--------3----7----9--8--|--5--------6----8----6----|--5--------5----4----6----|
|--0--------1---------7--6--|--3--------4----6----4----|--3--------5----4----6----|

Ending
		Guitar I
|--------------------------------------------------------------------------|--------|--------|
|--------------------------------------------------------------------------|--------|--------|
|--------------------------------------------------------------------------|--------|--------|
|--------------------------------------------------5-5-5-5-----------------|--------|--------|
|------------------4-4-4-4-6-6-6-6-2-2-2-2-----------------5-5-5-5-1-1-1-1-|--4-----|--------|
|--4-4-4-4-5-5-5-5-------------------------3-3-3-3-------------------------|--------|--------|


		Guitar II
|--------------------------------------------------------------------------|--------|--------|
|--------------------------------------------------------------------------|--------|--------|
|--------------------------------------------------3-3-3-3-----------------|--------|--------|
|------------------2-2-2-2-4-4-4-4-1-1-1-1-----------------5-5-5-5---------|--3-----|--------|
|--3-3-3-3-4-4-4-4-------------------------2-2-2-2-----------------5-5-5-5-|--------|--------|
|--------------------------------------------------------------------------|--------|--------|


Riff B (new tempo)
		Guitar I
|-----------------------------------|----------------------------------|
|-----------------------------------|----------------------------------|
|-----------------------------------|----------------------------------|
|--7---------------10-------9-------|--6---------------9-------6-------|
|----0-0-0-0-0-0-0----0-0-0---0-0-0-|----7-7-7-7-7-7-7---7-7-7---8-8-8-|
|-----------------------------------|----------------------------------|


|-----------------------------------|----------------------------------|
|-----------------------------------|----------------------------------|
|-----------------------------------|----------------------------------|
|--7-------10-------9-------2-------|--4-----------7-----------4-------|
|----0-0-0----0-0-0---0-0-0---0-0-0-|----6-6-6-6-6---6-6-6-6-6---6-6-6-|
|-----------------------------------|----------------------------------|


|----------------------------------|--------------------------------------|
|----------------------------------|--------------------------------------|
|----------------------------------|--------------------------------------|
|--6-----------9-----------6-------|----------10-10-10-10-9-9-9-9-6-6-6-6-|
|----8-8-8-8-8---8-8-8-8-8---8-8-8-|--7-7-7-7-----------------------------|
|----------------------------------|--------------------------------------|


|----------------------------------|----------------------------------|
|----------------------------------|----------------------------------|
|----------------------------------|----------------------------------|
|--------------------------6-6-6-6-|--7-7-7-7-2-2-2-2-1-1-1-1-2-2-2-2-|Repeat
|--0-0-0-0-2-2-2-2-3-3-3-3---------|----------------------------------|
|----------------------------------|----------------------------------|



		Guitar II
|-----------------------------------|----------------------------------|
|-----------------------------------|----------------------------------|
|-----------------------------------|----------------------------------|
|--7---------------10-------9-------|--6---------------9-------6-------|
|----0-0-0-0-0-0-0----0-0-0---0-0-0-|----7-7-7-7-7-7-7---7-7-7---8-8-8-|
|-----------------------------------|----------------------------------|


|-----------------------------------|-----------------------------------|
|-----------------------------------|-----------------------------------|
|-----------------------------------|-----------------------------------|
|--7-------10-------9---------------|--7-----------10-----------7-------|
|----0-0-0----0-0-0---0-0-0-7-0-0-0-|----9-9-9-9-9----9-9-9-9-9---9-9-9-|
|-----------------------------------|-----------------------------------|


|------------------------------------------------|----------------------------------|
|------------------------------------------------|----------------------------------|
|------------------------------------------------|----------------------------------|
|--9----------------12----------------9----------|----------7-7-7-7-6-6-6-6---------|
|----11-11-11-11-11----11-11-11-11-11---11-11-11-|--7-7-7-7-----------------7-7-7-7-|
|------------------------------------------------|----------------------------------|


|----------------------------------|----------------------------------|
|----------------------------------|----------------------------------|
|----------------------------------|----------------------------------|
|----------------------------------|----------------------------------|Repeat
|--3-3-3-3-5-5-5-5-7-7-7-7-7-7-7-7-|--7-7-7-7-2-2-2-2-2-2-2-2-2-2-2-2-|
|----------------------------------|----------------------------------|


Riff C1
		Guitar I & II
|------------------------------|------------------|
|------------------------------|------------------|
|------------------------------|------------------|
|------------------------------|------------------|Repeat
|--2-2-2--2-2-2--2-2-2--2-2-2--|------------------|  2x
|--0-0-0--0-0-0--0-0-0--0-0-0--|------------------|


		Guitar I
|------------------------------|--------------------------------|
|------------------------------|--------------------------------|
|------------------------------|--------------------------------|
|------------------------------|--5-5-5--2-2-2------------------|
|--2-2-2--2-2-2--2-2-2--2-2-2--|----------------3-3-3-3-6-6-6-6-|
|--0-0-0--0-0-0--0-0-0--0-0-0--|--------------------------------|


		Guitar II
|------------------------------|--------------------------------|
|------------------------------|--------------------------------|
|------------------------------|--------------------------------|
|------------------------------|----------------9-9-9-9---------|
|--2-2-2--2-2-2--2-2-2--2-2-2--|--7-7-7--4-4-4----------9-9-9-9-|
|--0-0-0--0-0-0--0-0-0--0-0-0--|--------------------------------|


Riff C2
		Guitar I
|------------------------------|---------------------|------------------------------|
|------------------------------|---------------------|------------------------------|
|------------------------------|---------------------|------------------------------|
|------------------------------|--5--------9----9----|------------------------------|
|--2-2-2--2-2-2--2-2-2--2-2-2--|---------------------|--2-2-2--2-2-2--2-2-2--2-2-2--|
|--0-0-0--0-0-0--0-0-0--0-0-0--|---------------------|--0-0-0--0-0-0--0-0-0--0-0-0--|


|----------------------|------------------------------|----------------------|
|----------------------|------------------------------|----------------------|
|----------------------|------------------------------|----------------------|
|--10--------9---------|------------------------------|--9--------6----10----|
|-----------------9----|--2-2-2--2-2-2--2-2-2--2-2-2--|--7--------4----8-----|
|----------------------|--0-0-0--0-0-0--0-0-0--0-0-0--|--7--------4----8-----|


|------------------------------|--------------------------------|
|------------------------------|--------------------------------|
|------------------------------|--------------------------------|
|------------------------------|--5-5-5--2-2-2------------------|
|--2-2-2--2-2-2--2-2-2--2-2-2--|----------------3-3-3-3-6-6-6-6-|
|--0-0-0--0-0-0--0-0-0--0-0-0--|--------------------------------|



		Guitar II
|------------------------------|---------------------|------------------------------|
|------------------------------|---------------------|------------------------------|
|------------------------------|---------------------|------------------------------|
|------------------------------|---------------------|------------------------------|
|--2-2-2--2-2-2--2-2-2--2-2-2--|--7--------4----3----|--2-2-2--2-2-2--2-2-2--2-2-2--|
|--0-0-0--0-0-0--0-0-0--0-0-0--|---------------------|--0-0-0--0-0-0--0-0-0--0-0-0--|


|---------------------|------------------------------|----------------------|
|---------------------|------------------------------|----------------------|
|---------------------|------------------------------|----------------------|
|--7--------5---------|------------------------------|--9--------6----10----|
|----------------6----|--2-2-2--2-2-2--2-2-2--2-2-2--|--7--------4----8-----|
|---------------------|--0-0-0--0-0-0--0-0-0--0-0-0--|--7--------4----8-----|


|------------------------------|--------------------------------|
|------------------------------|--------------------------------|
|------------------------------|--------------------------------|
|------------------------------|----------------9-9-9-9---------|
|--2-2-2--2-2-2--2-2-2--2-2-2--|--7-7-7--4-4-4----------9-9-9-9-|
|--0-0-0--0-0-0--0-0-0--0-0-0--|--------------------------------|


Riff C3

		Guitar I
|-----------------------------|---------------|-----------------------------|---------------|
|-----------------------------|---------------|-----------------------------|---------------|
|-----------------------------|---------------|-----------------------------|---------------|
|--7-7-7-7-7--7-7-7--7-7-3----|---------------|--3-3-3-3-3--3-3-3--3-3-6----|---------------|
|--5-5-5-5-5--5-5-5--5-5-4----|---------------|--1-1-1-1-1--1-1-1--1-1-7----|---------------|
|------------------------4----|---------------|------------------------0----|---------------|

		Guitar II
|-----------------------------|---------------|-----------------------------|---------------|
|-----------------------------|---------------|-----------------------------|---------------|
|-----------------------------|---------------|-----------------------------|---------------|
|--7-7-7-7-7--7-7-7--7-7-6----|---------------|--3-3-3-3-3--3-3-3--3-3-2----|---------------|
|--5-5-5-5-5--5-5-5--5-5-4----|---------------|--1-1-1-1-1--1-1-1--1-1-2----|---------------|
|------------------------4----|---------------|------------------------0----|---------------|


Riff D1
		Guitar I & II
|-----------------------------|
|-----------------------------|
|-----------------------------|Repeat
|-----------------------------|  3x
|--5-5-5-5-5--3-3-3--3-3-3----|
|--3-3-3-3-3--1-1-1--1-1-1----|


Riff D2
		Guitar I & II
|-----------------------------|-----------------------------|----------------------------|
|-----------------------------|-----------------------------|----------------------------|
|-----------------------------|-----------------------------|----------------------------|
|-----------------------------|-----------------------------|----------------------------|
|--2-2-2-2-2--2-2---2-2---2-2-|--2-2-2--2-2---2-2---2-2-2-2-|--2--2-2---2-2---2-2-2-2-2--|
|--0-0-0-0-0--0-0---0-0---0-0-|--0-0-0--0-0---0-0---0-0-0-0-|--0--0-0---0-0---0-0-0-0-0--|



|-----------------------------|---------------------------|-----------------------------|
|-----------------------------|---------------------------|-----------------------------|
|-----------------------------|---------------------------|-----------------------------|
|-----------------------------|---------------------------|-----------------------------|
|--2-2---2-2---5-5-5-5-5--5-5-|----5-5---5-5-5-5-5--5-5---|--5-5---5-5-5-5-5--5-5---5-5-|
|--0-0---0-0---3-3-3-3-3--3-3-|----3-3---3-3-3-3-3--3-3---|--3-3---3-3-3-3-3--3-3---3-3-|



|---------------------------|
|---------------------------|
|---------------------------|
|---------------------------|Repeat
|----5-5-5-5-5--5-5---5-5---|
|----3-3-3-3-3--3-3---3-3---|


Riff C2 (repeat 1x)


Riff E
		Guitar I & II
|-----------------------|----------------------|-----------------------|
|-----------------------|-----------------5----|--------------------1--|
|--4-------4---------5--|-------5---------5----|--4-------4----5----2--|
|--4----2--4----2----5--|----2--5------2--5----|--4----2--4----5----2--|
|--2----0--2----0----3--|----0--3------0--7----|--2----0--2----3----0--|
|-----------------------|----------------------|-----------------------|



|-----------------7----|-----------------------|----------------------|
|-------1---------5----|-----------------------|-----------------5----|
|-------2---------5----|--4-------4---------5--|-------5---------5----|
|----2--2---------5----|--4----2--4----2----5--|----2--5------2--5----|
|----0--0------0--0----|--2----0--2----0----3--|----0--3------0--7----|
|----------------------|-----------------------|----------------------|



|-----------------------|----------------------|
|--------------------1--|----------------------|
|--4-------4----5----2--|----------------------|
|--4----2--4----5----2--|----------2--2--2--2--|Repeat
|--2----0--2----3----0--|----------0--0--0--0--|
|-----------------------|----------------------|


Riff D2
Riff B
Riff E


Riff F (lead)
		Guitar I & II
|-------------------------|-------------------------|---------------------------|
|-------------------------|-------------------------|---------------------------|
|-------------------------|-------------------------|---------------------------|
|----------2-----------2--|-------2------------2----|----------2-------------2--|
|--2-2-2-2-2------2----2--|----2--2----2-2-2-2-2----|--2-2-2-2-2------2-2-2--2--|
|--0-0-0-0-0------0----0--|----0--0----0-0-0-0-0----|--0-0-0-0-0------0-0-0--0--|


|------------------------|-------------------------|-------------------------|
|------------------------|-------------------------|-------------------------|
|------------------------|----------7-----------7--|-------7------------7----|
|-----------2-------2----|--7-7-7-7-7------7----7--|----7--7----7-7-7-7-7----|
|----2-2-2--2----2--2----|--5-5-5-5-5------5----5--|----5--5----5-5-5-5-5----|
|----0-0-0--0----0--0----|-------------------------|-------------------------|


|---------------------------|------------------------|-------------------------|
|---------------------------|------------------------|-------------------------|
|----------7-------------7--|-----------7-------7----|----------2-----------2--|
|--7-7-7-7-7------7-7-7--7--|----7-7-7--7----7--7----|--2-2-2-2-2------2----2--|
|--5-5-5-5-5------5-5-5--5--|----5-5-5--5----5--5----|--0-0-0-0-0------0----0--|
|---------------------------|------------------------|-------------------------|


|-------------------------|---------------------------|------------------------|
|-------------------------|---------------------------|------------------------|
|-------2------------2----|----------2-------------2--|-----------2-------2----|
|----2--2----2-2-2-2-2----|--2-2-2-2-2------2-2-2--2--|----2-2-2--2----2--2----|
|----0--0----0-0-0-0-0----|--0-0-0-0-0------0-0-0--0--|----0-0-0--0----0--0----|
|-------------------------|---------------------------|------------------------|


|-------------------------|-------------------------|---------------------------|
|-------------------------|-------------------------|---------------------------|
|-------------------------|-------------------------|------------------------5--|
|----------5-----------5--|-------5------------5----|------------------------5--|
|--5-5-2-5-5------5----5--|----5--5----5-2-5-5-5----|--5-5-5-5-5------5-5-5--7--|
|--3-3-3-3-3------3----3--|----3--3----3-3-3-3-3----|--2-2-2-2-2------2-2-2-----|


|------------------------|-------------------------|-------------------------|
|------------------------|-------------------------|-------------------------|
|-----------5-------5----|----------5-----------5--|-------5------------5----|
|----5-5-5--5----5--5----|--5-5-5-5-5------5----5--|----5--5----5-5-5-5-5----|
|----7-7-7--7----7--7----|--3-3-3-3-3------3----3--|----3--3----3-3-3-3-3----|
|------------------------|-------------------------|-------------------------|


|---------------------------|------------------------|-------------------------|
|---------------------------|------------------------|-------------------------|
|------------------------4--|-----------4-------4----|-------------------------|
|----------2-------------4--|----4-4-4--4----4--4----|----------2-----------2--|
|--2-2-2-2-2------2-2-2--2--|----2-2-2--2----2--2----|--2-2-2-2-2------2----2--|
|--0-0-0-0-0------0-0-0-----|------------------------|--0-0-0-0-0------0----0--|


|-------------------------|---------------------------|------------------------|
|-------------------------|---------------------------|------------------------|
|-------------------------|---------------------------|------------------------|
|-------2------------2----|----------2-------------2--|-----------2-------2----|
|----2--2----2-2-2-2-2----|--2-2-2-2-2------2-2-2--2--|----2-2-2--2----2--2----|
|----0--0----0-0-0-0-0----|--0-0-0-0-0------0-0-0--0--|----0-0-0--0----0--0----|


|-------------------------|-------------------------|---------------------------|
|-------------------------|-------------------------|---------------------------|
|-------------------------|-------------------------|---------------------------|
|----------5-----------5--|-------5------------5----|----------5-------------5--|
|--5-5-2-5-5------5----5--|----5--5----5-2-5-5-5----|--5-5-5-5-5------5-5-5--5--|
|--3-3-3-3-3------3----3--|----3--3----3-3-3-3-3----|--3-3-3-3-3------3-3-3--3--|


|------------------------|-------------------------|-------------------------|
|------------------------|-------------------------|-------------------------|
|------------------------|----------8-----------8--|-------8------------8----|
|-----------5-------5----|--8-8-8-8-8------8----8--|----8--8----8-8-8-8-8----|
|----5-5-5--5----5--5----|--6-6-6-6-6------6----6--|----6--6----6-6-6-6-6----|
|----3-3-3--3----3--3----|-------------------------|-------------------------|


|---------------------------|------------------------|
|---------------------------|------------------------|
|------------------------7--|-----------7-------7----|
|----------5-------------7--|----7-7-7--7----7--7----|
|--5-5-5-5-5------5-5-5--9--|----9-9-9--9----9--9----|
|--3-3-3-3-3------3-3-3-----|------------------------|



Christofers lead (second part of the solo)
|--------------------|------------14--15--19--15--14--|-------------------------17-|
|--13----------------|----13--17----------------------|--17------------17-19-20----|
|--------------------|--------------------------------|----------------------------|
|--------------------|--------------------------------|----------------------------|
|--------------------|--------------------------------|----------------------------|
|--------------------|--------------------------------|----------------------------|


|--19-23-19-17----17-----------------|--24----------------|----------24~--------------|
|--------------20----20-17-20b-------|--------------------|------------------17-19-20-|
|------------------------------------|--------------------|---------------------------|
|------------------------------------|--------------------|---------------------------|
|------------------------------------|--------------------|---------------------------|
|------------------------------------|--------------------|---------------------------|


|--17-19-20-19-17----------------------------------|------------------------------------|
|-----------------20-19-17-16-17-16----16----------|------------------------------------|
|-----------------------------------17----17-14-16-|--14--------------------------------|
|--------------------------------------------------|-----17-16-14-13-16-----------------|
|--------------------------------------------------|--------------------15-12-14--------|
|--------------------------------------------------|------------------------------------|


|-----------------------------------------13-18-13-15-18-|
|--------------------------13-18-13-15-18----------------|
|-----------12-17-12-15-17-------------------------------|
|--12-15-17----------------------------------------------|
|--------------------------------------------------------|
|--------------------------------------------------------|


|--22-18-15-13-15-18-20-18-15-13-15-18-22-18-15-13-15-18-20-18-15-13-|----------------------|
|--------------------------------------------------------------------|--18r-------------18--|
|--------------------------------------------------------------------|----------------------|
|--------------------------------------------------------------------|----------------------|
|--------------------------------------------------------------------|----------------------|
|--------------------------------------------------------------------|----------------------|


|------------------------------------|
|--15--------------------------------|
|------18--17--15----------15--------|
|------------------17--15------------|
|------------------------------------|
|------------------------------------|


|--------------18-11-15-11-------------18-11-15-11-------------18-11-15-11-|
|--18-11-15-11-------------18-11-15-11-------------18-11-15-11-------------|
|--------------------------------------------------------------------------|
|--------------------------------------------------------------------------|
|--------------------------------------------------------------------------|
|--------------------------------------------------------------------------|


|--------------18-11-15-11-------------18-11-15-11-------------18-11-15-11-|
|--18-11-15-11-------------18-11-15-11-------------18-11-15-11-------------|
|--------------------------------------------------------------------------|
|--------------------------------------------------------------------------|
|--------------------------------------------------------------------------|
|--------------------------------------------------------------------------|


|-----------10-11-14-20-14-11-19-14-11---------8-|--10-11-10-8--------------------------|
|--10-11-13----------------------------8-10-11---|-------------11-10-8-7-8-7-5-7--------|
|------------------------------------------------|--------------------------------------|
|------------------------------------------------|--------------------------------------|
|------------------------------------------------|--------------------------------------|
|------------------------------------------------|--------------------------------------|


Riff C2 (repeat 1x)
Riff E

Change the last measures of Riff E to theese two (new tempo)
		Guitar I & II
|-------------------|------------------|
|--1----------------|------------------|
|--2----------------|------------------|
|--2----------------|------------------|
|--0----------------|------------------|
|-------------------|------------------|


Riff G

		Guitar I
|--------------------------------|--------------------------------|
|--------------------------------|--------------------------------|
|--------------------------------|--------------------------------|
|--------------------------------|---------------------9----------|
|--2----2--2--2--3----5----6--3--|--2----2--2--2--3----7----9--8--|
|--0----0--0--0--1----3----4--1--|--0----0--0--0--1----7----7--6--|


|--------------------------------|----------------------------------|
|--------------------------------|----------------------------------|
|--------------------------------|----------------------------------|Repeat
|--------------------------------|----------------------7--9--5-----|  3x
|--2----2--2--2--3----5----6--3--|--2----2--2--2--7--8-----------6--|
|--0----0--0--0--1----3----4--1--|--0----0--0--0--------------------|



		Guitar II
|--------------------------------|--------------------------------|
|--------------------------------|--------------------------------|
|--------------------------------|--------------------------------|
|--------------------------------|---------------------9----------|
|--2----2--2--2--3----5----6--3--|--2----2--2--2--3----7----9--8--|
|--0----0--0--0--1----3----4--1--|--0----0--0--0--1----7----7--6--|


|--------------------------------|-----------------------------------|
|--------------------------------|-----------------------------------|
|--------------------------------|-----------------------------------|Repeat
|--------------------------------|----------------------7--9--8------|  3x
|--2----2--2--2--3----5----6--3--|--2----2--2--2--7--8-----------10--|
|--0----0--0--0--1----3----4--1--|--0----0--0--0---------------------|


Change the last measure of Riff G the fourth time to:

		Guitar I & II
|------------------------------|--------------------|---0------|------------------||
|------------------------------|--------------------|---0------|------------------||
|----------------9----10-------|--------------------|---0------|------------------||
|----------------9----10----7--|----9------5--------|---4------|------------------||
|--2----2--2--2-------------7--|----9------5------6-|---2------|------------------||
|--0----0--0--0----------------|------------------7-|---0------|------------------||




Taken from Christofer Malmstr??s homepage www.christofermalmstrom.se