Menu:

 

Search:

 

darkane - a wisdoms breed:

 



/---------------------------------------------------------------------------
/ The following is the author's own interpretation of the song, to be used -
/ for studying or private use only, removal of any part of this ten line   -
/ header is illegal!!!  Removal of the transcribers name or anything       -
/ relevant to the transcriber is also illegal, as so is the removal of the -
/ place inwhich the tab was downloaded. Publishing as well as printing of  -
/ the tab is illegal without permission of the transcriber and copyright   -
/ owner of the song. Failure to apply to these laws result will in legal   -
/ action from the appropriate parties.                                     -
/---------------------------------------------------------------------------

downloaded from Displacer's Tablature Site at
http://www.dsrmusic.com/metaltab
join the death/black tab emailing list by filling out the free
subscription form at http://www.dsrmusic.com/metaltab

A WISDOMS BREED
Taken from the Darkane album ?Rusted Angel?
Released at WAR Music, Sweden
?1999
Malmstr?/Wildoer

Listen to the midi file 




    Intro
B ||-------------------------|
F#||-------------------------|
D ||-------------------------|Guitar I & II
A ||-------------------------|
E ||------8-7---7------------|
B ||----------8---7-8-5------|


Riff A		Guitar I & II
|----------------------------------|----------------------------------|
|----------------------------------|----------------------------------|
|----------------------------------|----------------------------------|
|----------------------------------|----------------------------------|
|--2-2-2-2-2-2-2-2-8-7---7---------|--2-2-2-2-2-2-2-2-8-7---7---------|
|--0-0-0-0-0-0-0-0-----8---7-8-5-7-|--0-0-0-0-0-0-0-0-----8---7-8-5-7-|



|----------------------------------|----------------------------|
|----------------------------------|----------------------------|
|----------------------------------|------------------6---------|
|----------------------------------|------------------6----3----|
|--2-2-2-2-2-2-2-2-8-7---7---------|--2-2-2-2-2-2-2-2-4----3----|
|--0-0-0-0-0-0-0-0-----8---7-8-5-7-|--0-0-0-0-0-0-0-0-4----1----|


Riff B		Guitar I                                     Measure 4 of Riff B
|-----------------------------------------|	   |-------------------------------------|
|-----------------------------------------|	   |-------------------------------------|
|-----------------------------------------|Repeat  |-------------------------------------|
|-----------------------------------------| 2x	   |-------------------------4--------5--|
|-------------------------8-7---7---------|	   |-------------------------2--5--6--3--|
|--0--0-0-0--0-0-0-0--0-0-----8---7-8-5-7-|	   |--0--0-0-0--0-0-0-0--0-0----3--4-----|



Rhythmic notation Riff B:

 

Riff B		Guitar II				     Measure 4 of Riff B
|-----------------------------------------|	   |-------------------------------------|
|-----------------------------------------|	   |-------------------------------------|
|-----------------------------------------|Repeat  |-------------------------------------|
|-------------------------8-7---7---------| 2x	   |-------------------------4--------5--|
|-----------------------------8---7-8-5-7-|	   |-------------------------2--5--6--3--|
|--0--0-0-0--0-0-0-0--0-0-----------------|	   |--0--0-0-0--0-0-0-0--0-0----3--4-----|



Riff C		Guitar 1
|--------------------------------------------------|
|--------------------------------------------------|
|--------------------------------------------------|
|--------------------------------------------------|
|--7-----5-----7-----8-----7-----5-----7-----2-----|
|----0-0---0-0---0-0---0-0---0-0---0-0---0-0---0-0-|



|----------------------------------------------------|
|----------------------------------------------------|
|----------------------------------------------------|
|----------------------------------------------------|
|--7-----5-----7-----8-----12-----8-----11-----5-----|
|----0-0---0-0---0-0---0-0----0-0---0-0----0-0---0-0-|



|--------------------------------------------------|--3----1----6----7----|
|--------------------------------------------------|--3----1----7----7----|
|--------------------------------------------------|--4----2----6----8----|
|--------------------------------------------------|--5----3----8----9----|
|--7-----5-----7-----8-----7-----5-----7-----2-----|--5----3----9----9----|
|----0-0---0-0---0-0---0-0---0-0---0-0---0-0---0-0-|--3----1----6----7----|


Riff C		Guitar II
|-------------------------------------------------------|
|-------------------------------------------------------|
|-------------------------------------------------------|
|-------------------------------------------------------|
|--11-----8-----11-----12-----11-----8-----11-----5-----|
|-----0-0---0-0----0-0----0-0----0-0---0-0----0-0---0-0-|



|--------------------------------------------------------|
|--------------------------------------------------------|
|--------------------------------------------------------|
|--------------------------------------------------------|
|--11-----8-----11-----12-----15-----12-----14-----8-----|
|-----0-0---0-0----0-0----0-0----0-0----0-0----0-0---0-0-|



|-------------------------------------------------------|--3----1----6----7----|
|-------------------------------------------------------|--3----1----7----7----|
|-------------------------------------------------------|--4----2----6----8----|
|-------------------------------------------------------|--5----3----8----9----|
|--11-----8-----11-----12-----11-----8-----11-----5-----|--5----3----9----9----|
|-----0-0---0-0----0-0----0-0----0-0---0-0----0-0---0-0-|--3----1----6----7----|





Riff D		Guitar I & II
|-----------------------------------------|--------------------------------------------|
|-----------------------------------------|--------------------------------------------|
|--------------------------7--------------|--------------------------------------------|
|--------4--------4--7-7-7-7--7-7-7-7-7-7-|--------6--------6--------------------------|
|--4-4-4-4--4-4-4-4--5-5-5-5--5-5-5-5-5-5-|--6-6-6-6--6-6-6-6--------------3-3-3-------|
|--2-2-2-2--2-2-2-2-----------------------|--4-4-4-4--4-4-4-4--4-4-4-5-5-5-------4-4-4-|
										Repeat 3x

The last measure
|--------------------------|
|--------------------------|
|--------------------------|
|--------------------------|
|-------8-7---7------------|
|--4--------8---7-8-5------|


Riff A
Riff B
Riff C
Riff D


The last measure of Riff D
|-------------------|
|-------------------|
|-------------------|Guitar I & II
|-------------------|
|--3----------------|
|--4----------------|



Riff E (the solo part)	Guitar I & II
|--2--------3--------|--4----------------|
|--2--------3--------|--4----------------|
|--4--------0--------|--6----------------|Repeat
|--4--------0--------|--6----------------| 3x
|--2-----------------|--4----------------|
|--2--------3--------|--4----------------|

Riff F (the second solo part)		Guitar I & II
|----------------------------------|----------------------------------|
|----------------------------------|----------------------------------|
|----------------------------------|----------------------------------|Repeat
|--4-4-4-4-4-4-4-4-5-5-5-5-5-5-5-5-|--6-6-6-6-6-6-6-6-6-6-6-6-6-6-6-6-| 2x
|--2-2-2-2-2-2-2-2-5-5-5-5-5-5-5-5-|--4-4-4-4-4-4-4-4-4-4-4-4-4-4-4-4-|
|--2-2-2-2-2-2-2-2-3-3-3-3-3-3-3-3-|--4-4-4-4-4-4-4-4-4-4-4-4-4-4-4-4-|


Riff A
Riff B
Riff C
Riff D





Taken from Christofer Malmstr??s homepage www.christofermalmstrom.se