Menu:

 

Search:

 

daft punk - voyager:

 



Title: Voyager
Artist: 
Album: Discovery
Author: Bangalter/De Homem-Christo/Duke/Sosa


Track 1: Keyboard

E|----------------|----------------|----------------|----------------|----------------|
B|----------------|----------------|----------------|----------------|----------------|
G|-9------9---6---|-6------6---5---|-5------5---7---|-7------7---9---|-9------9---6---|
D|-9------9---6---|-6------6---5---|-5------5---7---|-7------7---9---|-9------9---6---|
A|----------------|----------------|----------------|----------------|----------------|
E|----------------|----------------|----------------|----------------|----------------|


E|----------------|----------------|----------------|----------------|----------------|
B|----------------|----------------|----------------|----------------|----------------|
G|-6------6---5---|-5------5---7---|-7------7---9---|-9------9---6---|-6------6---5---|
D|-6------6---5---|-5------5---7---|-7------7---9---|-9------9---6---|-6------6---5---|
A|----------------|----------------|----------------|----------------|----------------|
E|----------------|----------------|----------------|----------------|----------------|


E|----------------|----------------|----------------|----------------|----------------|
B|----------------|----------------|----------------|----------------|----------------|
G|-5------5---7---|-7------7---9---|-9------9---6---|-6------6---5---|-5------5---7---|
D|-5------5---7---|-7------7---9---|-9------9---6---|-6------6---5---|-5------5---7---|
A|----------------|----------------|----------------|----------------|----------------|
E|----------------|----------------|----------------|----------------|----------------|


E|----------------|----------------|----------------|----------------|----------------|
B|----------------|----------------|----------------|----------------|----------------|
G|-7------7---9---|-9------9---6---|-6------6---5---|-5------5---7---|-7------7---9---|
D|-7------7---9---|-9------9---6---|-6------6---5---|-5------5---7---|-7------7---9---|
A|----------------|----------------|----------------|----------------|----------------|
E|----------------|----------------|----------------|----------------|----------------|


E|----------------|----------------|----------------|----------------|----------------|
B|----------------|----------------|----------------|----------------|----------------|
G|-9------9---6---|-6------6---5---|-5------5---7---|-7------7---9---|-9------9---6---|
D|-9------9---6---|-6------6---5---|-5------5---7---|-7------7---9---|-9------9---6---|
A|----------------|----------------|----------------|----------------|----------------|
E|----------------|----------------|----------------|----------------|----------------|


E|----------------|----------------|----------------|----------------|----------------|
B|----------------|----------------|----------------|----------------|----------------|
G|-6------6---5---|-5------5---7---|-7------7---9---|-9------9---6---|-6------6---5---|
D|-6------6---5---|-5------5---7---|-7------7---9---|-9------9---6---|-6------6---5---|
A|----------------|----------------|----------------|----------------|----------------|
E|----------------|----------------|----------------|----------------|----------------|


E|----------------|----------------|--------|--------|----------------|--------|--------|
B|----------------|----------------|--------|--------|----------------|--------|--------|
G|-5------5---7---|-7------7---9---|--------|--------|----------------|--------|--------|
D|-5------5---7---|-7------7---9---|--------|--------|----------------|--------|--------|
A|----------------|----------------|--------|--------|----------------|--------|--------|
E|----------------|----------------|--------|--------|----------------|--------|--------|


E|--------|--------|--------|--------|--------|--------|--------|--------|--------|
B|--------|--------|--------|--------|--------|--------|--------|--------|--------|
G|--------|--------|--------|--------|--------|--------|--------|--------|--------|
D|--------|--------|--------|--------|--------|--------|--------|--------|--------|
A|--------|--------|--------|--------|--------|--------|--------|--------|--------|
E|--------|--------|--------|--------|--------|--------|--------|--------|--------|


E|--------|--------|--------|--------|--------|--------|--------|--------|--------|
B|--------|--------|--------|--------|--------|--------|--------|--------|--------|
G|--------|--------|--------|--------|--------|--------|--------|--------|--------|
D|--------|--------|--------|--------|--------|--------|--------|--------|--------|
A|--------|--------|--------|--------|--------|--------|--------|--------|--------|
E|--------|--------|--------|--------|--------|--------|--------|--------|--------|


E|--------|----------------|----------------|----------------|----------------|----------------|
B|--------|----------------|----------------|----------------|----------------|----------------|
G|--------|-9------9---6---|-6------6---5---|-5------5---7---|-7------7---9---|-9------9---6---|
D|--------|-9------9---6---|-6------6---5---|-5------5---7---|-7------7---9---|-9------9---6---|
A|--------|----------------|----------------|----------------|----------------|----------------|
E|--------|----------------|----------------|----------------|----------------|----------------|


E|----------------|----------------|----------------|----------------|----------------|
B|----------------|----------------|----------------|----------------|----------------|
G|-6------6---5---|-5------5---7---|-7------7---9---|-9------9---6---|-6------6---5---|
D|-6------6---5---|-5------5---7---|-7------7---9---|-9------9---6---|-6------6---5---|
A|----------------|----------------|----------------|----------------|----------------|
E|----------------|----------------|----------------|----------------|----------------|


E|----------------|----------------|----------------|----------------|----------------|
B|----------------|----------------|----------------|----------------|----------------|
G|-5------5---7---|-7------7---9---|-9------9---6---|-6------6---5---|-5------5---7---|
D|-5------5---7---|-7------7---9---|-9------9---6---|-6------6---5---|-5------5---7---|
A|----------------|----------------|----------------|----------------|----------------|
E|----------------|----------------|----------------|----------------|----------------|


E|----------------|----------------|----------------|----------------|----------------|
B|----------------|----------------|----------------|----------------|----------------|
G|-7------7---9---|-9------9---6---|-6------6---5---|-5------5---7---|-7------7---9---|
D|-7------7---9---|-9------9---6---|-6------6---5---|-5------5---7---|-7------7---9---|
A|----------------|----------------|----------------|----------------|----------------|
E|----------------|----------------|----------------|----------------|----------------|


E|----------------|----------------|----------------|----------------|----------------|
B|----------------|----------------|----------------|----------------|----------------|
G|-9------9---6---|-6------6---5---|-5------5---7---|-7------7---9---|-9------9---6---|
D|-9------9---6---|-6------6---5---|-5------5---7---|-7------7---9---|-9------9---6---|
A|----------------|----------------|----------------|----------------|----------------|
E|----------------|----------------|----------------|----------------|----------------|


E|----------------|----------------|----------------|----------------|----------------|
B|----------------|----------------|----------------|----------------|----------------|
G|-6------6---5---|-5------5---7---|-7------7---9---|-9------9---6---|-6------6---5---|
D|-6------6---5---|-5------5---7---|-7------7---9---|-9------9---6---|-6------6---5---|
A|----------------|----------------|----------------|----------------|----------------|
E|----------------|----------------|----------------|----------------|----------------|


E|----------------|--------|----------------|----------------|----------------|----------------|
B|----------------|--------|----------------|----------------|----------------|----------------|
G|-5------5---7---|--------|-9------9---6---|-6------6---5---|-5------5---7---|-7------7---9---|
D|-5------5---7---|--------|-9------9---6---|-6------6---5---|-5------5---7---|-7------7---9---|
A|----------------|--------|----------------|----------------|----------------|----------------|
E|----------------|--------|----------------|----------------|----------------|----------------|


E|----------------|----------------|----------------|----------------|
B|----------------|----------------|----------------|----------------|
G|-9------9---6---|-6------6---5---|-5------5---7---|-7------7---9---|
D|-9------9---6---|-6------6---5---|-5------5---7---|-7------7---9---|
A|----------------|----------------|----------------|----------------|
E|----------------|----------------|----------------|----------------|





Track 2: Keyboard

E|----------------|----------------|----------------|----------------|----------------|
B|----------------|----------------|----------------|----------------|----------------|
G|-9------9---9---|-9------9---9---|-9------9---9---|-9------9---9---|-9------9---9---|
D|----------------|----------------|----------------|----------------|----------------|
A|-7------7---7---|-7------7---7---|-7------7---7---|-7------7---7---|-7------7---7---|
E|----------------|----------------|----------------|----------------|----------------|


E|----------------|----------------|----------------|----------------|----------------|
B|----------------|----------------|----------------|----------------|----------------|
G|-9------9---9---|-9------9---9---|-9------9---9---|-9------9---9---|-9------9---9---|
D|----------------|----------------|----------------|----------------|----------------|
A|-7------7---7---|-7------7---7---|-7------7---7---|-7------7---7---|-7------7---7---|
E|----------------|----------------|----------------|----------------|----------------|


E|----------------|----------------|----------------|----------------|----------------|
B|----------------|----------------|----------------|----------------|----------------|
G|-9------9---9---|-9------9---9---|-9------9---9---|-9------9---9---|-9------9---9---|
D|----------------|----------------|----------------|----------------|----------------|
A|-7------7---7---|-7------7---7---|-7------7---7---|-7------7---7---|-7------7---7---|
E|----------------|----------------|----------------|----------------|----------------|


E|----------------|----------------|----------------|----------------|----------------|
B|----------------|----------------|----------------|----------------|----------------|
G|-9------9---9---|-9------9---9---|-9------9---9---|-9------9---9---|-9------9---9---|
D|----------------|----------------|----------------|----------------|----------------|
A|-7------7---7---|-7------7---7---|-7------7---7---|-7------7---7---|-7------7---7---|
E|----------------|----------------|----------------|----------------|----------------|


E|----------------|----------------|----------------|----------------|----------------|
B|----------------|----------------|----------------|----------------|----------------|
G|-9------9---9---|-9------9---9---|-9------9---9---|-9------9---9---|-9------9---9---|
D|----------------|----------------|----------------|----------------|----------------|
A|-7------7---7---|-7------7---7---|-7------7---7---|-7------7---7---|-7------7---7---|
E|----------------|----------------|----------------|----------------|----------------|


E|----------------|----------------|----------------|----------------|----------------|
B|----------------|----------------|----------------|----------------|----------------|
G|-9------9---9---|-9------9---9---|-9------9---9---|-9------9---9---|-9------9---9---|
D|----------------|----------------|----------------|----------------|----------------|
A|-7------7---7---|-7------7---7---|-7------7---7---|-7------7---7---|-7------7---7---|
E|----------------|----------------|----------------|----------------|----------------|


E|----------------|----------------|--------|--------|--------|--------|--------|--------|
B|----------------|----------------|--------|--------|--------|--------|--------|--------|
G|-9------9---9---|-9------9---9---|--------|--------|--------|--------|--------|--------|
D|----------------|----------------|--------|--------|--------|--------|--------|--------|
A|-7------7---7---|-7------7---7---|--------|--------|--------|--------|--------|--------|
E|----------------|----------------|--------|--------|--------|--------|--------|--------|


E|--------|--------|--------|--------|--------|--------|--------|--------|--------|
B|--------|--------|--------|--------|--------|--------|--------|--------|--------|
G|--------|--------|--------|--------|--------|--------|--------|--------|--------|
D|--------|--------|--------|--------|--------|--------|--------|--------|--------|
A|--------|--------|--------|--------|--------|--------|--------|--------|--------|
E|--------|--------|--------|--------|--------|--------|--------|--------|--------|


E|--------|--------|--------|--------|--------|--------|--------|--------|--------|
B|--------|--------|--------|--------|--------|--------|--------|--------|--------|
G|--------|--------|--------|--------|--------|--------|--------|--------|--------|
D|--------|--------|--------|--------|--------|--------|--------|--------|--------|
A|--------|--------|--------|--------|--------|--------|--------|--------|--------|
E|--------|--------|--------|--------|--------|--------|--------|--------|--------|


E|--------|--------|--------|--------|-------------------------7-----7--12-------------|
B|--------|--------|--------|--------|----------------8-----8-----8--------8-----------|
G|--------|--------|--------|--------|-------9-----9-----9-----------------------9-----|
D|--------|--------|--------|--------|----9-----9-----------------------------9-----9--|
A|--------|--------|--------|--------|-7-----------------------------------------------|
E|--------|--------|--------|--------|-------------------------------------------------|


E|-------------------------4-----------------------|-------------------------3-----------------------|
B|----------------5-----5-----5-----5--------------|----------------5-----5-----5-----5--------------|
G|-------6-----6-----6-----------------------------|-------5-----5-----5-----------5-----5-----------|
D|----6-----6--------------------6-----6-----6-----|----5-----5-----------------------------5--------|
A|-4--------------------------------------4-----3--|-3-----------------------------------------3--5--|
E|-------------------------------------------------|-------------------------------------------------|


E|-------------------------5-----------------------|-------------------------7-----7--12-------------|
B|----------------7-----------7--------------------|----------------8-----8-----8--------8-----------|
G|-------7-----7-----7-----------7-----7-----------|-------9-----9-----9-----------------------9-----|
D|----7-----7-----------7-----------7-----7-----7--|----9-----9-----------------------------9-----9--|
A|-5-----------------------------------------5-----|-7-----------------------------------------------|
E|-------------------------------------------------|-------------------------------------------------|


E|-------------------------4-----------------------|-------------------------3-----------------------|
B|----------------5-----5-----5-----5--------------|----------------5-----5-----5-----5--------------|
G|-------6-----6-----6-----------------------------|-------5-----5-----5-----------5-----5-----------|
D|----6-----6--------------------6-----6-----6-----|----5-----5-----------------------------5--------|
A|-4--------------------------------------4-----3--|-3-----------------------------------------3--5--|
E|-------------------------------------------------|-------------------------------------------------|


E|-------------------------5-----------------------|-------------------------7-----7--12-------------|
B|----------------7-----------7--------------------|----------------8-----8-----8--------8-----------|
G|-------7-----7-----7-----------7-----7-----------|-------9-----9-----9-----------------------9-----|
D|----7-----7-----------7-----------7-----7-----7--|----9-----9-----------------------------9-----9--|
A|-5-----------------------------------------5-----|-7-----------------------------------------------|
E|-------------------------------------------------|-------------------------------------------------|


E|-------------------------4-----------------------|-------------------------3-----------------------|
B|----------------5-----5-----5-----5--------------|----------------5-----5-----5-----5--------------|
G|-------6-----6-----6-----------------------------|-------5-----5-----5-----------5-----5-----------|
D|----6-----6--------------------6-----6-----6-----|----5-----5-----------------------------5--------|
A|-4--------------------------------------4-----3--|-3-----------------------------------------3--5--|
E|-------------------------------------------------|-------------------------------------------------|


E|-------------------------5-----------------------|-------------------------7-----7--12-------------|
B|----------------7-----------7--------------------|----------------8-----8-----8--------8-----------|
G|-------7-----7-----7-----------7-----7-----------|-------9-----9-----9-----------------------9-----|
D|----7-----7-----------7-----------7-----7-----7--|----9-----9-----------------------------9-----9--|
A|-5-----------------------------------------5-----|-7-----------------------------------------------|
E|-------------------------------------------------|-------------------------------------------------|


E|-------------------------4-----------------------|-------------------------3-----------------------|
B|----------------5-----5-----5-----5--------------|----------------5-----5-----5-----5--------------|
G|-------6-----6-----6-----------------------------|-------5-----5-----5-----------5-----5-----------|
D|----6-----6--------------------6-----6-----6-----|----5-----5-----------------------------5--------|
A|-4--------------------------------------4-----3--|-3-----------------------------------------3--5--|
E|-------------------------------------------------|-------------------------------------------------|


E|-------------------------5-----------------------|-------------------------7-----7--12-------------|
B|----------------7-----------7--------------------|----------------8-----8-----8--------8-----------|
G|-------7-----7-----7-----------7-----7-----------|-------9-----9-----9-----------------------9-----|
D|----7-----7-----------7-----------7-----7-----7--|----9-----9-----------------------------9-----9--|
A|-5-----------------------------------------5-----|-7-----------------------------------------------|
E|-------------------------------------------------|-------------------------------------------------|


E|-------------------------4-----------------------|-------------------------3-----------------------|
B|----------------5-----5-----5-----5--------------|----------------5-----5-----5-----5--------------|
G|-------6-----6-----6-----------------------------|-------5-----5-----5-----------5-----5-----------|
D|----6-----6--------------------6-----6-----6-----|----5-----5-----------------------------5--------|
A|-4--------------------------------------4-----3--|-3-----------------------------------------3--5--|
E|-------------------------------------------------|-------------------------------------------------|


E|-------------------------5-----------------------|-------------------------7-----7--12-------------|
B|----------------7-----------7--------------------|----------------8-----8-----8--------8-----------|
G|-------7-----7-----7-----------7-----7-----------|-------9-----9-----9-----------------------9-----|
D|----7-----7-----------7-----------7-----7-----7--|----9-----9-----------------------------9-----9--|
A|-5-----------------------------------------5-----|-7-----------------------------------------------|
E|-------------------------------------------------|-------------------------------------------------|


E|-------------------------4-----------------------|-------------------------3-----------------------|
B|----------------5-----5-----5-----5--------------|----------------5-----5-----5-----5--------------|
G|-------6-----6-----6-----------------------------|-------5-----5-----5-----------5-----5-----------|
D|----6-----6--------------------6-----6-----6-----|----5-----5-----------------------------5--------|
A|-4--------------------------------------4-----3--|-3-----------------------------------------3--5--|
E|-------------------------------------------------|-------------------------------------------------|


E|-------------------------5-----------------------|-------------------------7-----7--12-------------|
B|----------------7-----------7--------------------|----------------8-----8-----8--------8-----------|
G|-------7-----7-----7-----------7-----7-----------|-------9-----9-----9-----------------------9-----|
D|----7-----7-----------7-----------7-----7-----7--|----9-----9-----------------------------9-----9--|
A|-5-----------------------------------------5-----|-7-----------------------------------------------|
E|-------------------------------------------------|-------------------------------------------------|


E|-------------------------4-----------------------|-------------------------3-----------------------|
B|----------------5-----5-----5-----5--------------|----------------5-----5-----5-----5--------------|
G|-------6-----6-----6-----------------------------|-------5-----5-----5-----------5-----5-----------|
D|----6-----6--------------------6-----6-----6-----|----5-----5-----------------------------5--------|
A|-4--------------------------------------4-----3--|-3-----------------------------------------3--5--|
E|-------------------------------------------------|-------------------------------------------------|


E|-------------------------5-----------------------|-------------------------7-----7--12-------------|
B|----------------7-----------7--------------------|----------------8-----8-----8--------8-----------|
G|-------7-----7-----7-----------7-----7-----------|-------9-----9-----9-----------------------9-----|
D|----7-----7-----------7-----------7-----7-----7--|----9-----9-----------------------------9-----9--|
A|-5-----------------------------------------5-----|-7-----------------------------------------------|
E|-------------------------------------------------|-------------------------------------------------|


E|-------------------------4-----------------------|-------------------------3-----------------------|
B|----------------5-----5-----5-----5--------------|----------------5-----5-----5-----5--------------|
G|-------6-----6-----6-----------------------------|-------5-----5-----5-----------5-----5-----------|
D|----6-----6--------------------6-----6-----6-----|----5-----5-----------------------------5--------|
A|-4--------------------------------------4-----3--|-3-----------------------------------------3--5--|
E|-------------------------------------------------|-------------------------------------------------|


E|-------------------------5-----------------------|-------------------------7-----7--12-------------|
B|----------------7-----------7--------------------|----------------8-----8-----8--------8-----------|
G|-------7-----7-----7-----------7-----7-----------|-------9-----9-----9-----------------------9-----|
D|----7-----7-----------7-----------7-----7-----7--|----9-----9-----------------------------9-----9--|
A|-5-----------------------------------------5-----|-7-----------------------------------------------|
E|-------------------------------------------------|-------------------------------------------------|


E|-------------------------4-----------------------|-------------------------3-----------------------|
B|----------------5-----5-----5-----5--------------|----------------5-----5-----5-----5--------------|
G|-------6-----6-----6-----------------------------|-------5-----5-----5-----------5-----5-----------|
D|----6-----6--------------------6-----6-----6-----|----5-----5-----------------------------5--------|
A|-4--------------------------------------4-----3--|-3-----------------------------------------3--5--|
E|-------------------------------------------------|-------------------------------------------------|


E|-------------------------5-----------------------|
B|----------------7-----------7--------------------|
G|-------7-----7-----7-----------7-----7-----------|
D|----7-----7-----------7-----------7-----7-----7--|
A|-5-----------------------------------------5-----|
E|-------------------------------------------------|





Track 3: Guitar w/wah pedal

E|--------|--------|--------|--------|--------|--------|--------|--------|--------|
B|--------|--------|--------|--------|--------|--------|--------|--------|--------|
G|--------|--------|--------|--------|--------|--------|--------|--------|--------|
D|--------|--------|--------|--------|--------|--------|--------|--------|--------|
A|--------|--------|--------|--------|--------|--------|--------|--------|--------|
E|--------|--------|--------|--------|--------|--------|--------|--------|--------|


E|--------|--------|--------|--------|--------|--------|--------|-----------------------------------|
B|--------|--------|--------|--------|--------|--------|--------|-----8--8--8-------8------8----8---|
G|--------|--------|--------|--------|--------|--------|--------|-----------------------------------|
D|--------|--------|--------|--------|--------|--------|--------|-----5--5--5-------5------5----5---|
A|--------|--------|--------|--------|--------|--------|--------|-----------------------------------|
E|--------|--------|--------|--------|--------|--------|--------|-----------------------------------|


E|-----------------------------------|-----------------------------------|-----------------------------------|
B|-----8--8--8-------8------8----8---|-----8--8--8-------8------8----8---|-----8--8--8-------8------8----8---|
G|-----------------------------------|-----------------------------------|-----------------------------------|
D|-----5--5--5-------5------5----5---|-----5--5--5-------5------5----5---|-----5--5--5-------5------5----5---|
A|-----------------------------------|-----------------------------------|-----------------------------------|
E|-----------------------------------|-----------------------------------|-----------------------------------|


E|-----------------------------------|-----------------------------------|-----------------------------------|
B|-----8--8--8-------8------8----8---|-----8--8--8-------8------8----8---|-----8--8--8-------8------8----8---|
G|-----------------------------------|-----------------------------------|-----------------------------------|
D|-----5--5--5-------5------5----5---|-----5--5--5-------5------5----5---|-----5--5--5-------5------5----5---|
A|-----------------------------------|-----------------------------------|-----------------------------------|
E|-----------------------------------|-----------------------------------|-----------------------------------|


E|-----------------------------------|-----------------------------------|-----------------------------------|
B|-----8--8--8-------8------8----8---|-----8--8--8-------8------8----8---|-----8--8--8-------8------8----8---|
G|-----------------------------------|-----------------------------------|-----------------------------------|
D|-----5--5--5-------5------5----5---|-----5--5--5-------5------5----5---|-----5--5--5-------5------5----5---|
A|-----------------------------------|-----------------------------------|-----------------------------------|
E|-----------------------------------|-----------------------------------|-----------------------------------|


E|-----------------------------------|-----------------------------------|-----------------------------------|
B|-----8--8--8-------8------8----8---|-----8--8--8-------8------8----8---|-----8--8--8-------8------8----8---|
G|-----------------------------------|-----------------------------------|-----------------------------------|
D|-----5--5--5-------5------5----5---|-----5--5--5-------5------5----5---|-----5--5--5-------5------5----5---|
A|-----------------------------------|-----------------------------------|-----------------------------------|
E|-----------------------------------|-----------------------------------|-----------------------------------|


E|-----------------------------------|-----------------------------------|-----------------------------------|
B|-----8--8--8-------8------8----8---|-----8--8--8-------8------8----8---|-----8--8--8-------8------8----8---|
G|-----------------------------------|-----------------------------------|-----------------------------------|
D|-----5--5--5-------5------5----5---|-----5--5--5-------5------5----5---|-----5--5--5-------5------5----5---|
A|-----------------------------------|-----------------------------------|-----------------------------------|
E|-----------------------------------|-----------------------------------|-----------------------------------|


E|-----------------------------------|-----------------------------------|-----------------------------------|
B|-----8--8--8-------8------8----8---|-----8--8--8-------8------8----8---|-----8--8--8-------8------8----8---|
G|-----------------------------------|-----------------------------------|-----------------------------------|
D|-----5--5--5-------5------5----5---|-----5--5--5-------5------5----5---|-----5--5--5-------5------5----5---|
A|-----------------------------------|-----------------------------------|-----------------------------------|
E|-----------------------------------|-----------------------------------|-----------------------------------|


E|-----------------------------------|-----------------------------------|-----------------------------------|
B|-----8--8--8-------8------8----8---|-----8--8--8-------8------8----8---|-----8--8--8-------8------8----8---|
G|-----------------------------------|-----------------------------------|-----------------------------------|
D|-----5--5--5-------5------5----5---|-----5--5--5-------5------5----5---|-----5--5--5-------5------5----5---|
A|-----------------------------------|-----------------------------------|-----------------------------------|
E|-----------------------------------|-----------------------------------|-----------------------------------|


E|-----------------------------------|-----------------------------------|----------------|
B|-----8--8--8-------8------8----8---|-----8--8--8-------8------8----8---|----------------|
G|-----------------------------------|-----------------------------------|-9------9---6---|
D|-----5--5--5-------5------5----5---|-----5--5--5-------5------5----5---|-9------9---6---|
A|-----------------------------------|-----------------------------------|----------------|
E|-----------------------------------|-----------------------------------|----------------|


E|----------------|----------------|----------------|----------------|----------------|
B|----------------|----------------|----------------|----------------|----------------|
G|-6------6---5---|-5------5---7---|-7------7---9---|-9------9---6---|-6------6---5---|
D|-6------6---5---|-5------5---7---|-7------7---9---|-9------9---6---|-6------6---5---|
A|----------------|----------------|----------------|----------------|----------------|
E|----------------|----------------|----------------|----------------|----------------|


E|----------------|----------------|----------------|----------------|----------------|
B|----------------|----------------|----------------|----------------|----------------|
G|-5------5---7---|-7------7---9---|-9------9---6---|-6------6---5---|-5------5---7---|
D|-5------5---7---|-7------7---9---|-9------9---6---|-6------6---5---|-5------5---7---|
A|----------------|----------------|----------------|----------------|----------------|
E|----------------|----------------|----------------|----------------|----------------|


E|----------------|----------------|----------------|----------------|----------------|
B|----------------|----------------|----------------|----------------|----------------|
G|-7------7---9---|-9------9---6---|-6------6---5---|-5------5---7---|-7------7---9---|
D|-7------7---9---|-9------9---6---|-6------6---5---|-5------5---7---|-7------7---9---|
A|----------------|----------------|----------------|----------------|----------------|
E|----------------|----------------|----------------|----------------|----------------|


E|--------|--------|--------|--------|--------|--------|--------|--------|-----------------------------------|
B|--------|--------|--------|--------|--------|--------|--------|--------|-----8--8--8-------8------8----8---|
G|--------|--------|--------|--------|--------|--------|--------|--------|-----------------------------------|
D|--------|--------|--------|--------|--------|--------|--------|--------|-----5--5--5-------5------5----5---|
A|--------|--------|--------|--------|--------|--------|--------|--------|-----------------------------------|
E|--------|--------|--------|--------|--------|--------|--------|--------|-----------------------------------|


E|-----------------------------------|-----------------------------------|-----------------------------------|
B|-----8--8--8-------8------8----8---|-----8--8--8-------8------8----8---|-----8--8--8-------8------8----8---|
G|-----------------------------------|-----------------------------------|-----------------------------------|
D|-----5--5--5-------5------5----5---|-----5--5--5-------5------5----5---|-----5--5--5-------5------5----5---|
A|-----------------------------------|-----------------------------------|-----------------------------------|
E|-----------------------------------|-----------------------------------|-----------------------------------|


E|-----------------------------------|-----------------------------------|-----------------------------------|
B|-----8--8--8-------8------8----8---|-----8--8--8-------8------8----8---|-----8--8--8-------8------8----8---|
G|-----------------------------------|-----------------------------------|-----------------------------------|
D|-----5--5--5-------5------5----5---|-----5--5--5-------5------5----5---|-----5--5--5-------5------5----5---|
A|-----------------------------------|-----------------------------------|-----------------------------------|
E|-----------------------------------|-----------------------------------|-----------------------------------|


E|-----------------------------------|-----------------------------------|-----------------------------------|
B|-----8--8--8-------8------8----8---|-----8--8--8-------8------8----8---|-----8--8--8-------8------8----8---|
G|-----------------------------------|-----------------------------------|-----------------------------------|
D|-----5--5--5-------5------5----5---|-----5--5--5-------5------5----5---|-----5--5--5-------5------5----5---|
A|-----------------------------------|-----------------------------------|-----------------------------------|
E|-----------------------------------|-----------------------------------|-----------------------------------|


E|-----------------------------------|-----------------------------------|-----------------------------------|
B|-----8--8--8-------8------8----8---|-----8--8--8-------8------8----8---|-----8--8--8-------8------8----8---|
G|-----------------------------------|-----------------------------------|-----------------------------------|
D|-----5--5--5-------5------5----5---|-----5--5--5-------5------5----5---|-----5--5--5-------5------5----5---|
A|-----------------------------------|-----------------------------------|-----------------------------------|
E|-----------------------------------|-----------------------------------|-----------------------------------|


E|-----------------------------------|-----------------------------------|-----------------------------------|
B|-----8--8--8-------8------8----8---|-----8--8--8-------8------8----8---|-----8--8--8-------8------8----8---|
G|-----------------------------------|-----------------------------------|-----------------------------------|
D|-----5--5--5-------5------5----5---|-----5--5--5-------5------5----5---|-----5--5--5-------5------5----5---|
A|-----------------------------------|-----------------------------------|-----------------------------------|
E|-----------------------------------|-----------------------------------|-----------------------------------|


E|-----------------------------------|-----------------------------------|-----------------------------------|
B|-----8--8--8-------8------8----8---|-----8--8--8-------8------8----8---|-----8--8--8-------8------8----8---|
G|-----------------------------------|-----------------------------------|-----------------------------------|
D|-----5--5--5-------5------5----5---|-----5--5--5-------5------5----5---|-----5--5--5-------5------5----5---|
A|-----------------------------------|-----------------------------------|-----------------------------------|
E|-----------------------------------|-----------------------------------|-----------------------------------|


E|-----------------------------------|-----------------------------------|-----------------------------------|
B|-----8--8--8-------8------8----8---|-----8--8--8-------8------8----8---|-----8--8--8-------8------8----8---|
G|-----------------------------------|-----------------------------------|-----------------------------------|
D|-----5--5--5-------5------5----5---|-----5--5--5-------5------5----5---|-----5--5--5-------5------5----5---|
A|-----------------------------------|-----------------------------------|-----------------------------------|
E|-----------------------------------|-----------------------------------|-----------------------------------|


E|-----------------------------------|--------|-----------------------------------|
B|-----8--8--8-------8------8----8---|--------|-----8--8--8-------8------8----8---|
G|-----------------------------------|--------|-----------------------------------|
D|-----5--5--5-------5------5----5---|--------|-----5--5--5-------5------5----5---|
A|-----------------------------------|--------|-----------------------------------|
E|-----------------------------------|--------|-----------------------------------|


E|-----------------------------------|-----------------------------------|-----------------------------------|
B|-----8--8--8-------8------8----8---|-----8--8--8-------8------8----8---|-----8--8--8-------8------8----8---|
G|-----------------------------------|-----------------------------------|-----------------------------------|
D|-----5--5--5-------5------5----5---|-----5--5--5-------5------5----5---|-----5--5--5-------5------5----5---|
A|-----------------------------------|-----------------------------------|-----------------------------------|
E|-----------------------------------|-----------------------------------|-----------------------------------|


E|-----------------------------------|-----------------------------------|-----------------------------------|
B|-----8--8--8-------8------8----8---|-----8--8--8-------8------8----8---|-----8--8--8-------8------8----8---|
G|-----------------------------------|-----------------------------------|-----------------------------------|
D|-----5--5--5-------5------5----5---|-----5--5--5-------5------5----5---|-----5--5--5-------5------5----5---|
A|-----------------------------------|-----------------------------------|-----------------------------------|
E|-----------------------------------|-----------------------------------|-----------------------------------|


E|-----------------------------------|
B|-----8--8--8-------8------8----8---|
G|-----------------------------------|
D|-----5--5--5-------5------5----5---|
A|-----------------------------------|
E|-----------------------------------|





Track 4: Keyboard

E|--------|--------|--------|--------|--------|--------|--------|--------|--------|
B|--------|--------|--------|--------|--------|--------|--------|--------|--------|
G|--------|--------|--------|--------|--------|--------|--------|--------|--------|
D|--------|--------|--------|--------|--------|--------|--------|--------|--------|
A|--------|--------|--------|--------|--------|--------|--------|--------|--------|
E|--------|--------|--------|--------|--------|--------|--------|--------|--------|


E|--------|--------|--------|--------|--------|--------|--------|--------|--------|
B|--------|--------|--------|--------|--------|--------|--------|--------|--------|
G|--------|--------|--------|--------|--------|--------|--------|--------|--------|
D|--------|--------|--------|--------|--------|--------|--------|--------|--------|
A|--------|--------|--------|--------|--------|--------|--------|--------|--------|
E|--------|--------|--------|--------|--------|--------|--------|--------|--------|


E|--------|--------|--------|--------|--------|--------|--------|--------|--------|
B|--------|--------|--------|--------|--------|--------|--------|--------|--------|
G|--------|--------|--------|--------|--------|--------|--------|--------|--------|
D|--------|--------|--------|--------|--------|--------|--------|--------|--------|
A|--------|--------|--------|--------|--------|--------|--------|--------|--------|
E|--------|--------|--------|--------|--------|--------|--------|--------|--------|


E|--------|--------|--------|--------|--------|--------|--------|--------|--------|
B|--------|--------|--------|--------|--------|--------|--------|--------|--------|
G|--------|--------|--------|--------|--------|--------|--------|--------|--------|
D|--------|--------|--------|--------|--------|--------|--------|--------|--------|
A|--------|--------|--------|--------|--------|--------|--------|--------|--------|
E|--------|--------|--------|--------|--------|--------|--------|--------|--------|


E|--------|--------|--------|--------|-----------------------------------|-----------------------------------|
B|--------|--------|--------|--------|-----8--8--8-------8------8----8---|-----8--8--8-------8------8----8---|
G|--------|--------|--------|--------|-----------------------------------|-----------------------------------|
D|--------|--------|--------|--------|-----5--5--5-------5------5----5---|-----5--5--5-------5------5----5---|
A|--------|--------|--------|--------|-----------------------------------|-----------------------------------|
E|--------|--------|--------|--------|-----------------------------------|-----------------------------------|


E|-----------------------------------|-----------------------------------|-----------------------------------|
B|-----8--8--8-------8------8----8---|-----8--8--8-------8------8----8---|-----8--8--8-------8------8----8---|
G|-----------------------------------|-----------------------------------|-----------------------------------|
D|-----5--5--5-------5------5----5---|-----5--5--5-------5------5----5---|-----5--5--5-------5------5----5---|
A|-----------------------------------|-----------------------------------|-----------------------------------|
E|-----------------------------------|-----------------------------------|-----------------------------------|


E|-----------------------------------|-----------------------------------|-----------------------------------|
B|-----8--8--8-------8------8----8---|-----8--8--8-------8------8----8---|-----8--8--8-------8------8----8---|
G|-----------------------------------|-----------------------------------|-----------------------------------|
D|-----5--5--5-------5------5----5---|-----5--5--5-------5------5----5---|-----5--5--5-------5------5----5---|
A|-----------------------------------|-----------------------------------|-----------------------------------|
E|-----------------------------------|-----------------------------------|-----------------------------------|


E|-----------------------------------|-----------------------------------|-----------------------------------|
B|-----8--8--8-------8------8----8---|-----8--8--8-------8------8----8---|-----8--8--8-------8------8----8---|
G|-----------------------------------|-----------------------------------|-----------------------------------|
D|-----5--5--5-------5------5----5---|-----5--5--5-------5------5----5---|-----5--5--5-------5------5----5---|
A|-----------------------------------|-----------------------------------|-----------------------------------|
E|-----------------------------------|-----------------------------------|-----------------------------------|


E|-----------------------------------|-----------------------------------|-----------------------------------|
B|-----8--8--8-------8------8----8---|-----8--8--8-------8------8----8---|-----8--8--8-------8------8----8---|
G|-----------------------------------|-----------------------------------|-----------------------------------|
D|-----5--5--5-------5------5----5---|-----5--5--5-------5------5----5---|-----5--5--5-------5------5----5---|
A|-----------------------------------|-----------------------------------|-----------------------------------|
E|-----------------------------------|-----------------------------------|-----------------------------------|


E|-----------------------------------|-----------------------------------|--------|
B|-----8--8--8-------8------8----8---|-----8--8--8-------8------8----8---|--------|
G|-----------------------------------|-----------------------------------|--------|
D|-----5--5--5-------5------5----5---|-----5--5--5-------5------5----5---|--------|
A|-----------------------------------|-----------------------------------|--------|
E|-----------------------------------|-----------------------------------|--------|


E|--------|--------|--------|--------|--------|--------|--------|--------|--------|
B|--------|--------|--------|--------|--------|--------|--------|--------|--------|
G|--------|--------|--------|--------|--------|--------|--------|--------|--------|
D|--------|--------|--------|--------|--------|--------|--------|--------|--------|
A|--------|--------|--------|--------|--------|--------|--------|--------|--------|
E|--------|--------|--------|--------|--------|--------|--------|--------|--------|


E|--------|--------|--------|--------|--------|--------|--------|--------|--------|
B|--------|--------|--------|--------|--------|--------|--------|--------|--------|
G|--------|--------|--------|--------|--------|--------|--------|--------|--------|
D|--------|--------|--------|--------|--------|--------|--------|--------|--------|
A|--------|--------|--------|--------|--------|--------|--------|--------|--------|
E|--------|--------|--------|--------|--------|--------|--------|--------|--------|


E|--------|--------|--------|--------|--------|--------|--------|--------|--------|
B|--------|--------|--------|--------|--------|--------|--------|--------|--------|
G|--------|--------|--------|--------|--------|--------|--------|--------|--------|
D|--------|--------|--------|--------|--------|--------|--------|--------|--------|
A|--------|--------|--------|--------|--------|--------|--------|--------|--------|
E|--------|--------|--------|--------|--------|--------|--------|--------|--------|


E|--------|--------|--------|--------|--------|--------|--------|--------|--------|
B|--------|--------|--------|--------|--------|--------|--------|--------|--------|
G|--------|--------|--------|--------|--------|--------|--------|--------|--------|
D|--------|--------|--------|--------|--------|--------|--------|--------|--------|
A|--------|--------|--------|--------|--------|--------|--------|--------|--------|
E|--------|--------|--------|--------|--------|--------|--------|--------|--------|


E|--------|--------|--------|
B|--------|--------|--------|
G|--------|--------|--------|
D|--------|--------|--------|
A|--------|--------|--------|
E|--------|--------|--------|





Track 5: Keyboard

E|--------|--------|--------|--------|--------|--------|--------|--------|--------|
B|--------|--------|--------|--------|--------|--------|--------|--------|--------|
G|--------|--------|--------|--------|--------|--------|--------|--------|--------|
D|--------|--------|--------|--------|--------|--------|--------|--------|--------|
A|--------|--------|--------|--------|--------|--------|--------|--------|--------|
E|--------|--------|--------|--------|--------|--------|--------|--------|--------|


E|--------|--------|--------|--------|--------|--------|--------|--------|--------|
B|--------|--------|--------|--------|--------|--------|--------|--------|--------|
G|--------|--------|--------|--------|--------|--------|--------|--------|--------|
D|--------|--------|--------|--------|--------|--------|--------|--------|--------|
A|--------|--------|--------|--------|--------|--------|--------|--------|--------|
E|--------|--------|--------|--------|--------|--------|--------|--------|--------|


E|--------|--------|--------|--------|--------|--------|--------|--------|--------|
B|--------|--------|--------|--------|--------|--------|--------|--------|--------|
G|--------|--------|--------|--------|--------|--------|--------|--------|--------|
D|--------|--------|--------|--------|--------|--------|--------|--------|--------|
A|--------|--------|--------|--------|--------|--------|--------|--------|--------|
E|--------|--------|--------|--------|--------|--------|--------|--------|--------|


E|--------|--------|--------|--------|--------|--------|--------|--------|--------|
B|--------|--------|--------|--------|--------|--------|--------|--------|--------|
G|--------|--------|--------|--------|--------|--------|--------|--------|--------|
D|--------|--------|--------|--------|--------|--------|--------|--------|--------|
A|--------|--------|--------|--------|--------|--------|--------|--------|--------|
E|--------|--------|--------|--------|--------|--------|--------|--------|--------|


E|--------|--------|--------|--------|----------------|----------------|----------------|
B|--------|--------|--------|--------|----------------|----------------|----------------|
G|--------|--------|--------|--------|-9------9---9---|-9------9---9---|-9------9---9---|
D|--------|--------|--------|--------|----------------|----------------|----------------|
A|--------|--------|--------|--------|-7------7---7---|-7------7---7---|-7------7---7---|
E|--------|--------|--------|--------|----------------|----------------|----------------|


E|----------------|----------------|----------------|----------------|----------------|
B|----------------|----------------|----------------|----------------|----------------|
G|-9------9---9---|-9------9---9---|-9------9---9---|-9------9---9---|-9------9---9---|
D|----------------|----------------|----------------|----------------|----------------|
A|-7------7---7---|-7------7---7---|-7------7---7---|-7------7---7---|-7------7---7---|
E|----------------|----------------|----------------|----------------|----------------|


E|----------------|----------------|----------------|----------------|----------------|
B|----------------|----------------|----------------|----------------|----------------|
G|-9------9---9---|-9------9---9---|-9------9---9---|-9------9---9---|-9------9---9---|
D|----------------|----------------|----------------|----------------|----------------|
A|-7------7---7---|-7------7---7---|-7------7---7---|-7------7---7---|-7------7---7---|
E|----------------|----------------|----------------|----------------|----------------|


E|----------------|----------------|----------------|--------|--------|--------|--------|
B|----------------|----------------|----------------|--------|--------|--------|--------|
G|-9------9---9---|-9------9---9---|-9------9---9---|--------|--------|--------|--------|
D|----------------|----------------|----------------|--------|--------|--------|--------|
A|-7------7---7---|-7------7---7---|-7------7---7---|--------|--------|--------|--------|
E|----------------|----------------|----------------|--------|--------|--------|--------|


E|--------|--------|--------|--------|--------|--------|--------|--------|--------|
B|--------|--------|--------|--------|--------|--------|--------|--------|--------|
G|--------|--------|--------|--------|--------|--------|--------|--------|--------|
D|--------|--------|--------|--------|--------|--------|--------|--------|--------|
A|--------|--------|--------|--------|--------|--------|--------|--------|--------|
E|--------|--------|--------|--------|--------|--------|--------|--------|--------|


E|--------|--------|--------|--------|--------|--------|--------|--------|--------|
B|--------|--------|--------|--------|--------|--------|--------|--------|--------|
G|--------|--------|--------|--------|--------|--------|--------|--------|--------|
D|--------|--------|--------|--------|--------|--------|--------|--------|--------|
A|--------|--------|--------|--------|--------|--------|--------|--------|--------|
E|--------|--------|--------|--------|--------|--------|--------|--------|--------|


E|--------|--------|--------|--------|--------|--------|--------|--------|--------|
B|--------|--------|--------|--------|--------|--------|--------|--------|--------|
G|--------|--------|--------|--------|--------|--------|--------|--------|--------|
D|--------|--------|--------|--------|--------|--------|--------|--------|--------|
A|--------|--------|--------|--------|--------|--------|--------|--------|--------|
E|--------|--------|--------|--------|--------|--------|--------|--------|--------|


E|--------|--------|--------|--------|--------|--------|--------|--------|--------|
B|--------|--------|--------|--------|--------|--------|--------|--------|--------|
G|--------|--------|--------|--------|--------|--------|--------|--------|--------|
D|--------|--------|--------|--------|--------|--------|--------|--------|--------|
A|--------|--------|--------|--------|--------|--------|--------|--------|--------|
E|--------|--------|--------|--------|--------|--------|--------|--------|--------|





Track 6: Keyboard

E|--------|--------|--------|--------|--------|--------|--------|--------|--------|
B|--------|--------|--------|--------|--------|--------|--------|--------|--------|
G|--------|--------|--------|--------|--------|--------|--------|--------|--------|
D|--------|--------|--------|--------|--------|--------|--------|--------|--------|
A|--------|--------|--------|--------|--------|--------|--------|--------|--------|
E|--------|--------|--------|--------|--------|--------|--------|--------|--------|


E|--------|--------|--------|--------|--------|--------|--------|--------|--------|
B|--------|--------|--------|--------|--------|--------|--------|--------|--------|
G|--------|--------|--------|--------|--------|--------|--------|--------|--------|
D|--------|--------|--------|--------|--------|--------|--------|--------|--------|
A|--------|--------|--------|--------|--------|--------|--------|--------|--------|
E|--------|--------|--------|--------|--------|--------|--------|--------|--------|


E|--------|--------|--------|--------|--------|--------|--------|--------|--------|
B|--------|--------|--------|--------|--------|--------|--------|--------|--------|
G|--------|--------|--------|--------|--------|--------|--------|--------|--------|
D|--------|--------|--------|--------|--------|--------|--------|--------|--------|
A|--------|--------|--------|--------|--------|--------|--------|--------|--------|
E|--------|--------|--------|--------|--------|--------|--------|--------|--------|


E|--------|--------|--------|--------|--------|--------|--------|--------|--------|
B|--------|--------|--------|--------|--------|--------|--------|--------|--------|
G|--------|--------|--------|--------|--------|--------|--------|--------|--------|
D|--------|--------|--------|--------|--------|--------|--------|--------|--------|
A|--------|--------|--------|--------|--------|--------|--------|--------|--------|
E|--------|--------|--------|--------|--------|--------|--------|--------|--------|


E|--------|--------|--------|--------|--------|--------|--------|--------|--------|
B|--------|--------|--------|--------|--------|--------|--------|--------|--------|
G|--------|--------|--------|--------|--------|--------|--------|--------|--------|
D|--------|--------|--------|--------|--------|--------|--------|--------|--------|
A|--------|--------|--------|--------|--------|--------|--------|--------|--------|
E|--------|--------|--------|--------|--------|--------|--------|--------|--------|


E|--------|--------|--------|--------|--------|--------|--------|--------|--------|
B|--------|--------|--------|--------|--------|--------|--------|--------|--------|
G|--------|--------|--------|--------|--------|--------|--------|--------|--------|
D|--------|--------|--------|--------|--------|--------|--------|--------|--------|
A|--------|--------|--------|--------|--------|--------|--------|--------|--------|
E|--------|--------|--------|--------|--------|--------|--------|--------|--------|


E|--------|--------|----------------|----------------|----------------|----------------|
B|--------|--------|----------------|----------------|----------------|----------------|
G|--------|--------|-9------9---9---|-9------9---9---|-9------9---9---|-9------9---9---|
D|--------|--------|----------------|----------------|----------------|----------------|
A|--------|--------|-7------7---7---|-7------7---7---|-7------7---7---|-7------7---7---|
E|--------|--------|----------------|----------------|----------------|----------------|


E|--------|--------|--------|--------|--------|--------|--------|--------|--------|
B|--------|--------|--------|--------|--------|--------|--------|--------|--------|
G|--------|--------|--------|--------|--------|--------|--------|--------|--------|
D|--------|--------|--------|--------|--------|--------|--------|--------|--------|
A|--------|--------|--------|--------|--------|--------|--------|--------|--------|
E|--------|--------|--------|--------|--------|--------|--------|--------|--------|


E|--------|--------|--------|--------|--------|--------|--------|--------|--------|
B|--------|--------|--------|--------|--------|--------|--------|--------|--------|
G|--------|--------|--------|--------|--------|--------|--------|--------|--------|
D|--------|--------|--------|--------|--------|--------|--------|--------|--------|
A|--------|--------|--------|--------|--------|--------|--------|--------|--------|
E|--------|--------|--------|--------|--------|--------|--------|--------|--------|


E|--------|--------|--------|--------|--------|--------|--------|--------|--------|
B|--------|--------|--------|--------|--------|--------|--------|--------|--------|
G|--------|--------|--------|--------|--------|--------|--------|--------|--------|
D|--------|--------|--------|--------|--------|--------|--------|--------|--------|
A|--------|--------|--------|--------|--------|--------|--------|--------|--------|
E|--------|--------|--------|--------|--------|--------|--------|--------|--------|


E|--------|--------|--------|--------|--------|--------|--------|--------|--------|
B|--------|--------|--------|--------|--------|--------|--------|--------|--------|
G|--------|--------|--------|--------|--------|--------|--------|--------|--------|
D|--------|--------|--------|--------|--------|--------|--------|--------|--------|
A|--------|--------|--------|--------|--------|--------|--------|--------|--------|
E|--------|--------|--------|--------|--------|--------|--------|--------|--------|





Track 7: Bass w/popping

G|--------|--------|--------|--------|--------|--------|--------|--------|--------|
D|--------|--------|--------|--------|--------|--------|--------|--------|--------|
A|--------|--------|--------|--------|--------|--------|--------|--------|--------|
E|--------|--------|--------|--------|--------|--------|--------|--------|--------|


G|--------|--------|--------|--------|--------|--------|--------|-----9--------------------------------|
D|--------|--------|--------|--------|--------|--------|--------|--------------------------------------|
A|--------|--------|--------|--------|--------|--------|--------|-7---------7----0--5--6--7-----0--4---|
E|--------|--------|--------|--------|--------|--------|--------|--------------------------------------|


G|-----6-------------------------------|--------0--5-----5-----------------|-----7-----------------------------|
D|-------------------------------------|-----------------------------------|-----------------------------------|
A|-------------4---3--4-----4------3---|-3------------------------7----5---|-5-------5---7--5---0--2---5---7---|
E|-------------------------------------|---------------------5-------------|-----------------------------------|


G|-----9--------------------------------|-----6-------------------------------|--------0--5-----5-----------------|
D|--------------------------------------|-------------------------------------|-----------------------------------|
A|-7---------7----0--5--6--7-----0--4---|-------------4---3--4-----4------3---|-3------------------------7----5---|
E|--------------------------------------|-------------------------------------|---------------------5-------------|


G|-----7-----------------------------|-----9--------------------------------|-----6-------------------------------|
D|-----------------------------------|--------------------------------------|-------------------------------------|
A|-5-------5---7--5---0--2---5---7---|-7---------7----0--5--6--7-----0--4---|-------------4---3--4-----4------3---|
E|-----------------------------------|--------------------------------------|-------------------------------------|


G|--------0--5-----5-----------------|-----7-----------------------------|-----9--------------------------------|
D|-----------------------------------|-----------------------------------|--------------------------------------|
A|-3------------------------7----5---|-5-------5---7--5---0--2---5---7---|-7---------7----0--5--6--7-----0--4---|
E|---------------------5-------------|-----------------------------------|--------------------------------------|


G|-----6-------------------------------|--------0--5-----5-----------------|-----7-----------------------------|
D|-------------------------------------|-----------------------------------|-----------------------------------|
A|-------------4---3--4-----4------3---|-3------------------------7----5---|-5-------5---7--5---0--2---5---7---|
E|-------------------------------------|---------------------5-------------|-----------------------------------|


G|--------|--------|--------|--------|--------|--------|--------|--------|-----9--------------------------------|
D|--------|--------|--------|--------|--------|--------|--------|--------|--------------------------------------|
A|--------|--------|--------|--------|--------|--------|--------|--------|-7---------7----0--5--6--7-----0--4---|
E|--------|--------|--------|--------|--------|--------|--------|--------|--------------------------------------|


G|-----6-------------------------------|--------0--5-----5-----------------|-----7-----------------------------|
D|-------------------------------------|-----------------------------------|-----------------------------------|
A|-------------4---3--4-----4------3---|-3------------------------7----5---|-5-------5---7--5---0--2---5---7---|
E|-------------------------------------|---------------------5-------------|-----------------------------------|


G|-----9--------------------------------|-----6-------------------------------|--------0--5-----5-----------------|
D|--------------------------------------|-------------------------------------|-----------------------------------|
A|-7---------7----0--5--6--7-----0--4---|-------------4---3--4-----4------3---|-3------------------------7----5---|
E|--------------------------------------|-------------------------------------|---------------------5-------------|


G|-----7-----------------------------|-----9--------------------------------|-----6-------------------------------|
D|-----------------------------------|--------------------------------------|-------------------------------------|
A|-5-------5---7--5---0--2---5---7---|-7---------7----0--5--6--7-----0--4---|-------------4---3--4-----4------3---|
E|-----------------------------------|--------------------------------------|-------------------------------------|


G|--------0--5-----5-----------------|-----7-----------------------------|-----9--------------------------------|
D|-----------------------------------|-----------------------------------|--------------------------------------|
A|-3------------------------7----5---|-5-------5---7--5---0--2---5---7---|-7---------7----0--5--6--7-----0--4---|
E|---------------------5-------------|-----------------------------------|--------------------------------------|


G|-----6-------------------------------|--------0--5-----5-----------------|-----7-----------------------------|
D|-------------------------------------|-----------------------------------|-----------------------------------|
A|-------------4---3--4-----4------3---|-3------------------------7----5---|-5-------5---7--5---0--2---5---7---|
E|-------------------------------------|---------------------5-------------|-----------------------------------|


G|--------|--------|--------|--------|--------|--------|--------|--------|--------|
D|--------|--------|--------|--------|--------|--------|--------|--------|--------|
A|--------|--------|--------|--------|--------|--------|--------|--------|--------|
E|--------|--------|--------|--------|--------|--------|--------|--------|--------|


G|--------|--------|--------|--------|--------|--------|--------|--------|--------|
D|--------|--------|--------|--------|--------|--------|--------|--------|--------|
A|--------|--------|--------|--------|--------|--------|--------|--------|--------|
E|--------|--------|--------|--------|--------|--------|--------|--------|--------|


G|--------|--------|-----9--------------------------------|-----6-------------------------------|
D|--------|--------|--------------------------------------|-------------------------------------|
A|--------|--------|-7---------7----0--5--6--7-----0--4---|-------------4---3--4-----4------3---|
E|--------|--------|--------------------------------------|-------------------------------------|


G|--------0--5-----5-----------------|-----7-----------------------------|-----9--------------------------------|
D|-----------------------------------|-----------------------------------|--------------------------------------|
A|-3------------------------7----5---|-5-------5---7--5---0--2---5---7---|-7---------7----0--5--6--7-----0--4---|
E|---------------------5-------------|-----------------------------------|--------------------------------------|


G|-----6-------------------------------|--------0--5-----5-----------------|-----7-----------------------------|
D|-------------------------------------|-----------------------------------|-----------------------------------|
A|-------------4---3--4-----4------3---|-3------------------------7----5---|-5-------5---7--5---0--2---5---7---|
E|-------------------------------------|---------------------5-------------|-----------------------------------|


G|-----9--------------------------------|-----6-------------------------------|--------0--5-----5-----------------|
D|--------------------------------------|-------------------------------------|-----------------------------------|
A|-7---------7----0--5--6--7-----0--4---|-------------4---3--4-----4------3---|-3------------------------7----5---|
E|--------------------------------------|-------------------------------------|---------------------5-------------|


G|--------|-----9--------------------------------|-----6-------------------------------|
D|--------|--------------------------------------|-------------------------------------|
A|--------|-7---------7----0--5--6--7-----0--4---|-------------4---3--4-----4------3---|
E|--------|--------------------------------------|-------------------------------------|


G|--------0--5-----5-----------------|-----7-----------------------------|-----9--------------------------------|
D|-----------------------------------|-----------------------------------|--------------------------------------|
A|-3------------------------7----5---|-5-------5---7--5---0--2---5---7---|-7---------7----0--5--6--7-----0--4---|
E|---------------------5-------------|-----------------------------------|--------------------------------------|


G|-----6-------------------------------|--------0--5-----5-----------------|-----7-----------------------------|
D|-------------------------------------|-----------------------------------|-----------------------------------|
A|-------------4---3--4-----4------3---|-3------------------------7----5---|-5-------5---7--5---0--2---5---7---|
E|-------------------------------------|---------------------5-------------|-----------------------------------|