Menu:

 

Search:

 

daft punk - something about us:

 



Title: Something About Us
Artist: 
Album: Discovery
Author: T. Bangalter / G-M de Homem-Christo


Track 1: Keyboard

E|--------|--------|-0------|--------|--------|--------|--------|--------|--------|
B|-3------|-1------|-1------|-3------|-3------|-2------|-8------|-6------|-3------|
G|-2------|-2------|-2------|-4------|-2------|-2------|-7------|-7------|-2------|
D|-3------|-5------|--------|-5------|-3------|-5------|-7------|-7------|-3------|
A|--------|--------|--------|--------|--------|--------|--------|--------|--------|
E|--------|--------|--------|--------|--------|--------|--------|--------|--------|


E|--------|-0------|--------|--------|--------|--------|--------|--------|--------|
B|-1------|-1------|-3------|-3------|-2------|-8------|-6------|-3------|-1------|
G|-2------|-2------|-4------|-2------|-2------|-7------|-7------|-2------|-2------|
D|-5------|--------|-5------|-3------|-5------|-7------|-7------|-3------|-5------|
A|--------|--------|--------|--------|--------|--------|--------|--------|--------|
E|--------|--------|--------|--------|--------|--------|--------|--------|--------|


E|-0------|--------|--------|--------|--------|--------|--------|--------|-0------|
B|-1------|-3------|-3------|-2------|-8------|-6------|-3------|-1------|-1------|
G|-2------|-4------|-2------|-2------|-7------|-7------|-2------|-2------|-2------|
D|--------|-5------|-3------|-5------|-7------|-7------|-3------|-5------|--------|
A|--------|--------|--------|--------|--------|--------|--------|--------|--------|
E|--------|--------|--------|--------|--------|--------|--------|--------|--------|


E|--------|--------|--------|--------|--------|--------|--------|--------|--------|
B|-3------|-3------|-2------|-8------|-6------|--------|--------|--------|--------|
G|-4------|-2------|-2------|-7------|-7------|--------|--------|--------|--------|
D|-5------|-3------|-5------|-7------|-7------|--------|--------|--------|--------|
A|--------|--------|--------|--------|--------|--------|--------|--------|--------|
E|--------|--------|--------|--------|--------|--------|--------|--------|--------|


E|--------|--------|--------|--------|--------|--------|-0------|--------|--------|
B|--------|--------|--------|--------|-3------|-1------|-1------|-3------|-3------|
G|--------|--------|--------|--------|-2------|-2------|-2------|-4------|-2------|
D|--------|--------|--------|--------|-3------|-5------|--------|-5------|-3------|
A|--------|--------|--------|--------|--------|--------|--------|--------|--------|
E|--------|--------|--------|--------|--------|--------|--------|--------|--------|


E|--------|--------|--------|--------|--------|-0------|--------|--------|--------|
B|-2------|-8------|-6------|-3------|-1------|-1------|-3------|-3------|-2------|
G|-2------|-7------|-7------|-2------|-2------|-2------|-4------|-2------|-2------|
D|-5------|-7------|-7------|-3------|-5------|--------|-5------|-3------|-5------|
A|--------|--------|--------|--------|--------|--------|--------|--------|--------|
E|--------|--------|--------|--------|--------|--------|--------|--------|--------|


E|--------|--------|--------|--------|-0------|--------|--------|--------|--------|
B|-8------|-6------|-3------|-1------|-1------|-3------|-3------|-2------|-8------|
G|-7------|-7------|-2------|-2------|-2------|-4------|-2------|-2------|-7------|
D|-7------|-7------|-3------|-5------|--------|-5------|-3------|-5------|-7------|
A|--------|--------|--------|--------|--------|--------|--------|--------|--------|
E|--------|--------|--------|--------|--------|--------|--------|--------|--------|


E|--------|--------|--------|-0------|--------|--------|--------|--------|--------|
B|-6------|-3------|-1------|-1------|-3------|-3------|-2------|-8------|-6------|
G|-7------|-2------|-2------|-2------|-4------|-2------|-2------|-7------|-7------|
D|-7------|-3------|-5------|--------|-5------|-3------|-5------|-7------|-7------|
A|--------|--------|--------|--------|--------|--------|--------|--------|--------|
E|--------|--------|--------|--------|--------|--------|--------|--------|--------|


E|--------|--------|-0------|--------|--------|--------|--------|--------|--------|
B|-3------|-1------|-1------|-3------|-3------|-2------|-8------|-6------|-3------|
G|-2------|-2------|-2------|-4------|-2------|-2------|-7------|-7------|-2------|
D|-3------|-5------|--------|-5------|-3------|-5------|-7------|-7------|-3------|
A|--------|--------|--------|--------|--------|--------|--------|--------|--------|
E|--------|--------|--------|--------|--------|--------|--------|--------|--------|


E|--------|-0------|--------|--------|--------|--------|--------|--------|--------|
B|-1------|-1------|-3------|-3------|-2------|-8------|-6------|-3------|-1------|
G|-2------|-2------|-4------|-2------|-2------|-7------|-7------|-2------|-2------|
D|-5------|--------|-5------|-3------|-5------|-7------|-7------|-3------|-5------|
A|--------|--------|--------|--------|--------|--------|--------|--------|--------|
E|--------|--------|--------|--------|--------|--------|--------|--------|--------|


E|-0------|--------|--------|--------|--------|--------|--------|--------|-0------|
B|-1------|-3------|-3------|-2------|-8------|-6------|-3------|-1------|-1------|
G|-2------|-4------|-2------|-2------|-7------|-7------|-2------|-2------|-2------|
D|--------|-5------|-3------|-5------|-7------|-7------|-3------|-5------|--------|
A|--------|--------|--------|--------|--------|--------|--------|--------|--------|
E|--------|--------|--------|--------|--------|--------|--------|--------|--------|


E|--------|--------|--------|--------|--------|
B|-3------|-3------|-2------|-8------|-6------|
G|-4------|-2------|-2------|-7------|-7------|
D|-5------|-3------|-5------|-7------|-7------|
A|--------|--------|--------|--------|--------|
E|--------|--------|--------|--------|--------|





Track 2: Muted Guitar (Talk Box)

E|--------|--------|--------|--------|--------|--------|--------|--------|---------------------------------|
B|--------|--------|--------|--------|--------|--------|--------|--------|---------------------------------|
G|--------|--------|--------|--------|--------|--------|--------|--------|---------------------------------|
D|--------|--------|--------|--------|--------|--------|--------|--------|-----0----3----0-------3---------|
A|--------|--------|--------|--------|--------|--------|--------|--------|---------------------------0--3--|
E|--------|--------|--------|--------|--------|--------|--------|--------|---------------------------------|


E|-------------------------------|---------------3--3----------------|-------------------------------|
B|-------------------------------|---------------3--3----------------|-------------------------------|
G|-------------------------------|-----------------------------------|-------------------------------|
D|-----0----3----0-------3----5--|-----0----3----0--0------3---------|-----0----3----0-------3----5--|
A|-------------------------------|-----------------------------0--3--|-------------------------------|
E|-------------------------------|-----------------------------------|-------------------------------|


E|---------------------------------|-------------------------------|---------------3--3----------------|
B|---------------------------------|-------------------------------|---------------3--3----------------|
G|---------------------------------|-------------------------------|-----------------------------------|
D|-----0----3----0-------3---------|-----0----3----0-------3----5--|-----0----3----0--0------3---------|
A|---------------------------0--3--|-------------------------------|-----------------------------0--3--|
E|---------------------------------|-------------------------------|-----------------------------------|


E|-------------------------------|---------------------------------|-------------------------------|
B|-------------------------------|---------------------------------|-------------------------------|
G|-------------------------------|---------------------------------|-------------------------------|
D|-----0----3----0-------3----5--|-----0----3----0-------3---------|-----0----3----0-------3----5--|
A|-------------------------------|---------------------------0--3--|-------------------------------|
E|-------------------------------|---------------------------------|-------------------------------|


E|---------------3--3----------------|-------------------------------|---------------------------------|
B|---------------3--3----------------|-------------------------------|---------------------------------|
G|-----------------------------------|-------------------------------|---------------------------------|
D|-----0----3----0--0------3---------|-----0----3----0-------3----5--|-----0----3----0-------3---------|
A|-----------------------------0--3--|-------------------------------|---------------------------0--3--|
E|-----------------------------------|-------------------------------|---------------------------------|


E|-------------------------------|---------------3--3----------------|-------------------------------|
B|-------------------------------|---------------3--3----------------|-------------------------------|
G|-------------------------------|-----------------------------------|-------------------------------|
D|-----0----3----0-------3----5--|-----0----3----0--0------3---------|-----0----3----0-------3----5--|
A|-------------------------------|-----------------------------0--3--|-------------------------------|
E|-------------------------------|-----------------------------------|-------------------------------|


E|---------------------------------|-------------------------------|---------------3--3----------------|
B|---------------------------------|-------------------------------|---------------3--3----------------|
G|---------------------------------|-------------------------------|-----------------------------------|
D|-----0----3----0-------3---------|-----0----3----0-------3----5--|-----0----3----0--0------3---------|
A|---------------------------0--3--|-------------------------------|-----------------------------0--3--|
E|---------------------------------|-------------------------------|-----------------------------------|


E|-------------------------------|---------------------------------|-------------------------------|
B|-------------------------------|---------------------------------|-------------------------------|
G|-------------------------------|---------------------------------|-------------------------------|
D|-----0----3----0-------3----5--|-----0----3----0-------3---------|-----0----3----0-------3----5--|
A|-------------------------------|---------------------------0--3--|-------------------------------|
E|-------------------------------|---------------------------------|-------------------------------|


E|---------------3--3----------------|-------------------------------|--------|--------|
B|---------------3--3----------------|-------------------------------|--------|--------|
G|-----------------------------------|-------------------------------|--------|--------|
D|-----0----3----0--0------3---------|-----0----3----0-------3----5--|--------|--------|
A|-----------------------------0--3--|-------------------------------|--------|--------|
E|-----------------------------------|-------------------------------|--------|--------|


E|--------|--------|--------|--------|--------|--------|--------|--------|--------|
B|--------|--------|--------|--------|--------|--------|--------|--------|--------|
G|--------|--------|--------|--------|--------|--------|--------|--------|--------|
D|--------|--------|--------|--------|--------|--------|--------|--------|--------|
A|--------|--------|--------|--------|--------|--------|--------|--------|--------|
E|--------|--------|--------|--------|--------|--------|--------|--------|--------|


E|--------|--------|--------|--------|--------|--------|--------|--------|--------|
B|--------|--------|--------|--------|--------|--------|--------|--------|--------|
G|--------|--------|--------|--------|--------|--------|--------|--------|--------|
D|--------|--------|--------|--------|--------|--------|--------|--------|--------|
A|--------|--------|--------|--------|--------|--------|--------|--------|--------|
E|--------|--------|--------|--------|--------|--------|--------|--------|--------|


E|--------|--------|--------|--------|--------|--------|--------|--------|--------|
B|--------|--------|--------|--------|--------|--------|--------|--------|--------|
G|--------|--------|--------|--------|--------|--------|--------|--------|--------|
D|--------|--------|--------|--------|--------|--------|--------|--------|--------|
A|--------|--------|--------|--------|--------|--------|--------|--------|--------|
E|--------|--------|--------|--------|--------|--------|--------|--------|--------|


E|--------|--------|--------|--------|--------|--------|--------|--------|--------|
B|--------|--------|--------|--------|--------|--------|--------|--------|--------|
G|--------|--------|--------|--------|--------|--------|--------|--------|--------|
D|--------|--------|--------|--------|--------|--------|--------|--------|--------|
A|--------|--------|--------|--------|--------|--------|--------|--------|--------|
E|--------|--------|--------|--------|--------|--------|--------|--------|--------|


E|--------|--------|---------------------------------|-------------------------------|
B|--------|--------|---------------------------------|-------------------------------|
G|--------|--------|---------------------------------|-------------------------------|
D|--------|--------|-----0----3----0-------3---------|-----0----3----0-------3----5--|
A|--------|--------|---------------------------0--3--|-------------------------------|
E|--------|--------|---------------------------------|-------------------------------|


E|---------------3--3----------------|-------------------------------|---------------------------------|
B|---------------3--3----------------|-------------------------------|---------------------------------|
G|-----------------------------------|-------------------------------|---------------------------------|
D|-----0----3----0--0------3---------|-----0----3----0-------3----5--|-----0----3----0-------3---------|
A|-----------------------------0--3--|-------------------------------|---------------------------0--3--|
E|-----------------------------------|-------------------------------|---------------------------------|


E|-------------------------------|---------------3--3----------------|-------------------------------|
B|-------------------------------|---------------3--3----------------|-------------------------------|
G|-------------------------------|-----------------------------------|-------------------------------|
D|-----0----3----0-------3----5--|-----0----3----0--0------3---------|-----0----3----0-------3----5--|
A|-------------------------------|-----------------------------0--3--|-------------------------------|
E|-------------------------------|-----------------------------------|-------------------------------|


E|---------------------------------|-------------------------------|---------------3--3----------------|
B|---------------------------------|-------------------------------|---------------3--3----------------|
G|---------------------------------|-------------------------------|-----------------------------------|
D|-----0----3----0-------3---------|-----0----3----0-------3----5--|-----0----3----0--0------3---------|
A|---------------------------0--3--|-------------------------------|-----------------------------0--3--|
E|---------------------------------|-------------------------------|-----------------------------------|


E|-------------------------------|---------------------------------|-------------------------------|
B|-------------------------------|---------------------------------|-------------------------------|
G|-------------------------------|---------------------------------|-------------------------------|
D|-----0----3----0-------3----5--|-----0----3----0-------3---------|-----0----3----0-------3----5--|
A|-------------------------------|---------------------------0--3--|-------------------------------|
E|-------------------------------|---------------------------------|-------------------------------|


E|---------------3--3----------------|-------------------------------|---------------------------------|
B|---------------3--3----------------|-------------------------------|---------------------------------|
G|-----------------------------------|-------------------------------|---------------------------------|
D|-----0----3----0--0------3---------|-----0----3----0-------3----5--|-----0----3----0-------3---------|
A|-----------------------------0--3--|-------------------------------|---------------------------0--3--|
E|-----------------------------------|-------------------------------|---------------------------------|


E|-------------------------------|---------------3--3----------------|-------------------------------|
B|-------------------------------|---------------3--3----------------|-------------------------------|
G|-------------------------------|-----------------------------------|-------------------------------|
D|-----0----3----0-------3----5--|-----0----3----0--0------3---------|-----0----3----0-------3----5--|
A|-------------------------------|-----------------------------0--3--|-------------------------------|
E|-------------------------------|-----------------------------------|-------------------------------|


E|---------------------------------|-------------------------------|---------------3--3----------------|
B|---------------------------------|-------------------------------|---------------3--3----------------|
G|---------------------------------|-------------------------------|-----------------------------------|
D|-----0----3----0-------3---------|-----0----3----0-------3----5--|-----0----3----0--0------3---------|
A|---------------------------0--3--|-------------------------------|-----------------------------0--3--|
E|---------------------------------|-------------------------------|-----------------------------------|


E|-------------------------------|---------------------------------|-------------------------------|
B|-------------------------------|---------------------------------|-------------------------------|
G|-------------------------------|---------------------------------|-------------------------------|
D|-----0----3----0-------3----5--|-----0----3----0-------3---------|-----0----3----0-------3----5--|
A|-------------------------------|---------------------------0--3--|-------------------------------|
E|-------------------------------|---------------------------------|-------------------------------|


E|---------------3--3----------------|-------------------------------|---------------------------------|
B|---------------3--3----------------|-------------------------------|---------------------------------|
G|-----------------------------------|-------------------------------|---------------------------------|
D|-----0----3----0--0------3---------|-----0----3----0-------3----5--|-----0----3----0-------3---------|
A|-----------------------------0--3--|-------------------------------|---------------------------0--3--|
E|-----------------------------------|-------------------------------|---------------------------------|


E|-------------------------------|---------------3--3----------------|-------------------------------|
B|-------------------------------|---------------3--3----------------|-------------------------------|
G|-------------------------------|-----------------------------------|-------------------------------|
D|-----0----3----0-------3----5--|-----0----3----0--0------3---------|-----0----3----0-------3----5--|
A|-------------------------------|-----------------------------0--3--|-------------------------------|
E|-------------------------------|-----------------------------------|-------------------------------|





Track 3: Wah/Talk Box Guitar

E|--------|--------|--------|--------|--------|--------|--------|--------|--------|
B|--------|--------|--------|--------|--------|--------|--------|--------|--------|
G|--------|--------|--------|--------|--------|--------|--------|--------|--------|
D|--------|--------|--------|--------|--------|--------|--------|--------|--------|
A|--------|--------|--------|--------|--------|--------|--------|--------|--------|
E|--------|--------|--------|--------|--------|--------|--------|--------|--------|


E|--------|--------|--------|--------|--------|--------|--------|--------|--------|
B|--------|--------|--------|--------|--------|--------|--------|--------|--------|
G|--------|--------|--------|--------|--------|--------|--------|--------|--------|
D|--------|--------|--------|--------|--------|--------|--------|--------|--------|
A|--------|--------|--------|--------|--------|--------|--------|--------|--------|
E|--------|--------|--------|--------|--------|--------|--------|--------|--------|


E|--------|--------|--------|--------|--------|--------|---------------------|---------------------|
B|--------|--------|--------|--------|--------|--------|---------------------|---------------------|
G|--------|--------|--------|--------|--------|--------|-7----9----10--10----|-9----10---12--12----|
D|--------|--------|--------|--------|--------|--------|---------------------|-10---12---14--14----|
A|--------|--------|--------|--------|--------|--------|---------------------|---------------------|
E|--------|--------|--------|--------|--------|--------|---------------------|---------------------|


E|---------------------|-------------------------|---------------------|---------------------|
B|-----------10--10----|-10----------------------|---------------------|---------------------|
G|-10---12---10--10----|-10-12--12--10--10-10----|-7----9----10--10----|-9----10---12--12----|
D|-12---14-------------|----14--14--12--12-12----|---------------------|-10---12---14--14----|
A|---------------------|-------------------------|---------------------|---------------------|
E|---------------------|-------------------------|---------------------|---------------------|


E|---------------------|-------------------------|--------|--------|--------|--------|
B|-----------10--10----|-10----------------------|--------|--------|--------|--------|
G|-10---12---10--10----|-10-12--12--10--10-10----|--------|--------|--------|--------|
D|-12---14-------------|----14--14--12--12-12----|--------|--------|--------|--------|
A|---------------------|-------------------------|--------|--------|--------|--------|
E|---------------------|-------------------------|--------|--------|--------|--------|


E|--------|--------|--------|--------|--------|--------|--------|--------|--------|
B|--------|--------|--------|--------|--------|--------|--------|--------|--------|
G|--------|--------|--------|--------|--------|--------|--------|--------|--------|
D|--------|--------|--------|--------|--------|--------|--------|--------|--------|
A|--------|--------|--------|--------|--------|--------|--------|--------|--------|
E|--------|--------|--------|--------|--------|--------|--------|--------|--------|


E|--------|--------|--------|--------|--------|--------|--------|--------|--------|
B|--------|--------|--------|--------|--------|--------|--------|--------|--------|
G|--------|--------|--------|--------|--------|--------|--------|--------|--------|
D|--------|--------|--------|--------|--------|--------|--------|--------|--------|
A|--------|--------|--------|--------|--------|--------|--------|--------|--------|
E|--------|--------|--------|--------|--------|--------|--------|--------|--------|


E|--------|--------|--------|--------|--------|--------|--------|--------|--------|
B|--------|--------|--------|--------|--------|--------|--------|--------|--------|
G|--------|--------|--------|--------|--------|--------|--------|--------|--------|
D|--------|--------|--------|--------|--------|--------|--------|--------|--------|
A|--------|--------|--------|--------|--------|--------|--------|--------|--------|
E|--------|--------|--------|--------|--------|--------|--------|--------|--------|


E|--------|--------|--------|--------|--------|--------|--------|--------|--------|
B|--------|--------|--------|--------|--------|--------|--------|--------|--------|
G|--------|--------|--------|--------|--------|--------|--------|--------|--------|
D|--------|--------|--------|--------|--------|--------|--------|--------|--------|
A|--------|--------|--------|--------|--------|--------|--------|--------|--------|
E|--------|--------|--------|--------|--------|--------|--------|--------|--------|


E|--------|--------|--------|--------|--------|--------|--------|--------|--------|
B|--------|--------|--------|--------|--------|--------|--------|--------|--------|
G|--------|--------|--------|--------|--------|--------|--------|--------|--------|
D|--------|--------|--------|--------|--------|--------|--------|--------|--------|
A|--------|--------|--------|--------|--------|--------|--------|--------|--------|
E|--------|--------|--------|--------|--------|--------|--------|--------|--------|


E|--------|--------|--------|--------|--------|--------|--------|--------|--------|
B|--------|--------|--------|--------|--------|--------|--------|--------|--------|
G|--------|--------|--------|--------|--------|--------|--------|--------|--------|
D|--------|--------|--------|--------|--------|--------|--------|--------|--------|
A|--------|--------|--------|--------|--------|--------|--------|--------|--------|
E|--------|--------|--------|--------|--------|--------|--------|--------|--------|


E|--------|--------|--------|--------|--------|--------|--------|--------|--------|
B|--------|--------|--------|--------|--------|--------|--------|--------|--------|
G|--------|--------|--------|--------|--------|--------|--------|--------|--------|
D|--------|--------|--------|--------|--------|--------|--------|--------|--------|
A|--------|--------|--------|--------|--------|--------|--------|--------|--------|
E|--------|--------|--------|--------|--------|--------|--------|--------|--------|


E|--------|--------|--------|--------|--------|
B|--------|--------|--------|--------|--------|
G|--------|--------|--------|--------|--------|
D|--------|--------|--------|--------|--------|
A|--------|--------|--------|--------|--------|
E|--------|--------|--------|--------|--------|





Track 4: Solo Keyboard

E|--------|--------|--------|--------|--------|--------|--------|--------|--------|
B|--------|--------|--------|--------|--------|--------|--------|--------|--------|
G|--------|--------|--------|--------|--------|--------|--------|--------|--------|
D|--------|--------|--------|--------|--------|--------|--------|--------|--------|
A|--------|--------|--------|--------|--------|--------|--------|--------|--------|
E|--------|--------|--------|--------|--------|--------|--------|--------|--------|


E|--------|--------|--------|--------|--------|--------|--------|--------|--------|
B|--------|--------|--------|--------|--------|--------|--------|--------|--------|
G|--------|--------|--------|--------|--------|--------|--------|--------|--------|
D|--------|--------|--------|--------|--------|--------|--------|--------|--------|
A|--------|--------|--------|--------|--------|--------|--------|--------|--------|
E|--------|--------|--------|--------|--------|--------|--------|--------|--------|


E|--------|--------|--------|--------|--------|--------|--------|--------|--------|
B|--------|--------|--------|--------|--------|--------|--------|--------|--------|
G|--------|--------|--------|--------|--------|--------|--------|--------|--------|
D|--------|--------|--------|--------|--------|--------|--------|--------|--------|
A|--------|--------|--------|--------|--------|--------|--------|--------|--------|
E|--------|--------|--------|--------|--------|--------|--------|--------|--------|


E|--------|--------|--------|--------|--------|--------|--------|--------|--------|
B|--------|--------|--------|--------|--------|--------|--------|--------|--------|
G|--------|--------|--------|--------|--------|--------|--------|--------|--------|
D|--------|--------|--------|--------|--------|--------|--------|--------|--------|
A|--------|--------|--------|--------|--------|--------|--------|--------|--------|
E|--------|--------|--------|--------|--------|--------|--------|--------|--------|


E|--------|--------|--------|--------|--------|--------|--------|--------|--------|
B|--------|--------|--------|--------|--------|--------|--------|--------|--------|
G|--------|--------|--------|--------|--------|--------|--------|--------|--------|
D|--------|--------|--------|--------|--------|--------|--------|--------|--------|
A|--------|--------|--------|--------|--------|--------|--------|--------|--------|
E|--------|--------|--------|--------|--------|--------|--------|--------|--------|


E|--------|--------|--------|--------|--------|--------|--------|--------|--------|
B|--------|--------|--------|--------|--------|--------|--------|--------|--------|
G|--------|--------|--------|--------|--------|--------|--------|--------|--------|
D|--------|--------|--------|--------|--------|--------|--------|--------|--------|
A|--------|--------|--------|--------|--------|--------|--------|--------|--------|
E|--------|--------|--------|--------|--------|--------|--------|--------|--------|


E|--------|----------------------5--|-5---------10--8--|-8-------------5---------|
B|--------|---------------6--8------|------------------|-------6---8------6---8--|
G|--------|-------5---7-------------|------------------|-------------------------|
D|--------|-------------------------|------------------|-------------------------|
A|--------|-------------------------|------------------|-------------------------|
E|--------|-------------------------|------------------|-------------------------|


E|-----------------|-5-----------------------------5---|-5------5--10--12-|-12----12-13--12--8------|
B|-8-----8---------|----8---8---6---6------------------|------------------|----------------------10-|
G|-----------------|--------------------7---5---7------|------------------|-------------------------|
D|-----------------|-----------------------------------|------------------|-------------------------|
A|-----------------|-----------------------------------|------------------|-------------------------|
E|-----------------|-----------------------------------|------------------|-------------------------|


E|--------------------|-8---5--5-------------------------5--|-5---------10--8--|-8-------------5---------|
B|-10-----10----6--8--|------------8---8----------6--8------|------------------|-------6---8------6---8--|
G|-----------7--------|-------------------5---7-------------|------------------|-------------------------|
D|--------------------|-------------------------------------|------------------|-------------------------|
A|--------------------|-------------------------------------|------------------|-------------------------|
E|--------------------|-------------------------------------|------------------|-------------------------|


E|-----------------|-5-----------------------------5---|-5------5--10--12-|-12----12-13--12--8------|
B|-8---8-----8-----|----8---8---6---6------------------|------------------|----------------------10-|
G|-----------------|--------------------7---5---7------|------------------|-------------------------|
D|-----------------|-----------------------------------|------------------|-------------------------|
A|-----------------|-----------------------------------|------------------|-------------------------|
E|-----------------|-----------------------------------|------------------|-------------------------|


E|--------------------|-8---5--5-------------------------5--|-5---------10--8--|-8-------------5---------|
B|-10-----10----6--8--|------------8---8----------6--8------|------------------|-------6---8------6---8--|
G|-----------7--------|-------------------5---7-------------|------------------|-------------------------|
D|--------------------|-------------------------------------|------------------|-------------------------|
A|--------------------|-------------------------------------|------------------|-------------------------|
E|--------------------|-------------------------------------|------------------|-------------------------|


E|-----------------|-5-----------------------------5---|-5------5--10--12-|-12----12-13--12--8------|
B|-8-----8---------|----8---8---6---6------------------|------------------|----------------------10-|
G|-----------------|--------------------7---5---7------|------------------|-------------------------|
D|-----------------|-----------------------------------|------------------|-------------------------|
A|-----------------|-----------------------------------|------------------|-------------------------|
E|-----------------|-----------------------------------|------------------|-------------------------|


E|--------------------|-8---5--5-------------------------5--|-5---------10--8--|-8-------------5---------|
B|-10-----10----6--8--|------------8---8----------6--8------|------------------|-------6---8------6---8--|
G|-----------7--------|-------------------5---7-------------|------------------|-------------------------|
D|--------------------|-------------------------------------|------------------|-------------------------|
A|--------------------|-------------------------------------|------------------|-------------------------|
E|--------------------|-------------------------------------|------------------|-------------------------|


E|-----------------|-5-----------------------------5---|-5------5--10--12-|-12----12-13--12--8------|
B|-8-----8---------|----8---8---6---6------------------|------------------|----------------------10-|
G|-----------------|--------------------7---5---7------|------------------|-------------------------|
D|-----------------|-----------------------------------|------------------|-------------------------|
A|-----------------|-----------------------------------|------------------|-------------------------|
E|-----------------|-----------------------------------|------------------|-------------------------|


E|--------------------|-8---5--5-------------------------5--|-5---------10--8--|-8-------------5---------|
B|-10-----10----6--8--|------------8---8----------6--8------|------------------|-------6---8------6---8--|
G|-----------7--------|-------------------5---7-------------|------------------|-------------------------|
D|--------------------|-------------------------------------|------------------|-------------------------|
A|--------------------|-------------------------------------|------------------|-------------------------|
E|--------------------|-------------------------------------|------------------|-------------------------|


E|-----------------|-5-----------------------------5---|-5------5--10--12-|-12----12-13--12--8------|
B|-8-----8---------|----8---8---6---6------------------|------------------|----------------------10-|
G|-----------------|--------------------7---5---7------|------------------|-------------------------|
D|-----------------|-----------------------------------|------------------|-------------------------|
A|-----------------|-----------------------------------|------------------|-------------------------|
E|-----------------|-----------------------------------|------------------|-------------------------|


E|--------------------|-8---5--5-------------------------5--|-5---------10--8--|-8-------------5---------|
B|-10-----10----6--8--|------------8---8----------6--8------|------------------|-------6---8------6---8--|
G|-----------7--------|-------------------5---7-------------|------------------|-------------------------|
D|--------------------|-------------------------------------|------------------|-------------------------|
A|--------------------|-------------------------------------|------------------|-------------------------|
E|--------------------|-------------------------------------|------------------|-------------------------|


E|-----------------|-5-----------------------------5---|-5------5--10--12-|-12----12-13--12--8------|
B|-8-----8---------|----8---8---6---6------------------|------------------|----------------------10-|
G|-----------------|--------------------7---5---7------|------------------|-------------------------|
D|-----------------|-----------------------------------|------------------|-------------------------|
A|-----------------|-----------------------------------|------------------|-------------------------|
E|-----------------|-----------------------------------|------------------|-------------------------|


E|--------------------|-8---5--5-------------------------5--|
B|-10-----10----6--8--|------------8---8----------6--8------|
G|-----------7--------|-------------------5---7-------------|
D|--------------------|-------------------------------------|
A|--------------------|-------------------------------------|
E|--------------------|-------------------------------------|





Track 5: Popping Bass

G|--------|--------|--------|--------|--------|--------|--------|--------|-------------------------|
D|--------|--------|--------|--------|--------|--------|--------|--------|-----8-------------------|
A|--------|--------|--------|--------|--------|--------|--------|--------|-------------------------|
E|--------|--------|--------|--------|--------|--------|--------|--------|-6-----------6--6--------|


G|-----------------------|-----7-----------------|-----------------------|-------------------------|
D|-----7-----------------|-----------------------|-----5-----------------|-----8-------------------|
A|-----------------------|-5------------5--------|-----------------------|-------------------------|
E|-5-----------5---------|-----------------------|-3-----------3---------|-6-----------6--6--------|


G|-----------------------|-----7-----------------|-----------------------|-------------------------|
D|-----7-----------------|-----------------------|-----5-----------------|-----8-------------------|
A|-----------------------|-5------------5--------|-----------------------|-------------------------|
E|-5-----------5---------|-----------------------|-3-----------3---------|-6-----------6--6--------|


G|-----------------------|-----7-----------------|-----------------------|-------------------------|
D|-----7-----------------|-----------------------|-----5-----------------|-----8-------------------|
A|-----------------------|-5------------5--------|-----------------------|-------------------------|
E|-5-----------5---------|-----------------------|-3-----------3---------|-6-----------6--6--------|


G|-----------------------|-----7-----------------|-----------------------|-------------------------|
D|-----7-----------------|-----------------------|-----5-----------------|-----8-------------------|
A|-----------------------|-5------------5--------|-----------------------|-------------------------|
E|-5-----------5---------|-----------------------|-3-----------3---------|-6-----------6--6--------|


G|-----------------------|-----7-----------------|-----------------------|-------------------------|
D|-----7-----------------|-----------------------|-----5-----------------|-----8-------------------|
A|-----------------------|-5------------5--------|-----------------------|-------------------------|
E|-5-----------5---------|-----------------------|-3-----------3---------|-6-----------6--6--------|


G|-----------------------|-----7-----------------|-----------------------|-------------------------|
D|-----7-----------------|-----------------------|-----5-----------------|-----8-------------------|
A|-----------------------|-5------------5--------|-----------------------|-------------------------|
E|-5-----------5---------|-----------------------|-3-----------3---------|-6-----------6--6--------|


G|-----------------------|-----7-----------------|-----------------------|-------------------------|
D|-----7-----------------|-----------------------|-----5-----------------|-----8-------------------|
A|-----------------------|-5------------5--------|-----------------------|-------------------------|
E|-5-----------5---------|-----------------------|-3-----------3---------|-6-----------6--6--------|


G|-----------------------|-----7-----------------|-----------------------|-------------------------|
D|-----7-----------------|-----------------------|-----5-----------------|-----8-------------------|
A|-----------------------|-5------------5--------|-----------------------|-------------------------|
E|-5-----------5---------|-----------------------|-3-----------3---------|-6-----------6--6--------|


G|--------|--------|--------|-------------------------|-----------------------|-----7-----------------|
D|--------|--------|--------|-----8-------------------|-----7-----------------|-----------------------|
A|--------|--------|--------|-------------------------|-----------------------|-5------------5--------|
E|--------|--------|--------|-6-----------6--6--------|-5-----------5---------|-----------------------|


G|-----------------------|-------------------------|-----------------------|-----7-----------------|
D|-----5-----------------|-----8-------------------|-----7-----------------|-----------------------|
A|-----------------------|-------------------------|-----------------------|-5------------5--------|
E|-3-----------3---------|-6-----------6--6--------|-5-----------5---------|-----------------------|


G|-----------------------|-------------------------|-----------------------|-----7-----------------|
D|-----5-----------------|-----8-------------------|-----7-----------------|-----------------------|
A|-----------------------|-------------------------|-----------------------|-5------------5--------|
E|-3-----------3---------|-6-----------6--6--------|-5-----------5---------|-----------------------|


G|-----------------------|-------------------------|-----------------------|-----7-----------------|
D|-----5-----------------|-----8-------------------|-----7-----------------|-----------------------|
A|-----------------------|-------------------------|-----------------------|-5------------5--------|
E|-3-----------3---------|-6-----------6--6--------|-5-----------5---------|-----------------------|


G|-----------------------|-------------------------|-----------------------|-----7-----------------|
D|-----5-----------------|-----8-------------------|-----7-----------------|-----------------------|
A|-----------------------|-------------------------|-----------------------|-5------------5--------|
E|-3-----------3---------|-6-----------6--6--------|-5-----------5---------|-----------------------|


G|-----------------------|-------------------------|-----------------------|-----7-----------------|
D|-----5-----------------|-----8-------------------|-----7-----------------|-----------------------|
A|-----------------------|-------------------------|-----------------------|-5------------5--------|
E|-3-----------3---------|-6-----------6--6--------|-5-----------5---------|-----------------------|


G|-----------------------|-------------------------|-----------------------|-----7-----------------|
D|-----5-----------------|-----8-------------------|-----7-----------------|-----------------------|
A|-----------------------|-------------------------|-----------------------|-5------------5--------|
E|-3-----------3---------|-6-----------6--6--------|-5-----------5---------|-----------------------|


G|-----------------------|-------------------------|-----------------------|-----7-----------------|
D|-----5-----------------|-----8-------------------|-----7-----------------|-----------------------|
A|-----------------------|-------------------------|-----------------------|-5------------5--------|
E|-3-----------3---------|-6-----------6--6--------|-5-----------5---------|-----------------------|


G|-----------------------|-------------------------|-----------------------|-----7-----------------|
D|-----5-----------------|-----8-------------------|-----7-----------------|-----------------------|
A|-----------------------|-------------------------|-----------------------|-5------------5--------|
E|-3-----------3---------|-6-----------6--6--------|-5-----------5---------|-----------------------|


G|-----------------------|-------------------------|-----------------------|-----7-----------------|
D|-----5-----------------|-----8-------------------|-----7-----------------|-----------------------|
A|-----------------------|-------------------------|-----------------------|-5------------5--------|
E|-3-----------3---------|-6-----------6--6--------|-5-----------5---------|-----------------------|


G|-----------------------|-------------------------|-----------------------|-----7-----------------|
D|-----5-----------------|-----8-------------------|-----7-----------------|-----------------------|
A|-----------------------|-------------------------|-----------------------|-5------------5--------|
E|-3-----------3---------|-6-----------6--6--------|-5-----------5---------|-----------------------|


G|-----------------------|-------------------------|-----------------------|-----7-----------------|
D|-----5-----------------|-----8-------------------|-----7-----------------|-----------------------|
A|-----------------------|-------------------------|-----------------------|-5------------5--------|
E|-3-----------3---------|-6-----------6--6--------|-5-----------5---------|-----------------------|


G|-----------------------|-------------------------|-----------------------|-----7-----------------|
D|-----5-----------------|-----8-------------------|-----7-----------------|-----------------------|
A|-----------------------|-------------------------|-----------------------|-5------------5--------|
E|-3-----------3---------|-6-----------6--6--------|-5-----------5---------|-----------------------|


G|-----------------------|-------------------------|-----------------------|-----7-----------------|
D|-----5-----------------|-----8-------------------|-----7-----------------|-----------------------|
A|-----------------------|-------------------------|-----------------------|-5------------5--------|
E|-3-----------3---------|-6-----------6--6--------|-5-----------5---------|-----------------------|


G|-----------------------|-------------------------|-----------------------|-----7-----------------|
D|-----5-----------------|-----8-------------------|-----7-----------------|-----------------------|
A|-----------------------|-------------------------|-----------------------|-5------------5--------|
E|-3-----------3---------|-6-----------6--6--------|-5-----------5---------|-----------------------|


G|-----------------------|
D|-----5-----------------|
A|-----------------------|
E|-3-----------3---------|