Menu:

 

Search:

 

daft punk - robot rock:

 



Title: Robot Rock
Artist: 
Album: Human After All
Author: Thomas Bangalter, Guy Manuel de Homem Christo


Track 1: Guitar

E|--------|--------|---------------------|------------------------|---------------------|
B|--------|--------|---------------------|------------------------|---------------------|
G|--------|--------|-7----7----7----7----|-7----7----7----9--5----|-7----7----7----7----|
D|--------|--------|-7----7----7----7----|-7----7----7----9--5----|-7----7----7----7----|
A|--------|--------|-5----5----5----5----|-5----5----5----7--3----|-5----5----5----5----|
E|--------|--------|---------------------|------------------------|---------------------|


E|------------------------|---------------------|------------------------|---------------------|
B|------------------------|---------------------|------------------------|---------------------|
G|-7----7----7----9--5----|-7----7----7----7----|-7----7----7----9--5----|-7----7----7----7----|
D|-7----7----7----9--5----|-7----7----7----7----|-7----7----7----9--5----|-7----7----7----7----|
A|-5----5----5----7--3----|-5----5----5----5----|-5----5----5----7--3----|-5----5----5----5----|
E|------------------------|---------------------|------------------------|---------------------|


E|------------------------|--------|-------------------------|-------------|-------------------------|
B|------------------------|--------|-------------------------|-------------|-------------------------|
G|-7----7----7----9--5----|-5------|-7-------------7----7----|-7-----------|-7-------------7----7----|
D|-7----7----7----9--5----|-5------|-7-------------7----7----|-7-----------|-7-------------7----7----|
A|-5----5----5----7--3----|-3------|-5-------------5----5----|-5-----------|-5-------------5----5----|
E|------------------------|--------|-------------------------|-------------|-------------------------|


E|-------------|-------------------------|-------------|-------------------------|
B|-------------|-------------------------|-------------|-------------------------|
G|-7-----------|-7-------------7----7----|-7-----------|-7-------------7----7----|
D|-7-----------|-7-------------7----7----|-7-----------|-7-------------7----7----|
A|-5-----------|-5-------------5----5----|-5-----------|-5-------------5----5----|
E|-------------|-------------------------|-------------|-------------------------|


E|-------------|-------------------------|-------------|-------------------------|
B|-------------|-------------------------|-------------|-------------------------|
G|-7-----------|-7-------------7----7----|-7-----------|-7-------------7----7----|
D|-7-----------|-7-------------7----7----|-7-----------|-7-------------7----7----|
A|-5-----------|-5-------------5----5----|-5-----------|-5-------------5----5----|
E|-------------|-------------------------|-------------|-------------------------|


E|-------------|-------------------------|-------------|-------------------------|
B|-------------|-------------------------|-------------|-------------------------|
G|-7-----------|-7-------------7----7----|-7-----------|-7-------------7----7----|
D|-7-----------|-7-------------7----7----|-7-----------|-7-------------7----7----|
A|-5-----------|-5-------------5----5----|-5-----------|-5-------------5----5----|
E|-------------|-------------------------|-------------|-------------------------|


E|-------------|-----------------------------|---------------------|-------------------------|
B|-------------|-----------------------------|---------------------|-------------------------|
G|-7-----------|-7----5----7----5----7----5--|-5---7----5----5-----|-7-------------7----7----|
D|-7-----------|-7----5----7----5----7----5--|-5---7----5----5-----|-7-------------7----7----|
A|-5-----------|-5----3----5----3----5----3--|-3---5----3----3-----|-5-------------5----5----|
E|-------------|-----------------------------|---------------------|-------------------------|


E|-------------|-------------------------|-------------|-------------------------|
B|-------------|-------------------------|-------------|-------------------------|
G|-7-----------|-7-------------7----7----|-7-----------|-7-------------7----7----|
D|-7-----------|-7-------------7----7----|-7-----------|-7-------------7----7----|
A|-5-----------|-5-------------5----5----|-5-----------|-5-------------5----5----|
E|-------------|-------------------------|-------------|-------------------------|


E|-------------|-------------------------|-------------|-------------------------|
B|-------------|-------------------------|-------------|-------------------------|
G|-7-----------|-7-------------7----7----|-7-----------|-7-------------7----7----|
D|-7-----------|-7-------------7----7----|-7-----------|-7-------------7----7----|
A|-5-----------|-5-------------5----5----|-5-----------|-5-------------5----5----|
E|-------------|-------------------------|-------------|-------------------------|


E|-------------|-------------------------|-------------|-------------------------|
B|-------------|-------------------------|-------------|-------------------------|
G|-7-----------|-7-------------7----7----|-7-----------|-7-------------7----7----|
D|-7-----------|-7-------------7----7----|-7-----------|-7-------------7----7----|
A|-5-----------|-5-------------5----5----|-5-----------|-5-------------5----5----|
E|-------------|-------------------------|-------------|-------------------------|


E|-------------|-------------------------|-------------|-------------------------|
B|-------------|-------------------------|-------------|-------------------------|
G|-7-----------|-7-------------7----7----|-7-----------|-7-------------7----7----|
D|-7-----------|-7-------------7----7----|-7-----------|-7-------------7----7----|
A|-5-----------|-5-------------5----5----|-5-----------|-5-------------5----5----|
E|-------------|-------------------------|-------------|-------------------------|


E|-----------------|-------------------------|-----------------|-------------------------|
B|-----------------|-------------------------|-----------------|-------------------------|
G|-7---------------|-7-------------7----7----|-7---------------|-7-------------7----7----|
D|-7---------------|-7-------------7----7----|-7---------------|-7-------------7----7----|
A|-5---------------|-5-------------5----5----|-5---------------|-5-------------5----5----|
E|-----------------|-------------------------|-----------------|-------------------------|


E|-----------------|-------------------------|-------------|-------------------------|
B|-----------------|-------------------------|-------------|-------------------------|
G|-7---------------|-7-------------7----7----|-7-----------|-7-------------7----7----|
D|-7---------------|-7-------------7----7----|-7-----------|-7-------------7----7----|
A|-5---------------|-5-------------5----5----|-5-----------|-5-------------5----5----|
E|-----------------|-------------------------|-------------|-------------------------|


E|-------------|-------------------------|-------------|-------------------------|
B|-------------|-------------------------|-------------|-------------------------|
G|-7-----------|-7-------------7----7----|-7-----------|-7-------------7----7----|
D|-7-----------|-7-------------7----7----|-7-----------|-7-------------7----7----|
A|-5-----------|-5-------------5----5----|-5-----------|-5-------------5----5----|
E|-------------|-------------------------|-------------|-------------------------|


E|-------------|-------------------------|-------------|-------------------------|
B|-------------|-------------------------|-------------|-------------------------|
G|-7-----------|-7-------------7----7----|-7-----------|-7-------------7----7----|
D|-7-----------|-7-------------7----7----|-7-----------|-7-------------7----7----|
A|-5-----------|-5-------------5----5----|-5-----------|-5-------------5----5----|
E|-------------|-------------------------|-------------|-------------------------|


E|-------------|-------------------------|-------------|-------------------------|
B|-------------|-------------------------|-------------|-------------------------|
G|-7-----------|-7-------------7----7----|-7-----------|-7-------------7----7----|
D|-7-----------|-7-------------7----7----|-7-----------|-7-------------7----7----|
A|-5-----------|-5-------------5----5----|-5-----------|-5-------------5----5----|
E|-------------|-------------------------|-------------|-------------------------|


E|-------------|-------------------------|-------------|-------------------------|
B|-------------|-------------------------|-------------|-------------------------|
G|-7-----------|-7-------------7----7----|-7-----------|-7-------------7----7----|
D|-7-----------|-7-------------7----7----|-7-----------|-7-------------7----7----|
A|-5-----------|-5-------------5----5----|-5-----------|-5-------------5----5----|
E|-------------|-------------------------|-------------|-------------------------|


E|-------------|-------------------------|-------------|-------------------------|
B|-------------|-------------------------|-------------|-------------------------|
G|-7-----------|-7-------------7----7----|-7-----------|-7-------------7----7----|
D|-7-----------|-7-------------7----7----|-7-----------|-7-------------7----7----|
A|-5-----------|-5-------------5----5----|-5-----------|-5-------------5----5----|
E|-------------|-------------------------|-------------|-------------------------|


E|-------------|-------------------------|-------------|-------------------------|
B|-------------|-------------------------|-------------|-------------------------|
G|-7-----------|-7-------------7----7----|-7-----------|-7-------------7----7----|
D|-7-----------|-7-------------7----7----|-7-----------|-7-------------7----7----|
A|-5-----------|-5-------------5----5----|-5-----------|-5-------------5----5----|
E|-------------|-------------------------|-------------|-------------------------|


E|-------------|-------------------------|-------------|-------------------------|
B|-------------|-------------------------|-------------|-------------------------|
G|-7-----------|-7-------------7----7----|-7-----------|-7-------------7----7----|
D|-7-----------|-7-------------7----7----|-7-----------|-7-------------7----7----|
A|-5-----------|-5-------------5----5----|-5-----------|-5-------------5----5----|
E|-------------|-------------------------|-------------|-------------------------|


E|-------------|-------------------------|-------------|-------------------------|
B|-------------|-------------------------|-------------|-------------------------|
G|-7-----------|-7-------------7----7----|-7-----------|-7-------------7----7----|
D|-7-----------|-7-------------7----7----|-7-----------|-7-------------7----7----|
A|-5-----------|-5-------------5----5----|-5-----------|-5-------------5----5----|
E|-------------|-------------------------|-------------|-------------------------|


E|-------------|-------------------------|-------------|-------------------------|
B|-------------|-------------------------|-------------|-------------------------|
G|-7-----------|-7-------------7----7----|-7-----------|-7-------------7----7----|
D|-7-----------|-7-------------7----7----|-7-----------|-7-------------7----7----|
A|-5-----------|-5-------------5----5----|-5-----------|-5-------------5----5----|
E|-------------|-------------------------|-------------|-------------------------|


E|-------------|-------------------------|-------------|-------------------------|
B|-------------|-------------------------|-------------|-------------------------|
G|-7-----------|-7-------------7----7----|-7-----------|-7---------7----5----7---|
D|-7-----------|-7-------------7----7----|-7-----------|-7---------7----5----7---|
A|-5-----------|-5-------------5----5----|-5-----------|-5---------5----3----5---|
E|-------------|-------------------------|-------------|-------------------------|


E|-------------------------|-------------------------|-------------------------|-------------------------|
B|-------------------------|-------------------------|-------------------------|-------------------------|
G|-7---------7----5----7---|-7---------7----5----7---|-7---------7----5----7---|-7---------7----5----7---|
D|-7---------7----5----7---|-7---------7----5----7---|-7---------7----5----7---|-7---------7----5----7---|
A|-5---------5----3----5---|-5---------5----3----5---|-5---------5----3----5---|-5---------5----3----5---|
E|-------------------------|-------------------------|-------------------------|-------------------------|


E|-------------------------|-------------------------|-------------------------|--------|
B|-------------------------|-------------------------|-------------------------|--------|
G|-7---------7----5----7---|-7---------7----5----7---|-7---------7----5----7---|-7------|
D|-7---------7----5----7---|-7---------7----5----7---|-7---------7----5----7---|-7------|
A|-5---------5----3----5---|-5---------5----3----5---|-5---------5----3----5---|-5------|
E|-------------------------|-------------------------|-------------------------|--------|


E|-------------------------|-------------|-------------------------|-------------|
B|-------------------------|-------------|-------------------------|-------------|
G|-7-------------7----7----|-7-----------|-7-------------7----7----|-7-----------|
D|-7-------------7----7----|-7-----------|-7-------------7----7----|-7-----------|
A|-5-------------5----5----|-5-----------|-5-------------5----5----|-5-----------|
E|-------------------------|-------------|-------------------------|-------------|


E|-------------------------|-------------|-------------------------|-------------|
B|-------------------------|-------------|-------------------------|-------------|
G|-7-------------7----7----|-7-----------|-7-------------7----7----|-7-----------|
D|-7-------------7----7----|-7-----------|-7-------------7----7----|-7-----------|
A|-5-------------5----5----|-5-----------|-5-------------5----5----|-5-----------|
E|-------------------------|-------------|-------------------------|-------------|


E|-------------------------|-------------|-------------------------|-------------|
B|-------------------------|-------------|-------------------------|-------------|
G|-7-------------7----7----|-7-----------|-7-------------7----7----|-7-----------|
D|-7-------------7----7----|-7-----------|-7-------------7----7----|-7-----------|
A|-5-------------5----5----|-5-----------|-5-------------5----5----|-5-----------|
E|-------------------------|-------------|-------------------------|-------------|


E|-------------------------|-------------|-------------------------|-------------|
B|-------------------------|-------------|-------------------------|-------------|
G|-7-------------7----7----|-7-----------|-7-------------7----7----|-7-----------|
D|-7-------------7----7----|-7-----------|-7-------------7----7----|-7-----------|
A|-5-------------5----5----|-5-----------|-5-------------5----5----|-5-----------|
E|-------------------------|-------------|-------------------------|-------------|


E|-------------------------|-------------|-------------------------|-------------|
B|-------------------------|-------------|-------------------------|-------------|
G|-7-------------7----7----|-7-----------|-7-------------7----7----|-7-----------|
D|-7-------------7----7----|-7-----------|-7-------------7----7----|-7-----------|
A|-5-------------5----5----|-5-----------|-5-------------5----5----|-5-----------|
E|-------------------------|-------------|-------------------------|-------------|


E|-------------------------|-------------|-------------------------|-------------|
B|-------------------------|-------------|-------------------------|-------------|
G|-7-------------7----7----|-7-----------|-7-------------7----7----|-7-----------|
D|-7-------------7----7----|-7-----------|-7-------------7----7----|-7-----------|
A|-5-------------5----5----|-5-----------|-5-------------5----5----|-5-----------|
E|-------------------------|-------------|-------------------------|-------------|


E|-------------------------|-------------|-------------------------|-------------|
B|-------------------------|-------------|-------------------------|-------------|
G|-7-------------7----7----|-7-----------|-7-------------7----7----|-7-----------|
D|-7-------------7----7----|-7-----------|-7-------------7----7----|-7-----------|
A|-5-------------5----5----|-5-----------|-5-------------5----5----|-5-----------|
E|-------------------------|-------------|-------------------------|-------------|


E|-------------------------|-------------|-------------------------|-------------|
B|-------------------------|-------------|-------------------------|-------------|
G|-7-------------7----7----|-7-----------|-7-------------7----7----|-7-----------|
D|-7-------------7----7----|-7-----------|-7-------------7----7----|-7-----------|
A|-5-------------5----5----|-5-----------|-5-------------5----5----|-5-----------|
E|-------------------------|-------------|-------------------------|-------------|


E|-------------|
B|-------------|
G|-7-----------|
D|-7-----------|
A|-5-----------|
E|-------------|





Track 2: Synth

E|--------|--------|--------|----------------|--------|----------------|--------|----------------|
B|--------|--------|--------|----------------|--------|----------------|--------|----------------|
G|--------|--------|--------|----------------|--------|----------------|--------|----------------|
D|--------|--------|--------|----------------|--------|----------------|--------|----------------|
A|--------|--------|--------|--------7--3----|--------|--------7--3----|--------|--------7--3----|
E|--------|--------|--------|----------------|--------|----------------|--------|----------------|


E|--------|----------------|--------|------------------------|-------------------------------|
B|--------|----------------|--------|------------------------|-------------------------------|
G|--------|----------------|--------|------10-7--------------|------10-7---------------------|
D|--------|----------------|--------|------------7-----------|------------7------------------|
A|--------|--------7--3----|-3------|---------------8--7-----|---------------8---------------|
E|--------|----------------|--------|------------------------|-------------------10-8---8----|


E|------------------------|-------------------------------|------------------------|
B|------------------------|-------------------------------|------------------------|
G|------10-7--------------|------10-7---------------------|------10-7--------------|
D|------------7-----------|------------7------------------|------------7-----------|
A|---------------8--7-----|---------------8---------------|---------------8--7-----|
E|------------------------|-------------------10-8---8----|------------------------|


E|-------------------------------|------------------------|-------------------------------|
B|-------------------------------|------------------------|-------------------------------|
G|------10-7---------------------|------10-7--------------|------10-7---------------------|
D|------------7------------------|------------7-----------|------------7------------------|
A|---------------8---------------|---------------8--7-----|---------------8---------------|
E|-------------------10-8---8----|------------------------|-------------------10-8---8----|


E|------------------------|-------------------------------|------------------------|
B|------------------------|-------------------------------|------------------------|
G|------10-7--------------|------10-7---------------------|------10-7--------------|
D|------------7-----------|------------7------------------|------------7-----------|
A|---------------8--7-----|---------------8---------------|---------------8--7-----|
E|------------------------|-------------------10-8---8----|------------------------|


E|-------------------------------|------------------------|-------------------------------|
B|-------------------------------|------------------------|-------------------------------|
G|------10-7---------------------|------10-7--------------|------10-7---------------------|
D|------------7------------------|------------7-----------|------------7------------------|
A|---------------8---------------|---------------8--7-----|---------------8---------------|
E|-------------------10-8---8----|------------------------|-------------------10-8---8----|


E|------------------------|-------------------------------|--------|--------|------------------------|
B|------------------------|-------------------------------|--------|--------|------------------------|
G|------10-7--------------|------10-7---------------------|--------|--------|------10-7--------------|
D|------------7-----------|------------7------------------|--------|--------|------------7-----------|
A|---------------8--7-----|---------------8---------------|--------|--------|---------------8--7-----|
E|------------------------|-------------------10-8---8----|--------|--------|------------------------|


E|-------------------------------|------------------------|-------------------------------|
B|-------------------------------|------------------------|-------------------------------|
G|------10-7---------------------|------10-7--------------|------10-7---------------------|
D|------------7------------------|------------7-----------|------------7------------------|
A|---------------8---------------|---------------8--7-----|---------------8---------------|
E|-------------------10-8---8----|------------------------|-------------------10-8---8----|


E|------------------------|-------------------------------|------------------------|
B|------------------------|-------------------------------|------------------------|
G|------10-7--------------|------10-7---------------------|------10-7--------------|
D|------------7-----------|------------7------------------|------------7-----------|
A|---------------8--7-----|---------------8---------------|---------------8--7-----|
E|------------------------|-------------------10-8---8----|------------------------|


E|-------------------------------|------------------------|-------------------------------|
B|-------------------------------|------------------------|-------------------------------|
G|------10-7---------------------|------10-7--------------|------10-7---------------------|
D|------------7------------------|------------7-----------|------------7------------------|
A|---------------8---------------|---------------8--7-----|---------------8---------------|
E|-------------------10-8---8----|------------------------|-------------------10-8---8----|


E|------------------------|-------------------------------|------------------------|
B|------------------------|-------------------------------|------------------------|
G|------10-7--------------|------10-7---------------------|------10-7--------------|
D|------------7-----------|------------7------------------|------------7-----------|
A|---------------8--7-----|---------------8---------------|---------------8--7-----|
E|------------------------|-------------------10-8---8----|------------------------|


E|-------------------------------|------------------------|-------------------------------|
B|-------------------------------|------------------------|-------------------------------|
G|------10-7---------------------|------10-7--------------|------10-7---------------------|
D|------------7------------------|------------7-----------|------------7------------------|
A|---------------8---------------|---------------8--7-----|---------------8---------------|
E|-------------------10-8---8----|------------------------|-------------------10-8---8----|


E|--------|--------|--------|--------|--------|--------|--------|--------|------------------------|
B|--------|--------|--------|--------|--------|--------|--------|--------|------------------------|
G|--------|--------|--------|--------|--------|--------|--------|--------|------10-7--------------|
D|--------|--------|--------|--------|--------|--------|--------|--------|------------7-----------|
A|--------|--------|--------|--------|--------|--------|--------|--------|---------------8--7-----|
E|--------|--------|--------|--------|--------|--------|--------|--------|------------------------|


E|-------------------------------|------------------------|-------------------------------|
B|-------------------------------|------------------------|-------------------------------|
G|------10-7---------------------|------10-7--------------|------10-7---------------------|
D|------------7------------------|------------7-----------|------------7------------------|
A|---------------8---------------|---------------8--7-----|---------------8---------------|
E|-------------------10-8---8----|------------------------|-------------------10-8---8----|


E|------------------------|-------------------------------|------------------------|
B|------------------------|-------------------------------|------------------------|
G|------10-7--------------|------10-7---------------------|------10-7--------------|
D|------------7-----------|------------7------------------|------------7-----------|
A|---------------8--7-----|---------------8---------------|---------------8--7-----|
E|------------------------|-------------------10-8---8----|------------------------|


E|-------------------------------|----------------------------------|-------------------------------|
B|-------------------------------|----------------------------------|-------------------------------|
G|------10-7---------------------|------10-7------------------------|------10-7---------------------|
D|------------7------------------|------------7---------------------|------------7------------------|
A|---------------8---------------|---------------8--7----7------7---|---------------8---------------|
E|-------------------10-8---8----|----------------------------------|-------------------10-8---8----|


E|----------------------------------|-------------------------------|----------------------------------|
B|----------------------------------|-------------------------------|----------------------------------|
G|------10-7------------------------|------10-7---------------------|------10-7------------------------|
D|------------7---------------------|------------7------------------|------------7---------------------|
A|---------------8--7----7------7---|---------------8---------------|---------------8--7----7------7---|
E|----------------------------------|-------------------10-8---8----|----------------------------------|


E|-------------------------------|----------------------------------|-------------------------------|
B|-------------------------------|----------------------------------|-------------------------------|
G|------10-7---------------------|------10-7------------------------|------10-7---------------------|
D|------------7------------------|------------7---------------------|------------7------------------|
A|---------------8---------------|---------------8--7----7------7---|---------------8---------------|
E|-------------------10-8---8----|----------------------------------|-------------------10-8---8----|


E|----------------------------------|-------------------------------|----------------------------------|
B|----------------------------------|-------------------------------|----------------------------------|
G|------10-7------------------------|------10-7---------------------|------10-7------------------------|
D|------------7---------------------|------------7------------------|------------7---------------------|
A|---------------8--7----7------7---|---------------8---------------|---------------8--7----7------7---|
E|----------------------------------|-------------------10-8---8----|----------------------------------|


E|-------------------------------|----------------------------------|-------------------------------|
B|-------------------------------|----------------------------------|-------------------------------|
G|------10-7---------------------|------10-7------------------------|------10-7---------------------|
D|------------7------------------|------------7---------------------|------------7------------------|
A|---------------8---------------|---------------8--7----7------7---|---------------8---------------|
E|-------------------10-8---8----|----------------------------------|-------------------10-8---8----|


E|----------------------------------|-------------------------------|------------------------|
B|----------------------------------|-------------------------------|------------------------|
G|------10-7------------------------|------10-7---------------------|------10-7--------------|
D|------------7---------------------|------------7------------------|------------7-----------|
A|---------------8--7----7------7---|---------------8---------------|---------------8--7-----|
E|----------------------------------|-------------------10-8---8----|------------------------|


E|-------------------------------|------------------------|-------------------------------|
B|-------------------------------|------------------------|-------------------------------|
G|------10-7---------------------|------10-7--------------|------10-7---------------------|
D|------------7------------------|------------7-----------|------------7------------------|
A|---------------8---------------|---------------8--7-----|---------------8---------------|
E|-------------------10-8---8----|------------------------|-------------------10-8---8----|


E|------------------------|-------------------------------|------------------------|
B|------------------------|-------------------------------|------------------------|
G|------10-7--------------|------10-7---------------------|------10-7--------------|
D|------------7-----------|------------7------------------|------------7-----------|
A|---------------8--7-----|---------------8---------------|---------------8--7-----|
E|------------------------|-------------------10-8---8----|------------------------|


E|-------------------------------|------------------------|-------------------------------|
B|-------------------------------|------------------------|-------------------------------|
G|------10-7---------------------|------10-7--------------|------10-7---------------------|
D|------------7------------------|------------7-----------|------------7------------------|
A|---------------8---------------|---------------8--7-----|---------------8---------------|
E|-------------------10-8---8----|------------------------|-------------------10-8---8----|


E|------------------------|-------------------------------|------------------------|
B|------------------------|-------------------------------|------------------------|
G|------10-7--------------|------10-7---------------------|------10-7--------------|
D|------------7-----------|------------7------------------|------------7-----------|
A|---------------8--7-----|---------------8---------------|---------------8--7-----|
E|------------------------|-------------------10-8---8----|------------------------|


E|-------------------------------|------------------------|-------------------------------|
B|-------------------------------|------------------------|-------------------------------|
G|------10-7---------------------|------10-7--------------|------10-7---------------------|
D|------------7------------------|------------7-----------|------------7------------------|
A|---------------8---------------|---------------8--7-----|---------------8---------------|
E|-------------------10-8---8----|------------------------|-------------------10-8---8----|


E|--------|--------|--------|--------|--------|--------|--------|--------|--------|
B|--------|--------|--------|--------|--------|--------|--------|--------|--------|
G|--------|--------|--------|--------|--------|--------|--------|--------|--------|
D|--------|--------|--------|--------|--------|--------|--------|--------|--------|
A|--------|--------|--------|--------|--------|--------|--------|--------|--------|
E|--------|--------|--------|--------|--------|--------|--------|--------|--------|


E|------------------------|-------------------------------|------------------------|
B|------------------------|-------------------------------|------------------------|
G|------10-7--------------|------10-7---------------------|------10-7--------------|
D|------------7-----------|------------7------------------|------------7-----------|
A|---------------8--7-----|---------------8---------------|---------------8--7-----|
E|------------------------|-------------------10-8---8----|------------------------|


E|-------------------------------|------------------------|-------------------------------|
B|-------------------------------|------------------------|-------------------------------|
G|------10-7---------------------|------10-7--------------|------10-7---------------------|
D|------------7------------------|------------7-----------|------------7------------------|
A|---------------8---------------|---------------8--7-----|---------------8---------------|
E|-------------------10-8---8----|------------------------|-------------------10-8---8----|


E|------------------------|-------------------------------|----------------------------------|
B|------------------------|-------------------------------|----------------------------------|
G|------10-7--------------|------10-7---------------------|------10-7------------------------|
D|------------7-----------|------------7------------------|------------7---------------------|
A|---------------8--7-----|---------------8---------------|---------------8--7----7------7---|
E|------------------------|-------------------10-8---8----|----------------------------------|


E|-------------------------------|----------------------------------|-------------------------------|
B|-------------------------------|----------------------------------|-------------------------------|
G|------10-7---------------------|------10-7------------------------|------10-7---------------------|
D|------------7------------------|------------7---------------------|------------7------------------|
A|---------------8---------------|---------------8--7----7------7---|---------------8---------------|
E|-------------------10-8---8----|----------------------------------|-------------------10-8---8----|


E|----------------------------------|-------------------------------|----------------------------------|
B|----------------------------------|-------------------------------|----------------------------------|
G|------10-7------------------------|------10-7---------------------|------10-7------------------------|
D|------------7---------------------|------------7------------------|------------7---------------------|
A|---------------8--7----7------7---|---------------8---------------|---------------8--7----7------7---|
E|----------------------------------|-------------------10-8---8----|----------------------------------|


E|-------------------------------|------------------------|-------------------------------|
B|-------------------------------|------------------------|-------------------------------|
G|------10-7---------------------|------10-7--------------|------10-7---------------------|
D|------------7------------------|------------7-----------|------------7------------------|
A|---------------8---------------|---------------8--7-----|---------------8---------------|
E|-------------------10-8---8----|------------------------|-------------------10-8---8----|


E|------------------------|-------------------------------|------------------------|
B|------------------------|-------------------------------|------------------------|
G|------10-7--------------|------10-7---------------------|------10-7--------------|
D|------------7-----------|------------7------------------|------------7-----------|
A|---------------8--7-----|---------------8---------------|---------------8--7-----|
E|------------------------|-------------------10-8---8----|------------------------|


E|-------------------------------|------------------------|-------------------------------|
B|-------------------------------|------------------------|-------------------------------|
G|------10-7---------------------|------10-7--------------|------10-7---------------------|
D|------------7------------------|------------7-----------|------------7------------------|
A|---------------8---------------|---------------8--7-----|---------------8---------------|
E|-------------------10-8---8----|------------------------|-------------------10-8---8----|


E|------------------------|-------------------------------|------------------------|
B|------------------------|-------------------------------|------------------------|
G|------10-7--------------|------10-7---------------------|------10-7--------------|
D|------------7-----------|------------7------------------|------------7-----------|
A|---------------8--7-----|---------------8---------------|---------------8--7-----|
E|------------------------|-------------------10-8---8----|------------------------|


E|-------------------------------|------------------------|-------------------------------|
B|-------------------------------|------------------------|-------------------------------|
G|------10-7---------------------|------10-7--------------|------10-7---------------------|
D|------------7------------------|------------7-----------|------------7------------------|
A|---------------8---------------|---------------8--7-----|---------------8---------------|
E|-------------------10-8---8----|------------------------|-------------------10-8---8----|


E|------------------------|-------------------------------|-------------|
B|------------------------|-------------------------------|-------------|
G|------10-7--------------|------10-7---------------------|-------------|
D|------------7-----------|------------7------------------|-------------|
A|---------------8--7-----|---------------8---------------|-------------|
E|------------------------|-------------------10-8---8----|-------------|





Track 3: Fx

E|--------|--------|--------|--------|--------|--------|--------|--------|--------|
B|--------|--------|--------|--------|--------|--------|--------|--------|--------|
G|--------|--------|--------|--------|--------|--------|--------|--------|--------|
D|--------|--------|--------|--------|--------|--------|--------|--------|--------|
A|--------|--------|--------|--------|--------|--------|--------|--------|--------|
E|--------|--------|--------|--------|--------|--------|--------|--------|--------|


E|--------|--------|--------|--------|--------|--------|--------|--------|--------|
B|--------|--------|--------|--------|--------|--------|--------|--------|--------|
G|--------|--------|--------|--------|--------|--------|--------|--------|--------|
D|--------|--------|--------|--------|--------|--------|--------|--------|--------|
A|--------|--------|--------|--------|--------|--------|--------|--------|--------|
E|--------|--------|--------|--------|--------|--------|--------|--------|--------|


E|--------|--------|--------|--------|--------|--------|--------|--------|--------|
B|--------|--------|--------|--------|--------|--------|--------|--------|--------|
G|--------|--------|--------|--------|--------|--------|--------|--------|--------|
D|--------|--------|--------|--------|--------|--------|--------|--------|--------|
A|--------|--------|--------|--------|--------|--------|--------|--------|--------|
E|--------|--------|--------|--------|--------|--------|--------|--------|--------|


E|--------|--------|--------|--------|--------|--------|--------|--------|--------|
B|--------|--------|--------|--------|--------|--------|--------|--------|--------|
G|--------|--------|--------|--------|--------|--------|--------|--------|--------|
D|--------|--------|--------|--------|--------|--------|--------|--------|--------|
A|--------|--------|--------|--------|--------|--------|--------|--------|--------|
E|--------|--------|--------|--------|--------|--------|--------|--------|--------|


E|--------|--------|--------|--------|--------|--------|--------|--------|--------|
B|--------|--------|--------|--------|--------|--------|--------|--------|--------|
G|--------|--------|--------|--------|--------|--------|--------|--------|--------|
D|--------|--------|--------|--------|--------|--------|--------|--------|--------|
A|--------|--------|--------|--------|--------|--------|--------|--------|--------|
E|--------|--------|--------|--------|--------|--------|--------|--------|--------|


E|--------|--------|--------|--------|--------|--------|--------|-------------|--------|
B|--------|--------|--------|--------|--------|--------|--------|-------------|--------|
G|--------|--------|--------|--------|--------|--------|--------|------7------|--------|
D|--------|--------|--------|--------|--------|--------|--------|-------------|--------|
A|--------|--------|--------|--------|--------|--------|--------|------5------|--------|
E|--------|--------|--------|--------|--------|--------|--------|-------------|--------|


E|--------|--------|--------|--------|--------|--------|--------|--------|--------|
B|--------|--------|--------|--------|--------|--------|--------|--------|--------|
G|--------|--------|--------|--------|--------|--------|--------|--------|--------|
D|--------|--------|--------|--------|--------|--------|--------|--------|--------|
A|--------|--------|--------|--------|--------|--------|--------|--------|--------|
E|--------|--------|--------|--------|--------|--------|--------|--------|--------|


E|--------|--------|--------|--------|--------|--------|--------|--------|--------|
B|--------|--------|--------|--------|--------|--------|--------|--------|--------|
G|--------|--------|--------|--------|--------|--------|--------|--------|--------|
D|--------|--------|--------|--------|--------|--------|--------|--------|--------|
A|--------|--------|--------|--------|--------|--------|--------|--------|--------|
E|--------|--------|--------|--------|--------|--------|--------|--------|--------|


E|--------|--------|--------|--------|--------|--------|--------|--------|--------|
B|--------|--------|--------|--------|--------|--------|--------|--------|--------|
G|--------|--------|--------|--------|--------|--------|--------|--------|--------|
D|--------|--------|--------|--------|--------|--------|--------|--------|--------|
A|--------|--------|--------|--------|--------|--------|--------|--------|--------|
E|--------|--------|--------|--------|--------|--------|--------|--------|--------|


E|--------|--------|--------|--------|--------|--------|--------|--------|--------|
B|--------|--------|--------|--------|--------|--------|--------|--------|--------|
G|--------|--------|--------|--------|--------|--------|--------|--------|--------|
D|--------|--------|--------|--------|--------|--------|--------|--------|--------|
A|--------|--------|--------|--------|--------|--------|--------|--------|--------|
E|--------|--------|--------|--------|--------|--------|--------|--------|--------|


E|--------|--------|--------|-----------------|-----------------|-----------------|
B|--------|--------|--------|-----------------|-----------------|-----------------|
G|--------|--------|--------|------7----------|------7----------|------7----------|
D|--------|--------|--------|-----------------|-----------------|-----------------|
A|--------|--------|--------|------5----------|------5----------|------5----------|
E|--------|--------|--------|-----------------|-----------------|-----------------|


E|-----------------|-----------------|-----------------|-----------------|-----------------|
B|-----------------|-----------------|-----------------|-----------------|-----------------|
G|------7----------|------7----------|------7----------|------7----------|------7----------|
D|-----------------|-----------------|-----------------|-----------------|-----------------|
A|------5----------|------5----------|------5----------|------5----------|------5----------|
E|-----------------|-----------------|-----------------|-----------------|-----------------|


E|--------|--------|--------|--------|--------|--------|--------|--------|--------|
B|--------|--------|--------|--------|--------|--------|--------|--------|--------|
G|--------|--------|--------|--------|--------|--------|--------|--------|--------|
D|--------|--------|--------|--------|--------|--------|--------|--------|--------|
A|--------|--------|--------|--------|--------|--------|--------|--------|--------|
E|--------|--------|--------|--------|--------|--------|--------|--------|--------|


E|--------|--------|--------|--------|--------|--------|--------|--------|--------|
B|--------|--------|--------|--------|--------|--------|--------|--------|--------|
G|--------|--------|--------|--------|--------|--------|--------|--------|--------|
D|--------|--------|--------|--------|--------|--------|--------|--------|--------|
A|--------|--------|--------|--------|--------|--------|--------|--------|--------|
E|--------|--------|--------|--------|--------|--------|--------|--------|--------|


E|--------|--------|--------|--------|--------|--------|--------|--------|--------|
B|--------|--------|--------|--------|--------|--------|--------|--------|--------|
G|--------|--------|--------|--------|--------|--------|--------|--------|--------|
D|--------|--------|--------|--------|--------|--------|--------|--------|--------|
A|--------|--------|--------|--------|--------|--------|--------|--------|--------|
E|--------|--------|--------|--------|--------|--------|--------|--------|--------|


E|--------|--------|--------|--------|--------|--------|--------|
B|--------|--------|--------|--------|--------|--------|--------|
G|--------|--------|--------|--------|--------|--------|--------|
D|--------|--------|--------|--------|--------|--------|--------|
A|--------|--------|--------|--------|--------|--------|--------|
E|--------|--------|--------|--------|--------|--------|--------|





Track 4: Bass

G|--------|--------|---------------------|------------------------|---------------------|
D|--------|--------|---------------------|----------------2-------|---------------------|
A|--------|--------|-5----5----5----5----|-5----5----5-------3----|-5----5----5----5----|
E|--------|--------|---------------------|------------------------|---------------------|


G|------------------------|---------------------|------------------------|---------------------|
D|----------------2-------|---------------------|----------------2-------|---------------------|
A|-5----5----5-------3----|-5----5----5----5----|-5----5----5-------3----|-5----5----5----5----|
E|------------------------|---------------------|------------------------|---------------------|


G|------------------------|--------|-------------------------|-------------|-------------------------|
D|----------------2-------|--------|-------------------------|-------------|-------------------------|
A|-5----5----5-------3----|-3------|-5-------------5----5----|-5-----------|-5-------------5----5----|
E|------------------------|--------|-------------------------|-------------|-------------------------|


G|-------------|-------------------------|-------------|-------------------------|
D|-------------|-------------------------|-------------|-------------------------|
A|-5-----------|-5-------------5----5----|-5-----------|-5-------------5----5----|
E|-------------|-------------------------|-------------|-------------------------|


G|-------------|-------------------------|-------------|-------------------------|
D|-------------|-------------------------|-------------|-------------------------|
A|-5-----------|-5-------------5----5----|-5-----------|-5-------------5----5----|
E|-------------|-------------------------|-------------|-------------------------|


G|-------------|-------------------------|-------------|-------------------------|
D|-------------|-------------------------|-------------|-------------------------|
A|-5-----------|-5-------------5----5----|-5-----------|-5-------------5----5----|
E|-------------|-------------------------|-------------|-------------------------|


G|-------------|-----------------------------|---------------------|-------------------------|
D|-------------|-----------------------------|---------------------|-------------------------|
A|-5-----------|-5----3----5----3----5----3--|-3---5----3----3-----|-5-------------5----5----|
E|-------------|-----------------------------|---------------------|-------------------------|


G|-------------|-------------------------|-------------|-------------------------|
D|-------------|-------------------------|-------------|-------------------------|
A|-5-----------|-5-------------5----5----|-5-----------|-5-------------5----5----|
E|-------------|-------------------------|-------------|-------------------------|


G|-------------|-------------------------|-------------|-------------------------|
D|-------------|-------------------------|-------------|-------------------------|
A|-5-----------|-5-------------5----5----|-5-----------|-5-------------5----5----|
E|-------------|-------------------------|-------------|-------------------------|


G|-------------|-------------------------|-------------|-------------------------|
D|-------------|-------------------------|-------------|-------------------------|
A|-5-----------|-5-------------5----5----|-5-----------|-5-------------5----5----|
E|-------------|-------------------------|-------------|-------------------------|


G|-------------|-------------------------|-------------|--------|--------|--------|
D|-------------|-------------------------|-------------|--------|--------|--------|
A|-5-----------|-5-------------5----5----|-5-----------|--------|--------|--------|
E|-------------|-------------------------|-------------|--------|--------|--------|


G|--------|--------|--------|--------|--------|-------------------------|-------------|
D|--------|--------|--------|--------|--------|-------------------------|-------------|
A|--------|--------|--------|--------|--------|-5-------------5----5----|-5-----------|
E|--------|--------|--------|--------|--------|-------------------------|-------------|


G|-------------------------|-------------|-------------------------|-------------|
D|-------------------------|-------------|-------------------------|-------------|
A|-5-------------5----5----|-5-----------|-5-------------5----5----|-5-----------|
E|-------------------------|-------------|-------------------------|-------------|


G|-------------------------|-------------|--------|--------|--------|--------|--------|
D|-------------------------|-------------|--------|--------|--------|--------|--------|
A|-5-------------5----5----|-5-----------|--------|--------|--------|--------|--------|
E|-------------------------|-------------|--------|--------|--------|--------|--------|


G|--------|--------|--------|--------|--------|--------|--------|--------|--------|
D|--------|--------|--------|--------|--------|--------|--------|--------|--------|
A|--------|--------|--------|--------|--------|--------|--------|--------|--------|
E|--------|--------|--------|--------|--------|--------|--------|--------|--------|


G|--------|--------|-------------------------|-------------|-------------------------|
D|--------|--------|-------------------------|-------------|-------------------------|
A|--------|--------|-5-------------5----5----|-5-----------|-5-------------5----5----|
E|--------|--------|-------------------------|-------------|-------------------------|


G|-------------|-------------------------|-------------|-------------------------|
D|-------------|-------------------------|-------------|-------------------------|
A|-5-----------|-5-------------5----5----|-5-----------|-5-------------5----5----|
E|-------------|-------------------------|-------------|-------------------------|


G|-------------|-------------------------|-------------|-------------------------|
D|-------------|-------------------------|-------------|-------------------------|
A|-5-----------|-5-------------5----5----|-5-----------|-5-------------5----5----|
E|-------------|-------------------------|-------------|-------------------------|


G|-------------|-------------------------|-------------|-------------------------|
D|-------------|-------------------------|-------------|-------------------------|
A|-5-----------|-5-------------5----5----|-5-----------|-5-------------5----5----|
E|-------------|-------------------------|-------------|-------------------------|


G|-------------|-------7----5----7---|-------7----5----7---|-------7----5----7---|
D|-------------|---------------------|---------------------|---------------------|
A|-5-----------|-5-------------------|-5-------------------|-5-------------------|
E|-------------|---------------------|---------------------|---------------------|


G|-------7----5----7---|-------7----5----7---|-------7----5----7---|-------7----5----7---|
D|---------------------|---------------------|---------------------|---------------------|
A|-5-------------------|-5-------------------|-5-------------------|-5-------------------|
E|---------------------|---------------------|---------------------|---------------------|


G|-------7----5----7---|-7------|-------------------------|-------------|-------------------------|
D|---------------------|--------|-------------------------|-------------|-------------------------|
A|-5-------------------|--------|-5-------------5----5----|-5-----------|-5-------------5----5----|
E|---------------------|--------|-------------------------|-------------|-------------------------|


G|-------------|-------------------------|-------------|-------------------------|
D|-------------|-------------------------|-------------|-------------------------|
A|-5-----------|-5-------------5----5----|-5-----------|-5-------------5----5----|
E|-------------|-------------------------|-------------|-------------------------|


G|-------------|--------|--------|--------|--------|--------|--------|--------|--------|
D|-------------|--------|--------|--------|--------|--------|--------|--------|--------|
A|-5-----------|--------|--------|--------|--------|--------|--------|--------|--------|
E|-------------|--------|--------|--------|--------|--------|--------|--------|--------|


G|-------------------------|-------------|-------------------------|-------------|
D|-------------------------|-------------|-------------------------|-------------|
A|-5-------------5----5----|-5-----------|-5-------------5----5----|-5-----------|
E|-------------------------|-------------|-------------------------|-------------|


G|-------------------------|-------------|-------------------------|-------------|
D|-------------------------|-------------|-------------------------|-------------|
A|-5-------------5----5----|-5-----------|-5-------------5----5----|-5-----------|
E|-------------------------|-------------|-------------------------|-------------|


G|-------------------------|-------------|-------------------------|-------------|
D|-------------------------|-------------|-------------------------|-------------|
A|-5-------------5----5----|-5-----------|-5-------------5----5----|-5-----------|
E|-------------------------|-------------|-------------------------|-------------|


G|-------------------------|-------------|-------------------------|-------------|
D|-------------------------|-------------|-------------------------|-------------|
A|-5-------------5----5----|-5-----------|-5-------------5----5----|-5-----------|
E|-------------------------|-------------|-------------------------|-------------|


G|-------------|
D|-------------|
A|-5-----------|
E|-------------|





Track 5: Synth Bass

G|--------|--------|--------|--------|--------|--------|--------|--------|--------|
D|--------|--------|--------|--------|--------|--------|--------|--------|--------|
A|--------|--------|--------|--------|--------|--------|--------|--------|--------|
E|--------|--------|--------|--------|--------|--------|--------|--------|--------|


G|--------|--------|--------|--------|--------|--------|--------|--------|--------|
D|--------|--------|--------|--------|--------|--------|--------|--------|--------|
A|--------|--------|--------|--------|--------|--------|--------|--------|--------|
E|--------|--------|--------|--------|--------|--------|--------|--------|--------|


G|--------|--------|--------|--------|--------|--------|--------|--------|--------|
D|--------|--------|--------|--------|--------|--------|--------|--------|--------|
A|--------|--------|--------|--------|--------|--------|--------|--------|--------|
E|--------|--------|--------|--------|--------|--------|--------|--------|--------|


G|--------|--------|--------|--------|--------|--------|--------|--------|--------|
D|--------|--------|--------|--------|--------|--------|--------|--------|--------|
A|--------|--------|--------|--------|--------|--------|--------|--------|--------|
E|--------|--------|--------|--------|--------|--------|--------|--------|--------|


G|-------7--7--5-----------|--------|-------7--7--5-----------|--------|-------7--7--5-----------|
D|-----------------7-------|--------|-----------------7-------|--------|-----------------7-------|
A|---------------------8---|--------|---------------------8---|--------|---------------------8---|
E|-------------------------|--------|-------------------------|--------|-------------------------|


G|--------|-------7--7--5-----------|--------|-------7--7--5-----------|-7-------------7----7----|
D|--------|-----------------7-------|--------|-----------------7-------|-------------------------|
A|--------|---------------------8---|--------|---------------------8---|-------------------------|
E|--------|-------------------------|--------|-------------------------|-------------------------|


G|-7---------7--7--5-----------|-7-------------7----7----|-7---------7--7--5-----------|
D|---------------------7-------|-------------------------|---------------------7-------|
A|-------------------------8---|-------------------------|-------------------------8---|
E|-----------------------------|-------------------------|-----------------------------|


G|-7-------------7----7----|-7---------7--7--5-----------|-7-------------7----7----|
D|-------------------------|---------------------7-------|-------------------------|
A|-------------------------|-------------------------8---|-------------------------|
E|-------------------------|-----------------------------|-------------------------|


G|--------|--------|--------|--------|--------|--------|--------|--------|--------|
D|--------|--------|--------|--------|--------|--------|--------|--------|--------|
A|--------|--------|--------|--------|--------|--------|--------|--------|--------|
E|--------|--------|--------|--------|--------|--------|--------|--------|--------|


G|-7-------------7----7----|-7-----------|-7-------------7----7----|-7-----------|
D|-------------------------|-------------|-------------------------|-------------|
A|-------------------------|-------------|-------------------------|-------------|
E|-------------------------|-------------|-------------------------|-------------|


G|-7-------------7----7----|-7-----------|-7-------------7----7----|-7-----------|
D|-------------------------|-------------|-------------------------|-------------|
A|-------------------------|-------------|-------------------------|-------------|
E|-------------------------|-------------|-------------------------|-------------|


G|-7-------------7----7----|-7-----------|-7-------------7----7----|-7-----------|
D|-------------------------|-------------|-------------------------|-------------|
A|-------------------------|-------------|-------------------------|-------------|
E|-------------------------|-------------|-------------------------|-------------|


G|-7-------------7----7----|-7-----------|-7-------------7----7----|-7-----------|
D|-------------------------|-------------|-------------------------|-------------|
A|-------------------------|-------------|-------------------------|-------------|
E|-------------------------|-------------|-------------------------|-------------|


G|--------|--------|--------|--------|--------|--------|--------|-------7--7--5-----------|
D|--------|--------|--------|--------|--------|--------|--------|-----------------7-------|
A|--------|--------|--------|--------|--------|--------|--------|---------------------8---|
E|--------|--------|--------|--------|--------|--------|--------|-------------------------|


G|--------|-------7--7--5-----------|--------|-------7--7--5-----------|--------|-------7--7--5-----------|
D|--------|-----------------7-------|--------|-----------------7-------|--------|-----------------7-------|
A|--------|---------------------8---|--------|---------------------8---|--------|---------------------8---|
E|--------|-------------------------|--------|-------------------------|--------|-------------------------|


G|--------|-------7--7--5-----------|--------|--------|--------|--------|--------|
D|--------|-----------------7-------|--------|--------|--------|--------|--------|
A|--------|---------------------8---|--------|--------|--------|--------|--------|
E|--------|-------------------------|--------|--------|--------|--------|--------|


G|--------|--------|--------|--------|--------|--------|--------|--------|--------|
D|--------|--------|--------|--------|--------|--------|--------|--------|--------|
A|--------|--------|--------|--------|--------|--------|--------|--------|--------|
E|--------|--------|--------|--------|--------|--------|--------|--------|--------|


G|--------|--------|--------|-7-------------7----7----|-7-----------|-7-------------7----7----|
D|--------|--------|--------|-------------------------|-------------|-------------------------|
A|--------|--------|--------|-------------------------|-------------|-------------------------|
E|--------|--------|--------|-------------------------|-------------|-------------------------|


G|-7-----------|-7-------------7----7----|-7-----------|-7-------------7----7----|
D|-------------|-------------------------|-------------|-------------------------|
A|-------------|-------------------------|-------------|-------------------------|
E|-------------|-------------------------|-------------|-------------------------|


G|-7-----------|--------|--------|--------|--------|--------|--------|--------|-------7--7--5-----------|
D|-------------|--------|--------|--------|--------|--------|--------|--------|-----------------7-------|
A|-------------|--------|--------|--------|--------|--------|--------|--------|---------------------8---|
E|-------------|--------|--------|--------|--------|--------|--------|--------|-------------------------|


G|--------|-------7--7--5-----------|--------|-------7--7--5-----------|--------|-------7--7--5-----------|
D|--------|-----------------7-------|--------|-----------------7-------|--------|-----------------7-------|
A|--------|---------------------8---|--------|---------------------8---|--------|---------------------8---|
E|--------|-------------------------|--------|-------------------------|--------|-------------------------|


G|--------|-------7--7--5-----------|-------------|
D|--------|-----------------7-------|-------------|
A|--------|---------------------8---|-------------|
E|--------|-------------------------|-------------|