Menu:

 

Search:

 

crowded house - dont dream its over:

 



Title: Don't Dream It's Over
Artist: 
Album: Crowded House
Author: Neil Finn


Track 1: Electric Guitar 1

E|------6---------------6----------|------6--------------------|------6---------------6----------|
B|-6----6---------------6----------|------6---------------9----|-6----6---------------6----------|
G|-8-----------8---8----8------8---|-6----6------6---8----6----|-8-----------8---8----8------8---|
D|-8-----------8---8-----------8---|-8-----------8---8----8----|-8-----------8---8-----------8---|
A|-6-----------6---6-----------6---|-6-----------6---6----6----|-6-----------6---6-----------6---|
E|---------------------------------|---------------------------|---------------------------------|


E|------6--------------------|------6---------------6----------|------3---------------3----------|
B|------6---------------9----|-6----6---------------6----------|------4---------------4----------|
G|-6----6------6---8----6----|-8-----------8---8----8------8---|-5----5------5---5----5------5---|
D|-8-----------8---8----8----|-8-----------8---8-----------8---|-5-----------5---5-----------5---|
A|-6-----------6---6----6----|-6-----------6---6-----------6---|-3-----------3---3-----------3---|
E|---------------------------|---------------------------------|---------------------------------|


E|------4---------------4----------|-----3--3----------------------------|------6---------------6----------|
B|------4---------------4----------|-----3--3----------------------------|-6----6---------------6----------|
G|------5---------------5------5---|-----4--4----------------5---5---5---|-8-----------8---8----8------8---|
D|-6-----------6---6-----------6---|-5-------------5---5--5--5---5---5---|-8-----------8---8-----------8---|
A|-6-----------6---6-----------6---|-5-------------5---5--5--5---5---5---|-6-----------6---6-----------6---|
E|-4-----------4---4-----------4---|-3-------------3---3--3--3---3---3---|---------------------------------|


E|------3---------------3----------|------4---------------4----------|------3--------------3--3--3-------|
B|------4---------------4----------|------4---------------4----------|------3--------------3--3--3-------|
G|-5----5------5---5----5------5---|------5---------------5------5---|------4--------------4--4--4-------|
D|-5-----------5---5-----------5---|-6-----------6---6-----------6---|-5-----------5---5-------------5---|
A|-3-----------3---3-----------3---|-6-----------6---6-----------6---|-5-----------5---5-------------5---|
E|---------------------------------|-4-----------4---4-----------4---|-3-----------3---3-------------3---|


E|-----4--4--------------6--6----------|-----6--6--------------3--3----------|-----4--4--------------6--6----------|
B|-----4--4--------------6--6----------|-----8--8--------------4--4----------|-----4--4--------------6--6----------|
G|-----5--5--------------7--7----------|-----8--8----------5---5--5----------|-----5--5--------------7--7----------|
D|-6-------------6---8-------------8---|-8-------------8---5-------------5---|-6-------------6---8-------------8---|
A|-6-------------6---8-------------8---|-6-------------6---3-------------3---|-6-------------6---8-------------8---|
E|-4-------------4---6-------------6---|-------------------------------------|-4-------------4---6-------------6---|


E|-----6--6--------------3--3----------|------4--------------------------|-----6--6--6-------------------------|
B|-----8--8--------------4--4----------|------4--------------------------|-----6--6--8------------4--4---------|
G|-----8--8----------5---5--5----------|------5----------7----7------7---|-8---8--8--8---8---5----5--5--5--5---|
D|-8-------------8---5-------------5---|-6-----------6---8----8------8---|-8-------------8---5----5--5--5--5---|
A|-6-------------6---3-------------3---|-6-----------6---8----8------8---|-6-------------6---3----------3--3---|
E|-------------------------------------|-4-----------4---6----6------6---|-------------------------------------|


E|------4--------------4--4--4-------|------4----------------------------|------6---------------6----------|
B|------4--------------4--4--4-------|------4----------------------------|-6----6---------------6----------|
G|------5--------------5--5--5-------|------5----------------7---7---7---|-8-----------8---8----8------8---|
D|-6-----------6---6-------------6---|-6-----------6---6--6--8---8---8---|-8-----------8---8-----------8---|
A|-6-----------6---6-------------6---|-6-----------6---6--6--8---8---8---|-6-----------6---6-----------6---|
E|-4-----------4---4-------------4---|-4-----------4---4--4--6---6---6---|---------------------------------|


E|------3---------------3----------|------4---------------4----------|-----3--3----------------------------|
B|------4---------------4----------|------4---------------4----------|-----3--3----------------------------|
G|-5----5------5---5----5------5---|------5---------------5------5---|-----4--4----------------5---5---5---|
D|-5-----------5---5-----------5---|-6-----------6---6-----------6---|-5-------------5---5--5--5---5---5---|
A|-3-----------3---3-----------3---|-6-----------6---6-----------6---|-5-------------5---5--5--5---5---5---|
E|---------------------------------|-4-----------4---4-----------4---|-3-------------3---3--3--3---3---3---|


E|------6---------------6----------|------3---------------3----------|------4---------------4----------|
B|-6----6---------------6----------|------4---------------4----------|------4---------------4----------|
G|-8-----------8---8----8------8---|-5----5------5---5----5------5---|------5---------------5------5---|
D|-8-----------8---8-----------8---|-5-----------5---5-----------5---|-6-----------6---6-----------6---|
A|-6-----------6---6-----------6---|-3-----------3---3-----------3---|-6-----------6---6-----------6---|
E|---------------------------------|---------------------------------|-4-----------4---4-----------4---|


E|------3--------------3--3--3-------|-----4--4--------------6--6----------|-----6--6--------------3--3----------|
B|------3--------------3--3--3-------|-----4--4--------------6--6----------|-----8--8--------------4--4----------|
G|------4--------------4--4--4-------|-----5--5--------------7--7----------|-----8--8----------5---5--5----------|
D|-5-----------5---5-------------5---|-6-------------6---8-------------8---|-8-------------8---5-------------5---|
A|-5-----------5---5-------------5---|-6-------------6---8-------------8---|-6-------------6---3-------------3---|
E|-3-----------3---3-------------3---|-4-------------4---6-------------6---|-------------------------------------|


E|-----4--4--------------6--6----------|-----6--6--------------3--3----------|------4--------------------------|
B|-----4--4--------------6--6----------|-----8--8--------------4--4----------|------4--------------------------|
G|-----5--5--------------7--7----------|-----8--8----------5---5--5----------|------5----------7----7------7---|
D|-6-------------6---8-------------8---|-8-------------8---5-------------5---|-6-----------6---8----8------8---|
A|-6-------------6---8-------------8---|-6-------------6---3-------------3---|-6-----------6---8----8------8---|
E|-4-------------4---6-------------6---|-------------------------------------|-4-----------4---6----6------6---|


E|-----6--6--6-------------------------|------4--------------4--4--4-------|-----4--4---------------6----------|
B|-----6--6--8------------4--4---------|------4--------------4--4--4-------|-----4--4----------6----6----------|
G|-8---8--8--8---8---5----5--5--5--5---|------5--------------5--5--5-------|-----5--5----------8----8------8---|
D|-8-------------8---5----5--5--5--5---|-6-----------6---6-------------6---|-6-------------6---8-----------8---|
A|-6-------------6---3----------3--3---|-6-----------6---6-------------6---|-6-------------6---6-----------6---|
E|-------------------------------------|-4-----------4---4-------------4---|-4-------------4-------------------|


E|------6--------------3--3--3----|-3----3--3------------4--4----|-4----4--4------------3--3----|
B|------6--------------4--4--4----|-4----4--4------------4--4----|-4----4--4------------3--3----|
G|-8----8------8---5---5--5--5----|-5----5--5---5--------5--5----|-5----5--5------------4--4----|
D|-8-----------8---5--------------|-------------5---6------------|-------------6---5------------|
A|-6-----------6---3--------------|-----------------6------------|-------------6---5------------|
E|--------------------------------|-----------------4------------|-------------4---3------------|


E|-3----3--------------6--6--6----|-6---6--6--6-----------3--3--3----|-3---3--3--3-----------4--4--4----|
B|-3----3--------------6--6--6----|-6---6--6--6-----------4--4--4----|-4---4--4--4-----------4--4--4----|
G|-4----4----------8---8--8--8----|-8---8--8--8-------5---5--5--5----|-5---5--5--5-----------5--5--5----|
D|---------5---5---8--------------|-------------------5--------------|-------------------6--------------|
A|---------5---5---6--------------|-------------------3--------------|-------------------6--------------|
E|---------3---3------------------|----------------------------------|-------------------4--------------|


E|-4----4--4------------3--3-------|------3--3-------------|--------|--------|--------|
B|-4----4--4------------3--3-------|------3--3-------------|--------|--------|--------|
G|-5----5--5------------4--4-------|------4--4-------------|--------|--------|--------|
D|-----------------5-----------5---|-5-----------5---------|--------|--------|--------|
A|-----------------5-----------5---|-5-----------5---------|--------|--------|--------|
E|-----------------3-----------3---|-3-----------3---------|--------|--------|--------|


E|-------------|------------6----------|------6---------------3----------|------3---------------4----------|
B|-------------|-------6----6----------|------6---------------4----------|------4---------------4----------|
G|-------------|-------8-----------8---|-8----8------8---5----5------5---|-5----5------5--------5----------|
D|-------------|-------8-----------8---|-8-----------8---5-----------5---|-5-----------5---6-----------6---|
A|-------------|-------6-----------6---|-6-----------6---3-----------3---|-3-----------3---6-----------6---|
E|-------------|-----------------------|---------------------------------|-----------------4-----------4---|


E|------4--------------3--3----------|------------------------6----------|------6---------------3----------|
B|------4--------------3--3----------|-------------------6----6----------|------6---------------4----------|
G|------5------5-------4--4----------|-------5---5---5---8-----------8---|-8----8------8---5----5------5---|
D|-6-----------6---5-------------5---|-5--5--5---5---5---8-----------8---|-8-----------8---5-----------5---|
A|-6-----------6---5-------------5---|-5--5--5---5---5---6-----------6---|-6-----------6---3-----------3---|
E|-4-----------4---3-------------3---|-3--3--3---3---3-------------------|---------------------------------|


E|------3---------------4----------|------4---------------3----------|-----3--3--3-----------4--4----------|
B|------4---------------4----------|------4---------------3----------|-----3--3--3-----------4--4----------|
G|-5----5------5--------5----------|------5------5--------4----------|-----4--4--4-----------5--5----------|
D|-5-----------5---6-----------6---|-6-----------6---5-----------5---|-5-------------5---6-------------6---|
A|-3-----------3---6-----------6---|-6-----------6---5-----------5---|-5-------------5---6-------------6---|
E|-----------------4-----------4---|-4-----------4---3-----------3---|-3-------------3---4-------------4---|


E|-----6--6--------------6--6----------|-----3--3--------------4--4----------|-----6--6--------------6--6----------|
B|-----6--6--------------6--6----------|-----4--4--------------4--4----------|-----6--6--------------6--6----------|
G|-----7--7--------------8--8----------|-5---5--5--------------5--5----------|-----7--7--------------8--8----------|
D|-8-------------8---8-------------8---|-5-------------5---6-------------6---|-8-------------8---8-------------8---|
A|-8-------------8---6-------------6---|-3-------------3---6-------------6---|-8-------------8---6-------------6---|
E|-6-------------6---------------------|-------------------4-------------4---|-6-------------6---------------------|


E|-----3--3---------------4----------|---------------------6--6--6-------|------------------------4----------|
B|-----4--4---------------4----------|---------------------6--6--8-------|------4--4--------------4----------|
G|-5---5--5---------------5----------|-7----7------7---8---8--8--8---8---|-5----5--5--5--5--------5----------|
D|-5-------------5---6-----------6---|-8----8------8---8-------------8---|-5----5--5--5--5---6-----------6---|
A|-3-------------3---6-----------6---|-8----8------8---6-------------6---|-3----------3--3---6-----------6---|
E|-------------------4-----------4---|-6----6------6---------------------|-------------------4-----------4---|


E|-----4--4--4-----------4--4----------|-----4--4--------------6--6----------|-----6--6--------------3--3----------|
B|-----4--4--4-----------4--4----------|-----4--4--------------6--6----------|-----6--6--------------4--4----------|
G|-----5--5--5-----------5--5----------|-----5--5--------------7--7----------|-----8--8----------5---5--5----------|
D|-6-------------6---6-------------6---|-6-------------6---8-------------8---|-8-------------8---5-------------5---|
A|-6-------------6---6-------------6---|-6-------------6---8-------------8---|-6-------------6---3-------------3---|
E|-4-------------4---4-------------4---|-4-------------4---6-------------6---|-------------------------------------|


E|-----4--4--------------6--6----------|-----6--6--------------3--3----------|-----4--4--------------6--6----------|
B|-----4--4--------------6--6----------|-----6--6--------------4--4----------|-----4--4--------------6--6----------|
G|-----5--5--------------7--7----------|-----8--8----------5---5--5----------|-----5--5--------------7--7----------|
D|-6-------------6---8-------------8---|-8-------------8---5-------------5---|-6-------------6---8-------------8---|
A|-6-------------6---8-------------8---|-6-------------6---3-------------3---|-6-------------6---8-------------8---|
E|-4-------------4---6-------------6---|-------------------------------------|-4-------------4---6-------------6---|


E|-----6--6--------------3--3----------|-----4--4--------------6--6----------|-----6--6--------------3--3----------|
B|-----6--6--------------4--4----------|-----4--4--------------6--6----------|-----6--6--------------4--4----------|
G|-----8--8----------5---5--5----------|-----5--5--------------7--7----------|-----8--8----------5---5--5----------|
D|-8-------------8---5-------------5---|-6-------------6---8-------------8---|-8-------------8---5-------------5---|
A|-6-------------6---3-------------3---|-6-------------6---8-------------8---|-6-------------6---3-------------3---|
E|-------------------------------------|-4-------------4---6-------------6---|-------------------------------------|


E|-----4--4--------------6--6----------|-----6--6--------------3--3----------|-----4--4--------------6--6----------|
B|-----4--4--------------6--6----------|-----6--6--------------4--4----------|-----4--4--------------6--6----------|
G|-----5--5--------------7--7----------|-----8--8----------5---5--5----------|-----5--5--------------7--7----------|
D|-6-------------6---8-------------8---|-8-------------8---5-------------5---|-6-------------6---8-------------8---|
A|-6-------------6---8-------------8---|-6-------------6---3-------------3---|-6-------------6---8-------------8---|
E|-4-------------4---6-------------6---|-------------------------------------|-4-------------4---6-------------6---|


E|-----6--6--------------3--3----------|
B|-----6--6--------------4--4----------|
G|-----8--8----------5---5--5----------|
D|-8-------------8---5-------------5---|
A|-6-------------6---3-------------3---|
E|-------------------------------------|





Track 2: Electric Guitar 2

E|--------|--------|--------|--------|-6------|--------|--------|----------------6---|
B|--------|--------|--------|--------|-6------|--------|--------|----------------6---|
G|--------|--------|--------|--------|-8------|--------|--------|-5--------------8---|
D|--------|--------|--------|--------|--------|--------|--------|----------------8---|
A|--------|--------|--------|--------|--------|--------|--------|--------------------|
E|--------|--------|--------|--------|--------|--------|--------|--------------------|


E|-6------|--------|--------|--------|--------|--------|--------|--------|--------|
B|-6------|--------|--------|--------|--------|--------|--------|--------|--------|
G|-8------|--------|--------|--------|--------|--------|--------|--------|--------|
D|-8------|--------|--------|--------|--------|--------|--------|--------|--------|
A|--------|--------|--------|--------|--------|--------|--------|--------|--------|
E|--------|--------|--------|--------|--------|--------|--------|--------|--------|


E|--------|--------|----------------6---|-6------|--------|--------|----------------6---|
B|--------|--------|----------------6---|-6------|--------|--------|----------------6---|
G|--------|--------|----------------8---|-8------|--------|--------|-5--------------8---|
D|--------|--------|----------------8---|--------|--------|--------|----------------8---|
A|--------|--------|--------------------|--------|--------|--------|--------------------|
E|--------|--------|--------------------|--------|--------|--------|--------------------|


E|-6------|--------|--------|--------|--------|--------|--------|--------|--------|
B|-6------|--------|--------|--------|--------|--------|--------|--------|--------|
G|-8------|--------|--------|--------|--------|--------|--------|--------|--------|
D|-8------|--------|--------|--------|--------|--------|--------|--------|--------|
A|--------|--------|--------|--------|--------|--------|--------|--------|--------|
E|--------|--------|--------|--------|--------|--------|--------|--------|--------|


E|--------|--------|--------|--------|--------|--------|--------|--------|--------|
B|--------|--------|--------|--------|--------|--------|--------|--------|--------|
G|--------|--------|--------|--------|--------|--------|--------|--------|--------|
D|--------|--------|--------|--------|--------|--------|--------|--------|--------|
A|--------|--------|--------|--------|--------|--------|--------|--------|--------|
E|--------|--------|--------|--------|--------|--------|--------|--------|--------|


E|--------|--------|--------|--------|--------|--------|--------|--------|--------|
B|--------|--------|--------|--------|--------|--------|--------|--------|--------|
G|--------|--------|--------|--------|--------|--------|--------|--------|--------|
D|--------|--------|--------|--------|--------|--------|--------|--------|--------|
A|--------|--------|--------|--------|--------|--------|--------|--------|--------|
E|--------|--------|--------|--------|--------|--------|--------|--------|--------|


E|--------|--------|--------|--------|--------|--------|--------|--------|--------|
B|--------|--------|--------|--------|--------|--------|--------|--------|--------|
G|--------|--------|--------|--------|--------|--------|--------|--------|--------|
D|--------|--------|--------|--------|--------|--------|--------|--------|--------|
A|--------|--------|--------|--------|--------|--------|--------|--------|--------|
E|--------|--------|--------|--------|--------|--------|--------|--------|--------|


E|--------|--------|--------|--------|--------|--------|--------|--------|--------|
B|--------|--------|--------|--------|--------|--------|--------|--------|--------|
G|--------|--------|--------|--------|--------|--------|--------|--------|--------|
D|--------|--------|--------|--------|--------|--------|--------|--------|--------|
A|--------|--------|--------|--------|--------|--------|--------|--------|--------|
E|--------|--------|--------|--------|--------|--------|--------|--------|--------|


E|--------|--------|--------|--------|--------|--------|--------|
B|--------|--------|--------|--------|--------|--------|--------|
G|--------|--------|--------|--------|--------|--------|--------|
D|--------|--------|--------|--------|--------|--------|--------|
A|--------|--------|--------|--------|--------|--------|--------|
E|--------|--------|--------|--------|--------|--------|--------|





Track 3: Electric Guitar 3

E|--------|--------|--------|--------|--------|--------|--------|--------|--------|
B|--------|--------|--------|--------|--------|--------|--------|--------|--------|
G|--------|--------|--------|--------|--------|--------|--------|--------|--------|
D|--------|--------|--------|--------|--------|--------|--------|--------|--------|
A|--------|--------|--------|--------|--------|--------|--------|--------|--------|
E|--------|--------|--------|--------|--------|--------|--------|--------|--------|


E|--------|--------|--------|--------|--------|--------|--------|--------|--------|
B|--------|--------|--------|--------|--------|--------|--------|--------|--------|
G|--------|--------|--------|--------|--------|--------|--------|--------|--------|
D|--------|--------|--------|--------|--------|--------|--------|--------|--------|
A|--------|--------|--------|--------|--------|--------|--------|--------|--------|
E|--------|--------|--------|--------|--------|--------|--------|--------|--------|


E|--------|--------|--------|--------|--------|--------|--------|--------|--------|
B|--------|--------|--------|--------|--------|--------|--------|--------|--------|
G|--------|--------|--------|--------|--------|--------|--------|--------|--------|
D|--------|--------|--------|--------|--------|--------|--------|--------|--------|
A|--------|--------|--------|--------|--------|--------|--------|--------|--------|
E|--------|--------|--------|--------|--------|--------|--------|--------|--------|


E|--------|--------|--------|--------|--------|--------|--------|--------|--------|
B|--------|--------|--------|--------|--------|--------|--------|--------|--------|
G|--------|--------|--------|--------|--------|--------|--------|--------|--------|
D|--------|--------|--------|--------|--------|--------|--------|--------|--------|
A|--------|--------|--------|--------|--------|--------|--------|--------|--------|
E|--------|--------|--------|--------|--------|--------|--------|--------|--------|


E|--------|--------|--------|--------|--------|--------|--------|-----------------------------|
B|--------|--------|--------|--------|--------|--------|--------|----------------11-11-9------|
G|--------|--------|--------|--------|--------|--------|--------|-------------8--10-10-8---8--|
D|--------|--------|--------|--------|--------|--------|--------|-------8--10-10-----------10-|
A|--------|--------|--------|--------|--------|--------|--------|-------10-11-----------------|
E|--------|--------|--------|--------|--------|--------|--------|-----------------------------|


E|---------------------------------------|---------------------------------------------|
B|---------8---8------------11-11-9------|--------------------------------11-11-9------|
G|-----8---8---8---------8--10-10-8---8--|-----10-12-10-8--------------8--10-10-8---8--|
D|-8---8-----------8--10-10-----------10-|-8---------------10----8--10-10-----------10-|
A|-10--------------10-11-----------------|--------------------10-10-11-----------------|
E|---------------------------------------|---------------------------------------------|


E|-------------------------------------|-----------------------------------------|
B|---------8---8-----------------------|-------9---9-------------------9---9--11-|
G|-----8---8---8--------------------8--|-8--10-------------------8--10-----------|
D|-8---8------------------9--9---------|---------------8--9--8-------------------|
A|-10------------------11-------11-----|-----------------------------------------|
E|-----------------9-------------------|-----------------------------------------|


E|-9---------------6-----|-------------|-------------|-------------|----------6---6-----|
B|-----11--13--11--6-----|-------------|-------------|-------------|----------6---6-----|
G|-----------------8-----|-------------|-------------|-------5-----|----------8---8-----|
D|-----------------------|-------------|-------------|-------------|----------8---8-----|
A|-----------------------|-------------|-------------|-------------|--------------------|
E|-----------------------|-------------|-------------|-------------|--------------------|


E|--------|-------------|------------------16--|-16------15---------|--------|--------|
B|--------|-------------|---------------16-----|-----15-------------|--------|--------|
G|--------|-------------|----------------------|--------------------|--------|--------|
D|--------|-------------|----------------------|--------------------|--------|--------|
A|--------|-------------|----------------------|--------------------|--------|--------|
E|--------|-------------|----------------------|--------------------|--------|--------|


E|--------|--------|--------|--------|--------|--------|--------|--------|--------|
B|--------|--------|--------|--------|--------|--------|--------|--------|--------|
G|--------|--------|--------|--------|--------|--------|--------|--------|--------|
D|--------|--------|--------|--------|--------|--------|--------|--------|--------|
A|--------|--------|--------|--------|--------|--------|--------|--------|--------|
E|--------|--------|--------|--------|--------|--------|--------|--------|--------|


E|--------|--------|--------|--------|--------|--------|--------|--------|
B|--------|--------|--------|--------|--------|--------|--------|--------|
G|--------|--------|--------|--------|--------|--------|--------|--------|
D|--------|--------|--------|--------|--------|--------|--------|--------|
A|--------|--------|--------|--------|--------|--------|--------|--------|
E|--------|--------|--------|--------|--------|--------|--------|--------|





Track 4: Bass

G|--------|--------|--------|----------------8--10-8-----------8---|-----------8-----8---8---------------|
D|--------|--------|--------|----------8--10----------10-8--10-----|-----8--10----10---------------------|
A|--------|--------|--------|--------------------------------------|-6-----------------------------------|
E|--------|--------|--------|--------------------------------------|---------------------------------6---|


G|-----------------|-------------------|-------------------|-----------8-----8---8---------------|
D|-----------------|-------------------|----------------0--|-----8--10----10---------------------|
A|-----------------|-------------------|-------------2-----|-6-------------------------------1---|
E|-8-----8-----3---|-4-----4-----4--1--|-3-----3-----------|-------------------------------------|


G|-------------------|-----------------|-----------0---0-------|---------------------|
D|-------------------|-----------------|-----------------------|---------------------|
A|-3-----3-----------|-----------------|-----------------------|-----------------5---|
E|-------------1--3--|-4-----4-----1---|-3-----3-----------3---|-4-----4---6---------|


G|---------------------|-----------------------|---------------------|-----------------------|
D|---------------------|-----------------------|---------------------|-----------------------|
A|-6-------------------|-------------------5---|-6-------------------|-----------------3--5--|
E|-------6---8-----3---|-4-----1--4--6---------|-------6---8-----3---|-4-----4---6-----------|


G|---------------------|-----------------|-----------3---3-------|-----------------|
D|---------------------|-----------------|-----------------------|-1-----1---------|
A|-6-----1---3---------|-----------------|-------------------3---|-------------1---|
E|-----------------3---|-4-----4-----1---|-4-----4---------------|-----------------|


G|-------------------|-------------------|-----------------|-----------------|-----------------|
D|-------------------|-------------------|-----------------|-----------------|-----------------|
A|-3-----3-----3-----|-------------------|-------------5---|-6-----6---------|-----------------|
E|----------------3--|-4-----4-----4--1--|-3-----3---------|-------------6---|-8-----8-----3---|


G|-----------------|-----------------|---------------------|---------------------|
D|-----------------|-----------------|---------------------|---------------------|
A|-----------------|-----------------|-----------------5---|-6-------------------|
E|-4-----4-----1---|-3-----3-----3---|-4-----4---6---------|-------6---8-----3---|


G|-----------------------|---------------------|---------------------|-----------------------|
D|-----------------------|---------------------|---------------------|-----------------------|
A|-------------------5---|-6-------------------|-----------------5---|-6---------------------|
E|-4-----1--4--6---------|-------6---8-----3---|-4-----4---6---------|-------6---8-----1--3--|


G|--------------------------|-------3--5--------|-----------------|-------------------|
D|------6---8---6-----------|-------------------|-----------------|-------------------|
A|--------------------------|-------------6-----|-6---------------|-------------------|
E|-4------------------4--1--|-4-----------------|-------6---8-----|-8-----1--3--4-----|


G|-------------------|---------------------8-----8---|-8---------------------|-----------------|
D|-------------------|---------------8--10----10-----|-----------------------|-----------------|
A|-------------------|-------5---6-------------------|-----------------------|-----------------|
E|-4-----4--1--3-----|-3-----------------------------|-------------6---8-----|-8-----3---4-----|


G|-------------------|-------------------------|---------------------|-----------------------|
D|-------------------|-------------------------|---------------------|-1---------------------|
A|-------3-----------|-------------------------|-6---------------3---|-------------------3---|
E|-4--------4--3-----|-3-----0--3--4-----6--8--|-------3---4---------|-------1--3--4---------|


G|-----------------|---------------------|-6---8---10--8-------------8-----8---|-8---------------------|
D|-1---------------|-----------------6---|---------------------8--10----10-----|-----------------------|
A|-------3---4-----|-4---------4---------|-----------------6-------------------|-----------------------|
E|-----------------|-------6-------------|-------------------------------------|-------------6---8-----|


G|-----------------|-----------------|-----------------|-----------------|-----------------|
D|-----------------|-----------------|-----------------|-----------------|-----------------|
A|-----------------|-----------------|-------5---6-----|-6---------------|-----------------|
E|-8-----3---4-----|-4-----1---3-----|-3---------------|-------6---8-----|-8-----3---4-----|


G|-----------------|------------------------|------------------------|---------------------|
D|-----------------|-----------3--------3---|-5----5---5-------------|---------------------|
A|-----------------|------------------------|--------------6---------|---------------------|
E|-4-----1---3-----|-3-----3----------------|--------------------6---|-8-----3---4-----4---|


G|---------------------|---------------------|---------------------|-----------------------|
D|---------------------|---------------------|---------------------|-----------------6--8--|
A|-------5---6---------|---------------------|-------5---6---------|-----------------------|
E|-6---------------6---|-8-----3---4-----4---|-6---------------6---|-8-----3---4-----------|


G|---------------------------|---------------------|-----------------------|---------------------|
D|-6-------------------------|---------------------|-----------------------|---------------------|
A|-----8---6-----------------|-----------------5---|-6---------------------|-----------------5---|
E|-------------1---4-----1---|-4-----4---6---------|-------6---8-----1--3--|-4-----4---6---------|


G|-----------------------|-----------------------|---------8---------8--10-8-----------------|
D|-----------------------|-----------------------|-----8-------8--10----------10-8-----------|
A|-6--------1--3---------|-----------------------|----------------------------------10-8--6--|
E|-------3-----------3---|-4-----4---6-----8--10-|-10----------------------------------------|


G|---------------------|---------------------|---------------------|---------------------|
D|---------------------|---------------------|---------------------|---------------------|
A|-----------------5---|-6---------3---------|-----------------5---|-6-------------------|
E|-4-----4---6---------|-------6---------3---|-4-----4---6---------|-------6---8-----3---|


G|---------------------|---------------------|
D|---------------------|---------------------|
A|-----------------5---|-6-------------------|
E|-4-----4---6---------|-------6---8-----3---|