Menu:

 

Search:

 

creedence clearwater revival - lodi:

 



Title: Lodi
Artist: 
Album: Green River
Author: John C. Fogerty


Track 1: John Fogerty - Gtr.1

E|-----------------|------------------------|------------------------|--------|--------|
B|-3----3-----4----|-4---6---6----6----3----|-4----4----4-------4----|-3------|--------|
G|-3----3-----5----|-5---7---7----7----3----|-5----5----5---3---3----|-3------|--------|
D|-----------------|------------------------|------------------------|--------|--------|
A|-----------------|------------------------|------------------------|--------|--------|
E|-----------------|------------------------|------------------------|--------|--------|


E|--------|--------|--------|--------|--------|--------|--------|--------|--------|
B|--------|--------|--------|--------|--------|--------|--------|--------|--------|
G|--------|--------|--------|--------|--------|--------|--------|--------|--------|
D|--------|--------|--------|--------|--------|--------|--------|--------|--------|
A|--------|--------|--------|--------|--------|--------|--------|--------|--------|
E|--------|--------|--------|--------|--------|--------|--------|--------|--------|


E|--------|--------|--------|--------|-----------------------------------|-----------------------|
B|--------|--------|--------|--------|-----------------------------------|-----------------------|
G|--------|--------|--------|--------|---------3---5---5---5---5---3-----|-3---------------------|
D|--------|--------|--------|--------|-----5--------------------------5--|-------5---3-------3---|
A|--------|--------|--------|--------|-----------------------------------|---------------5-------|
E|--------|--------|--------|--------|-----------------------------------|-----------------------|


E|--------|--------|--------|--------|--------|--------|--------|--------|--------|
B|--------|--------|--------|--------|--------|--------|--------|--------|--------|
G|--------|--------|--------|--------|--------|--------|--------|--------|--------|
D|--------|--------|--------|--------|--------|--------|--------|--------|--------|
A|--------|--------|--------|--------|--------|--------|--------|--------|--------|
E|--------|--------|--------|--------|--------|--------|--------|--------|--------|


E|--------|--------|--------|--------|--------|-----------------------------------|
B|--------|--------|--------|--------|--------|-----------------------------------|
G|--------|--------|--------|--------|--------|---------3---5---5---5---5---3-----|
D|--------|--------|--------|--------|--------|-----5--------------------------5--|
A|--------|--------|--------|--------|--------|-----------------------------------|
E|--------|--------|--------|--------|--------|-----------------------------------|


E|-----------------------|-----------------|------------------------|------------------------|
B|-----------------------|-3----3-----4----|-4---6---6----6----3----|-4----4-------4---------|
G|-3---------------------|-3----3-----5----|-5---7---7----7----3----|-5----3---5---5----3----|
D|-------5---3-------3---|-----------------|------------------------|-------------------5----|
A|---------------5-------|-----------------|------------------------|------------------------|
E|-----------------------|-----------------|------------------------|------------------------|


E|--------|-----------------|------------------------|------------------------|--------|
B|--------|-3----3-----4----|-4---6---6----6----3----|-4----4-------4---------|--------|
G|-3------|-3----3-----5----|-5---7---7----7----3----|-5----3---5---5----3----|-3------|
D|-3------|-----------------|------------------------|-------------------5----|-3------|
A|--------|-----------------|------------------------|------------------------|--------|
E|--------|-----------------|------------------------|------------------------|--------|


E|--------|--------|--------|--------|--------|--------|--------|--------|--------|
B|--------|--------|--------|--------|--------|--------|--------|--------|--------|
G|--------|--------|--------|--------|--------|--------|--------|--------|--------|
D|--------|--------|--------|--------|--------|--------|--------|--------|--------|
A|--------|--------|--------|--------|--------|--------|--------|--------|--------|
E|--------|--------|--------|--------|--------|--------|--------|--------|--------|


E|--------|--------|--------|--------|--------|-----------------------------------|
B|--------|--------|--------|--------|--------|-----------------------------------|
G|--------|--------|--------|--------|--------|---------3---5---5---5---5---3-----|
D|--------|--------|--------|--------|--------|-----5--------------------------5--|
A|--------|--------|--------|--------|--------|-----------------------------------|
E|--------|--------|--------|--------|--------|-----------------------------------|


E|-----------------------|------------------------|---------------------------|---------------------------|
B|-----------------------|------6-------6---------|---------------------------|---------------------------|
G|-3---------------------|-5----5---7---5----5----|---------5------------5----|-5---4---4----5---4---4----|
D|-------5---3-------3---|-7-----------------7----|-5-------5----5-------5----|-5-------5----5-------5----|
A|---------------5-------|------------------------|-5---7--------5---7--------|---------5-----------------|
E|-----------------------|------------------------|---------------------------|---------------------------|


E|--------|--------|--------|--------|--------|--------|--------|--------|--------|
B|--------|--------|--------|--------|--------|--------|--------|--------|--------|
G|-5------|--------|--------|--------|--------|--------|--------|--------|--------|
D|-5------|--------|--------|--------|--------|--------|--------|--------|--------|
A|--------|--------|--------|--------|--------|--------|--------|--------|--------|
E|--------|--------|--------|--------|--------|--------|--------|--------|--------|


E|--------|--------|--------|--------|--------|--------|--------|--------|--------|
B|--------|--------|--------|--------|--------|--------|--------|--------|--------|
G|--------|--------|--------|--------|--------|--------|--------|--------|--------|
D|--------|--------|--------|--------|--------|--------|--------|--------|--------|
A|--------|--------|--------|--------|--------|--------|--------|--------|--------|
E|--------|--------|--------|--------|--------|--------|--------|--------|--------|


E|--------|--------|--------|--------|-----------------|---------------------------|
B|--------|--------|--------|--------|-5----5-----6----|-6---8---8----8---6---5----|
G|--------|--------|--------|--------|-5----5-----7----|-7---9---9----9---7---5----|
D|--------|--------|--------|--------|-----------------|---------------------------|
A|--------|--------|--------|--------|-----------------|---------------------------|
E|--------|--------|--------|--------|-----------------|---------------------------|


E|-------------|--------|-----------------|---------------------------|------------------------|
B|-6-----6-----|-5------|-5----5-----6----|-6---8---8----8---6---5----|-6----6---8---6----6----|
G|-5-----5-----|-5------|-5----5-----7----|-7---9---9----9---7---5----|-7----7---9---7----5----|
D|-------------|--------|-----------------|---------------------------|------------------------|
A|-------------|--------|-----------------|---------------------------|------------------------|
E|-------------|--------|-----------------|---------------------------|------------------------|


E|--------|-----------------|---------------------------|-------------|--------|-----------------|
B|-5------|-5----5-----6----|-6---8---8----8---6---5----|-6-----6-----|-5------|-5----5-----6----|
G|-5------|-5----5-----7----|-7---9---9----9---7---5----|-5-----5-----|-5------|-5----5-----7----|
D|--------|-----------------|---------------------------|-------------|--------|-----------------|
A|--------|-----------------|---------------------------|-------------|--------|-----------------|
E|--------|-----------------|---------------------------|-------------|--------|-----------------|


E|---------------------------|------------------------|--------|
B|-6---8---8----8---6---5----|-6----6---8---6----6----|-5------|
G|-7---9---9----9---7---5----|-7----7---9---7----5----|-5------|
D|---------------------------|------------------------|--------|
A|---------------------------|------------------------|--------|
E|---------------------------|------------------------|--------|





Track 2: Tom Fogerty - Gtr.2

E|--------|--------|--------|--------|--------|--------|--------|--------|--------|
B|--------|--------|--------|--------|--------|--------|--------|--------|--------|
G|--------|--------|--------|--------|--------|--------|--------|--------|--------|
D|--------|--------|--------|--------|--------|--------|--------|--------|--------|
A|--------|--------|--------|--------|--------|--------|--------|--------|--------|
E|--------|--------|--------|--------|--------|--------|--------|--------|--------|


E|--------|--------|--------|--------|--------|--------|--------|--------|--------|
B|--------|--------|--------|--------|--------|--------|--------|--------|--------|
G|--------|--------|--------|--------|--------|--------|--------|--------|--------|
D|--------|--------|--------|--------|--------|--------|--------|--------|--------|
A|--------|--------|--------|--------|--------|--------|--------|--------|--------|
E|--------|--------|--------|--------|--------|--------|--------|--------|--------|


E|--------|--------|--------|--------|--------|--------|--------|--------|--------|
B|--------|--------|--------|--------|--------|--------|--------|--------|--------|
G|--------|--------|--------|--------|--------|--------|--------|--------|--------|
D|--------|--------|--------|--------|--------|--------|--------|--------|--------|
A|--------|--------|--------|--------|--------|--------|--------|--------|--------|
E|--------|--------|--------|--------|--------|--------|--------|--------|--------|


E|--------|--------|--------|--------|--------|--------|--------|--------|--------|
B|--------|--------|--------|--------|--------|--------|--------|--------|--------|
G|--------|--------|--------|--------|--------|--------|--------|--------|--------|
D|--------|--------|--------|--------|--------|--------|--------|--------|--------|
A|--------|--------|--------|--------|--------|--------|--------|--------|--------|
E|--------|--------|--------|--------|--------|--------|--------|--------|--------|


E|-----------------|------------------------|---------------------|--------------------|
B|-----------------|------------------------|---------------------|--------------------|
G|-----------------|------------------------|---------------------|-----------3---3----|
D|-3----3-----3----|-3---7---7----7----3----|-5----5----5----5----|-3---------3---3----|
A|-----------------|------------------------|---------------------|-------5------------|
E|-----------------|------------------------|---------------------|--------------------|


E|-----------------|---------------------------|---------------------|--------------------|
B|-----------------|---------------------------|---------------------|--------------------|
G|-----------------|---------------------------|---------------------|-----------3---3----|
D|-3----3-----3----|-3---7---7----7---3---5----|-5----5----5----3----|-3---------3---3----|
A|-----------------|---------------------------|---------------------|-------5------------|
E|-----------------|---------------------------|---------------------|--------------------|


E|--------|--------|--------|--------|--------|--------|--------|--------|--------|
B|--------|--------|--------|--------|--------|--------|--------|--------|--------|
G|--------|--------|--------|--------|--------|--------|--------|--------|--------|
D|--------|--------|--------|--------|--------|--------|--------|--------|--------|
A|--------|--------|--------|--------|--------|--------|--------|--------|--------|
E|--------|--------|--------|--------|--------|--------|--------|--------|--------|


E|--------|--------|--------|--------|--------|--------|--------|--------|--------|
B|--------|--------|--------|--------|--------|--------|--------|--------|--------|
G|--------|--------|--------|--------|--------|--------|--------|--------|--------|
D|--------|--------|--------|--------|--------|--------|--------|--------|--------|
A|--------|--------|--------|--------|--------|--------|--------|--------|--------|
E|--------|--------|--------|--------|--------|--------|--------|--------|--------|


E|--------|--------|--------|--------|--------|--------|--------|--------|--------|
B|--------|--------|--------|--------|--------|--------|--------|--------|--------|
G|--------|--------|--------|--------|--------|--------|--------|--------|--------|
D|--------|--------|--------|--------|--------|--------|--------|--------|--------|
A|--------|--------|--------|--------|--------|--------|--------|--------|--------|
E|--------|--------|--------|--------|--------|--------|--------|--------|--------|


E|--------|--------|--------|--------|--------|--------|--------|--------|--------|
B|--------|--------|--------|--------|--------|--------|--------|--------|--------|
G|--------|--------|--------|--------|--------|--------|--------|--------|--------|
D|--------|--------|--------|--------|--------|--------|--------|--------|--------|
A|--------|--------|--------|--------|--------|--------|--------|--------|--------|
E|--------|--------|--------|--------|--------|--------|--------|--------|--------|


E|--------|--------|--------|--------|--------|--------------------|---------------------------|
B|--------|--------|--------|--------|--------|--------------------|---------------------------|
G|--------|--------|--------|--------|--------|--------------------|---------------------------|
D|--------|--------|--------|--------|--------|-5----5-----5---5---|-5---10--10---10--5---5----|
A|--------|--------|--------|--------|--------|--------------------|---------------------------|
E|--------|--------|--------|--------|--------|--------------------|---------------------------|


E|---------------------------|-----------------------|--------------------|---------------------------|
B|---------------------------|-----------------------|--------------------|---------------------------|
G|---------5---7---5---------|-----------------------|--------------------|---------------------------|
D|-5---7----------------7----|-5-------------5---7---|-5----5-----5---5---|-5---10--10---10--5---5----|
A|---------------------------|-------7---7-----------|--------------------|---------------------------|
E|---------------------------|-----------------------|--------------------|---------------------------|


E|-----------------|-----------------------|--------------------|---------------------------|
B|-----------------|-----------------------|--------------------|---------------------------|
G|-----------------|-----------------------|--------------------|---------------------------|
D|-5-----5---5-----|-5---------5---5---7---|-5----5-----5---5---|-5---10--10---10--5---5----|
A|-----------------|-------7---------------|--------------------|---------------------------|
E|-----------------|-----------------------|--------------------|---------------------------|


E|---------------------------|-----------------------|--------------------|---------------------------|
B|---------------------------|-----------------------|--------------------|---------------------------|
G|---------5---7---5---------|-----------------------|--------------------|---------------------------|
D|-5---7----------------7----|-5-------------5---7---|-5----5-----5---5---|-5---10--10---10--5---5----|
A|---------------------------|-------7---7-----------|--------------------|---------------------------|
E|---------------------------|-----------------------|--------------------|---------------------------|


E|-----------------|-----------------------|
B|-----------------|-----------------------|
G|-----------------|-----------------------|
D|-5-----5---5-----|-5---------5---5---7---|
A|-----------------|-------7---------------|
E|-----------------|-----------------------|





Track 3: Stu Cook - Bass

G|---------------------------|---------------------------|---------------------------|
D|---------------------------|---------------------------|-3----3---3---1--------1---|
A|-1--------1----------------|-1--------1--------1-------|---------------------------|
E|--------------1--------1---|--------------1------------|---------------------------|


G|---------------------------|------------------------|--------------3---------|---------------------------|
D|---------------------------|------------------------|------------------------|-1--------1---1----1---1---|
A|-1--------1----------------|-1--------1-------------|-1----1---1--------1----|---------------------------|
E|--------------1----3-------|--------------1---------|------------------------|---------------------------|


G|------------------------|---------------------------|---------------------------|
D|------------------------|---------------------------|---------------------------|
A|-1----1---1-------------|-1----1---1---0----0---0---|---------------------------|
E|--------------1---------|---------------------------|-3----3---3---1----1---1---|


G|------------------------|------------------------|------------------------------|
D|-1----1---1--------1----|-3--------------3-------|------------------------------|
A|--------------1---------|-------3----------------|-1-----------1---0----0---0---|
E|------------------------|-----------1------------|------------------------------|


G|---------------------------|---------------------------|------------------------|
D|---------------------------|-1--------1---1--------1---|------------------------|
A|---------------------------|---------------------------|-1----1---1-------------|
E|-3--------3---1----1---1---|---------------------------|--------------1----1----|


G|--------------3---------|------------------------|------------------------|---------------------------|
D|------------------------|-3----3---3--------3----|-1----1---1--------1----|---------------------------|
A|-1----1---1--------1----|--------------3---------|--------------1---------|-1----1---1----------------|
E|------------------------|------------------------|------------------------|--------------1----1-------|


G|------------------------|--------------3---------|---------------------------|------------------------|
D|------------------------|------------------------|-1--------1---1----1---1---|------------------------|
A|-1--------1-------------|-1----1---1--------1----|---------------------------|-1----1---1-------------|
E|--------------1---------|------------------------|---------------------------|--------------1---------|


G|---------------------------|---------------------------|------------------------|
D|---------------------------|---------------------------|-1----1---1--------1----|
A|-1----1---1---0----0---0---|---------------------------|--------------1---------|
E|---------------------------|-3----3---3---1----1---1---|------------------------|


G|------------------------|---------------------------|---------------------------|
D|-3--------------3-------|---------------------------|---------------------------|
A|-------3----------------|-1----1---1---0----0---0---|---------------------------|
E|-----------1------------|---------------------------|-3--------3---1----1---1---|


G|---------------------------|------------------------|--------------3---------|------------------------|
D|-1--------1---1--------1---|------------------------|------------------------|-3----3---3--------3----|
A|---------------------------|-1----1---1-------------|-1----1---1--------1----|--------------3---------|
E|---------------------------|--------------1----1----|------------------------|------------------------|


G|------------------------|---------------------------|---------------------------|
D|-1----1---1--------1----|---------------------------|---------------------------|
A|--------------1---------|-1----1---1----------------|-1--------1----------------|
E|------------------------|--------------1----1-------|--------------1----1---1---|


G|--------------3------------|---------------------------|---------------------------|
D|------------------3--------|-1--------1---1--------1---|---------------------------|
A|-1----1---1-----------1----|---------------------------|-1--------1----------------|
E|---------------------------|---------------------------|--------------1----1-------|


G|---------------------------|---------------------------|---------------------------|
D|---------------------------|---------------------------|-3----3---3---1--------1---|
A|-1--------1----------------|-1--------1--------1-------|---------------------------|
E|--------------1--------1---|--------------1------------|---------------------------|


G|---------------------------|------------------------|--------------3---------|---------------------------|
D|---------------------------|------------------------|------------------------|-1--------1---1----1---1---|
A|-1--------1----------------|-1--------1-------------|-1----1---1--------1----|---------------------------|
E|--------------1----3-------|--------------1---------|------------------------|---------------------------|


G|------------------------|---------------------------|---------------------------|
D|------------------------|---------------------------|---------------------------|
A|-1----1---1-------------|-1----1---1---0----0---0---|---------------------------|
E|--------------1---------|---------------------------|-3----3---3---1----1---1---|


G|------------------------|------------------------|------------------------------|
D|-1----1---1--------1----|-3--------------3-------|------------------------------|
A|--------------1---------|-------3----------------|-1-----------1---0----0---0---|
E|------------------------|-----------1------------|------------------------------|


G|---------------------------|---------------------------|------------------------|
D|---------------------------|-1--------1---1--------1---|------------------------|
A|---------------------------|---------------------------|-1----1---1-------------|
E|-3--------3---1----1---1---|---------------------------|--------------1----1----|


G|--------------3---------|------------------------|------------------------|---------------------------|
D|------------------------|-3----3---3--------3----|-1----1---1--------1----|---------------------------|
A|-1----1---1--------1----|--------------3---------|--------------1---------|-1----1---1----------------|
E|------------------------|------------------------|------------------------|--------------1----1-------|


G|-------------|-------------|-----------------|---------------------------|---------------------------|
D|-3-----3-----|-------------|-----------------|---------------------------|---------------------------|
A|-------------|-3-----3-----|-----------------|-3----3---3----------------|-3--------3----------------|
E|-------------|-------------|-3---------3-----|--------------3--------3---|--------------3----3-------|


G|------------------------|--------------5---------|---------------------------|------------------------|
D|------------------------|------------------------|-3--------3---3----3---3---|------------------------|
A|-3--------3-------------|-3----3---3--------3----|---------------------------|-3----3---3-------------|
E|--------------3---------|------------------------|---------------------------|--------------3---------|


G|---------------------------|---------------------------|------------------------|
D|---------------------------|---------------------------|-3----3---3--------3----|
A|-3----3---3---2----2---2---|-0----0---0----------------|--------------3---------|
E|---------------------------|--------------3----3---3---|------------------------|


G|------------------------|---------------------------|---------------------------|
D|-5--------------5-------|---------------------------|---------------------------|
A|-------5----------------|-3----3---3---2----2---2---|-0--------0----------------|
E|-----------3------------|---------------------------|--------------3----3---3---|


G|---------------------------|------------------------|--------------5---------|------------------------|
D|-3--------3---3--------3---|------------------------|------------------------|-5----5---5--------5----|
A|---------------------------|-3----3---3-------------|-3----3---3--------3----|--------------5---------|
E|---------------------------|--------------3----3----|------------------------|------------------------|


G|------------------------|---------------------------|--------------5---------|------------------------|
D|-3----3---3--------3----|---------------------------|------------------------|-5----5---5--------5----|
A|--------------3---------|-3----3---3----------------|-3----3---3--------3----|--------------5---------|
E|------------------------|--------------3----3-------|------------------------|------------------------|


G|------------------------|---------------------------|---------------------------|
D|-3----3---3--------3----|---------------------------|---------------------------|
A|--------------3---------|-3----3---3----------------|-3--------3----------------|
E|------------------------|--------------3----3-------|--------------3----3---3---|


G|--------------5------------|---------------------------|---------------------------|
D|------------------5--------|-3--------3---3--------3---|---------------------------|
A|-3----3---3-----------3----|---------------------------|-3--------3----------------|
E|---------------------------|---------------------------|--------------3----3-------|


G|---------------------------|---------------------------|---------------------------|
D|---------------------------|---------------------------|-5----5---5---3--------3---|
A|-3--------3----------------|-3--------3--------3-------|---------------------------|
E|--------------3--------3---|--------------3------------|---------------------------|


G|---------------------------|---------------------------|--------------5------------|
D|---------------------------|---------------------------|------------------5--------|
A|-3--------3--------0-------|-3--------3----------------|-3----3---3-----------3----|
E|--------------3------------|--------------3----3---3---|---------------------------|


G|---------------------------|---------------------------|---------------------------|
D|-3--------3---3--------3---|---------------------------|---------------------------|
A|---------------------------|-3--------3----------------|-3--------3----------------|
E|---------------------------|--------------3----3-------|--------------3--------3---|


G|---------------------------|---------------------------|---------------------------|
D|---------------------------|-5----5---5---3--------3---|---------------------------|
A|-3--------3--------3-------|---------------------------|-3--------3--------0-------|
E|--------------3------------|---------------------------|--------------3------------|