Menu:

 

Search:

 

creedence clearwater revival - down on the corner:

 



Title: Down On The Corner
Artist: 
Album: Anniversary Edition
Author: J.C.Fogerty


Track 1: Untitled

E|--------|--------|--------|--------|--------|--------|--------|--------|--------|
B|--------|--------|--------|--------|--------|--------|--------|--------|--------|
G|--------|--------|--------|--------|--------|--------|--------|--------|--------|
D|--------|--------|--------|--------|--------|--------|--------|--------|--------|
A|--------|--------|--------|--------|--------|--------|--------|--------|--------|
E|--------|--------|--------|--------|--------|--------|--------|--------|--------|


E|--------|--------|--------|--------|--------|--------|--------|--------|--------|
B|--------|--------|--------|--------|--------|--------|--------|--------|--------|
G|--------|--------|--------|--------|--------|--------|--------|--------|--------|
D|--------|--------|--------|--------|--------|--------|--------|--------|--------|
A|--------|--------|--------|--------|--------|--------|--------|--------|--------|
E|--------|--------|--------|--------|--------|--------|--------|--------|--------|


E|--------|--------|--------|--------|--------|--------|--------|--------|--------|
B|--------|--------|--------|--------|--------|--------|--------|--------|--------|
G|--------|--------|--------|--------|--------|--------|--------|--------|--------|
D|--------|--------|--------|--------|--------|--------|--------|--------|--------|
A|--------|--------|--------|--------|--------|--------|--------|--------|--------|
E|--------|--------|--------|--------|--------|--------|--------|--------|--------|


E|--------|--------|--------|--------|--------|--------|--------|--------|--------|
B|--------|--------|--------|--------|--------|--------|--------|--------|--------|
G|--------|--------|--------|--------|--------|--------|--------|--------|--------|
D|--------|--------|--------|--------|--------|--------|--------|--------|--------|
A|--------|--------|--------|--------|--------|--------|--------|--------|--------|
E|--------|--------|--------|--------|--------|--------|--------|--------|--------|


E|--------|--------|--------|--------|--------|--------|--------|--------|--------|
B|--------|--------|--------|--------|--------|--------|--------|--------|--------|
G|--------|--------|--------|--------|--------|--------|--------|--------|--------|
D|--------|--------|--------|--------|--------|--------|--------|--------|--------|
A|--------|--------|--------|--------|--------|--------|--------|--------|--------|
E|--------|--------|--------|--------|--------|--------|--------|--------|--------|


E|--------|--------|--------|--------|--------|--------|--------|--------|--------|
B|--------|--------|--------|--------|--------|--------|--------|--------|--------|
G|--------|--------|--------|--------|--------|--------|--------|--------|--------|
D|--------|--------|--------|--------|--------|--------|--------|--------|--------|
A|--------|--------|--------|--------|--------|--------|--------|--------|--------|
E|--------|--------|--------|--------|--------|--------|--------|--------|--------|


E|--------|--------|--------|--------|--------|--------|--------|--------|--------|
B|--------|--------|--------|--------|--------|--------|--------|--------|--------|
G|--------|--------|--------|--------|--------|--------|--------|--------|--------|
D|--------|--------|--------|--------|--------|--------|--------|--------|--------|
A|--------|--------|--------|--------|--------|--------|--------|--------|--------|
E|--------|--------|--------|--------|--------|--------|--------|--------|--------|


E|--------|--------|--------|
B|--------|--------|--------|
G|--------|--------|--------|
D|--------|--------|--------|
A|--------|--------|--------|
E|--------|--------|--------|





Track 2: Electric Bass (finger)

G|--------|--------|-----------------------------------|-------------------------------------|
D|--------|--------|-----------------------------------|-------------------------------------|
A|--------|--------|-3---------------3------3--3-------|---------------2---3------3--3-------|
E|--------|--------|------5--5---3-----------------5---|-3------3--3-------------------------|


G|-----------------------------------|-------------------------------------|-----------------------------------|
D|-----------------------------------|-------------------------------------|-3---------------3------3--3-------|
A|-3---------------3------3--3-------|---------------2---3------3--3-------|------5--5---3-----------------5---|
E|------5--5---3-----------------5---|-3------3--3-------------------------|-----------------------------------|


G|-------------------------------------|-----------------------------------|-------------------------------------|
D|-------------------5------5--5-------|-----------------------------------|-------------------------------------|
A|-3------3--3-------------------------|-3---------------3------3--3-------|---------------2---3------3--3-------|
E|-------------------------------------|------5--5---3-----------------5---|-3------3--3-------------------------|


G|-----------------------------------|-------------------------------------|-----------------------------------|
D|-----------------------------------|-------------------------------------|-----------------------------------|
A|-3---------------3------3--3-------|---------------2---3------3--3-------|-3---------------3------3--3-------|
E|------5--5---3-----------------5---|-3------3--3-------------------------|------5--5---3-----------------5---|


G|-------------------------------------|-----------------------------------|-------------------------------------|
D|-------------------------------------|-3---------------3------3--3-------|-------------------5------5--5-------|
A|---------------2---3------3--3-------|------5--5---3-----------------5---|-3------3--3-------------------------|
E|-3------3--3-------------------------|-----------------------------------|-------------------------------------|


G|-----------------------------------|-------------------------------------|---------------------------|
D|-----------------------------------|-------------------------------------|---------------------------|
A|-3---------------3------3--3-------|---------------2---3------3--3-------|-----------3---3---3-------|
E|------5--5---3-----------------5---|-3------3--3-------------------------|-1----1--------------------|


G|---------------------------|---------------------------|---------------------------|
D|---------------------------|---------------------------|---------------------------|
A|-----------3---3---3-------|-----------3---3---3-------|-----------3---3---3-------|
E|-3----3--------------------|-1----1--------------------|-3----3--------------------|


G|-----------------------------------|-------------------------------------|-----------------------------------|
D|-----------------------------------|-------------------------------------|-----------------------------------|
A|-3---------------3------3--3-------|---------------2---3------3--3-------|-3---------------3------3--3-------|
E|------5--5---3-----------------5---|-3------3--3-------------------------|------5--5---3-----------------5---|


G|-------------------------------------|-----------------------------------|-------------------------------------|
D|-------------------------------------|-3---------------3------3--3-------|-------------------5------5--5-------|
A|---------------2---3------3--3-------|------5--5---3-----------------5---|-3------3--3-------------------------|
E|-3------3--3-------------------------|-----------------------------------|-------------------------------------|


G|-----------------------------------|-------------------------------------|---------------------------|
D|-----------------------------------|-------------------------------------|---------------------------|
A|-3---------------3------3--3-------|---------------2---3------3--3-------|-----------3---3---3-------|
E|------5--5---3-----------------5---|-3------3--3-------------------------|-1----1--------------------|


G|---------------------------|---------------------------|---------------------------|
D|---------------------------|---------------------------|---------------------------|
A|-----------3---3---3-------|-----------3---3---3-------|-----------3---3---3-------|
E|-3----3--------------------|-1----1--------------------|-3----3--------------------|


G|-----------------------------------|-------------------------------------|-----------------------------------|
D|-----------------------------------|-------------------------------------|-----------------------------------|
A|-3---------------3------3--3-------|---------------2---3------3--3-------|-3---------------3------3--3-------|
E|------5--5---3-----------------5---|-3------3--3-------------------------|------5--5---3-----------------5---|


G|-------------------------------------|-----------------------------------|-------------------------------------|
D|-------------------------------------|-3---------------3------3--3-------|-------------------5------5--5-------|
A|---------------2---3------3--3-------|------5--5---3-----------------5---|-3------3--3-------------------------|
E|-3------3--3-------------------------|-----------------------------------|-------------------------------------|


G|-----------------------------------|-------------------------------------|---------------------------|
D|-----------------------------------|-------------------------------------|---------------------------|
A|-3---------------3------3--3-------|---------------2---3------3--3-------|-----------3---3---3-------|
E|------5--5---3-----------------5---|-3------3--3-------------------------|-1----1--------------------|


G|---------------------------|---------------------------|---------------------------|
D|---------------------------|---------------------------|---------------------------|
A|-----------3---3---3-------|-----------3---3---3-------|-----------3---3---3-------|
E|-3----3--------------------|-1----1--------------------|-3----3--------------------|


G|--------|-------------|--------|-------------|-----------------------------------|
D|--------|-------------|--------|-------------|-----------------------------------|
A|--------|-------------|--------|-------------|-3---------------3------3--3-------|
E|--------|-------------|--------|-------------|------5--5---3-----------------5---|


G|-------------------------------------|-----------------------------------|-------------------------------------|
D|-------------------------------------|-----------------------------------|-------------------------------------|
A|---------------2---3------3--3-------|-3---------------3------3--3-------|---------------2---3------3--3-------|
E|-3------3--3-------------------------|------5--5---3-----------------5---|-3------3--3-------------------------|


G|-----------------------------------|-------------------------------------|-----------------------------------|
D|-3---------------3------3--3-------|-------------------5------5--5-------|-----------------------------------|
A|------5--5---3-----------------5---|-3------3--3-------------------------|-3---------------3------3--3-------|
E|-----------------------------------|-------------------------------------|------5--5---3-----------------5---|


G|-------------------------------------|---------------------------|---------------------------|
D|-------------------------------------|---------------------------|---------------------------|
A|---------------2---3------3--3-------|-----------3---3---3-------|-----------3---3---3-------|
E|-3------3--3-------------------------|-1----1--------------------|-3----3--------------------|


G|---------------------------|---------------------------|---------------------------|
D|---------------------------|---------------------------|---------------------------|
A|-----------3---3---3-------|-----------3---3---3-------|-----------3---3---3-------|
E|-1----1--------------------|-3----3--------------------|-1----1--------------------|


G|---------------------------|---------------------------|---------------------------|
D|---------------------------|---------------------------|---------------------------|
A|-----------3---3---3-------|-----------3---3---3-------|-----------3---3---3-------|
E|-3----3--------------------|-1----1--------------------|-3----3--------------------|