Menu:

 

Search:

 

creedence clearwater revival - bad moon rising:

 



Title: Bad Moon Rising 
Artist: 
Album: Green River
Author: John C. Fogerty


Track 1: John Fogerty - Rhythm Gtr.

E|------5----5---5---5----|------5---------3----|------2----2---2-----------|---------------------------|
B|-7----7----7---7---7----|------5---------3----|------3----3---3---3---3---|-3---3---3----3---3---3----|
G|-7----7----7---7---7----|-6----6----4----4----|-2----2----2---2---4---2---|-2---2---4----2---2---4----|
D|-7----7----7---7---7----|-7----7----5----5----|-0----0----0---0---0---0---|-0---0---0----0---0---0----|
A|-5----5----5---5---5----|-7---------5---------|---------------------------|---------------------------|
E|------------------------|-5---------3---------|---------------------------|---------------------------|


E|------2------------2----|------5---------3----|------2----2---------------|------------------------|
B|------3--------3---3----|------5---------3----|------3----3-----------3---|-3---3---3----3----3----|
G|-2----2----2---2---2----|-6----6----4----4----|-2----2----2---2---4---2---|-2---2---4----2----4----|
D|-0----0----0---0---0----|-7----7----5----5----|-0----0----0---0---0---0---|-0---0---0----0----0----|
A|------------------------|-7---------5---------|---------------------------|------------------------|
E|------------------------|-5---------3---------|---------------------------|------------------------|


E|------2------------2----|------5---------3----|------2----2---------------|------------------------|
B|------3--------3---3----|------5---------3----|------3----3-----------3---|-3---3---3----3----3----|
G|-2----2----2---2---2----|-6----6----4----4----|-2----2----2---2---4---2---|-2---2---4----2----4----|
D|-0----0----0---0---0----|-7----7----5----5----|-0----0----0---0---0---0---|-0---0---0----0----0----|
A|------------------------|-7---------5---------|---------------------------|------------------------|
E|------------------------|-5---------3---------|---------------------------|------------------------|


E|------2------------2----|------5---------3----|------2----2---------------|------------------------|
B|------3--------3---3----|------5---------3----|------3----3-----------3---|-3---3---3----3----3----|
G|-2----2----2---2---2----|-6----6----4----4----|-2----2----2---2---4---2---|-2---2---4----2----4----|
D|-0----0----0---0---0----|-7----7----5----5----|-0----0----0---0---0---0---|-0---0---0----0----0----|
A|------------------------|-7---------5---------|---------------------------|------------------------|
E|------------------------|-5---------3---------|---------------------------|------------------------|


E|------2------------2----|------5---------3----|------2----2---------------|------------------------|
B|------3--------3---3----|------5---------3----|------3----3-----------3---|-3---3---3----3----3----|
G|-2----2----2---2---2----|-6----6----4----4----|-2----2----2---2---4---2---|-2---2---4----2----4----|
D|-0----0----0---0---0----|-7----7----5----5----|-0----0----0---0---0---0---|-0---0---0----0----0----|
A|------------------------|-7---------5---------|---------------------------|------------------------|
E|------------------------|-5---------3---------|---------------------------|------------------------|


E|------3---------3----|------3------------3----|------2-----------------|---------------------------|
B|------3---------3----|------3------------3----|------3----3---3---3----|-3----3---3---3----3---3---|
G|-4----4----4----4----|-4----4----4---4---4----|-2----2----2---2---4----|-2----4---4---2----4---2---|
D|-5----5----5----5----|-5----5----5---5---5----|-0---------0---0---0----|-0----0---0---0----0-------|
A|-5---------5---------|-5---------5---5--------|------------------------|---------------------------|
E|-3---------3---------|-3---------3---3--------|------------------------|---------------------------|


E|------5---5---5---5---5----|------3----3----3----|------2--------------------|------------------------|
B|------5---5---5---5---5----|------3----3----3----|------3----3---3---3---3---|-3---3---3----3----3----|
G|-6----6---6---6---6---6----|-4----4----4----4----|-2----2----2---2---4---2---|-2---2---4----2----4----|
D|-7----7---7---7---7---7----|-5----5----5----5----|-0----0----0---0---0---0---|-0---0---0----0----0----|
A|-7-------------------------|-5-------------------|---------------------------|------------------------|
E|-5-------------------------|-3-------------------|---------------------------|------------------------|


E|------2------------2----|------5---------3----|------2----2---------------|------------------------|
B|------3--------3---3----|------5---------3----|------3----3-----------3---|-3---3---3----3----3----|
G|-2----2----2---2---2----|-6----6----4----4----|-2----2----2---2---4---2---|-2---2---4----2----4----|
D|-0----0----0---0---0----|-7----7----5----5----|-0----0----0---0---0---0---|-0---0---0----0----0----|
A|------------------------|-7---------5---------|---------------------------|------------------------|
E|------------------------|-5---------3---------|---------------------------|------------------------|


E|------2------------2----|------5---------3----|------2----2---------------|------------------------|
B|------3--------3---3----|------5---------3----|------3----3-----------3---|-3---3---3----3----3----|
G|-2----2----2---2---2----|-6----6----4----4----|-2----2----2---2---4---2---|-2---2---4----2----4----|
D|-0----0----0---0---0----|-7----7----5----5----|-0----0----0---0---0---0---|-0---0---0----0----0----|
A|------------------------|-7---------5---------|---------------------------|------------------------|
E|------------------------|-5---------3---------|---------------------------|------------------------|


E|------2------------2----|------5---------3----|------2----2---------------|------------------------|
B|------3--------3---3----|------5---------3----|------3----3-----------3---|-3---3---3----3----3----|
G|-2----2----2---2---2----|-6----6----4----4----|-2----2----2---2---4---2---|-2---2---4----2----4----|
D|-0----0----0---0---0----|-7----7----5----5----|-0----0----0---0---0---0---|-0---0---0----0----0----|
A|------------------------|-7---------5---------|---------------------------|------------------------|
E|------------------------|-5---------3---------|---------------------------|------------------------|


E|------2------------2----|------5---------3----|------2----2---------------|------------------------|
B|------3--------3---3----|------5---------3----|------3----3-----------3---|-3---3---3----3----3----|
G|-2----2----2---2---2----|-6----6----4----4----|-2----2----2---2---4---2---|-2---2---4----2----4----|
D|-0----0----0---0---0----|-7----7----5----5----|-0----0----0---0---0---0---|-0---0---0----0----0----|
A|------------------------|-7---------5---------|---------------------------|------------------------|
E|------------------------|-5---------3---------|---------------------------|------------------------|


E|------3---------3----|------3------------3----|------2-----------------|---------------------------|
B|------3---------3----|------3------------3----|------3----3---3---3----|-3----3---3---3----3---3---|
G|-4----4----4----4----|-4----4----4---4---4----|-2----2----2---2---4----|-2----4---4---2----4---2---|
D|-5----5----5----5----|-5----5----5---5---5----|-0---------0---0---0----|-0----0---0---0----0-------|
A|-5---------5---------|-5---------5---5--------|------------------------|---------------------------|
E|-3---------3---------|-3---------3---3--------|------------------------|---------------------------|


E|------5---5---5---5---5----|------3----3----3----|------2--------------------|------------------------|
B|------5---5---5---5---5----|------3----3----3----|------3----3---3---3---3---|-3---3---3----3----3----|
G|-6----6---6---6---6---6----|-4----4----4----4----|-2----2----2---2---4---2---|-2---2---4----2----4----|
D|-7----7---7---7---7---7----|-5----5----5----5----|-0----0----0---0---0---0---|-0---0---0----0----0----|
A|-7-------------------------|-5-------------------|---------------------------|------------------------|
E|-5-------------------------|-3-------------------|---------------------------|------------------------|


E|------2------------2----|------5---------3----|------2----2---------------|------------------------|
B|------3--------3---3----|------5---------3----|------3----3-----------3---|-3---3---3----3----3----|
G|-2----2----2---2---2----|-6----6----4----4----|-2----2----2---2---4---2---|-2---2---4----2----4----|
D|-0----0----0---0---0----|-7----7----5----5----|-0----0----0---0---0---0---|-0---0---0----0----0----|
A|------------------------|-7---------5---------|---------------------------|------------------------|
E|------------------------|-5---------3---------|---------------------------|------------------------|


E|------2------------2----|------5---------3----|------2----2---------------|------------------------|
B|------3--------3---3----|------5---------3----|------3----3-----------3---|-3---3---3----3----3----|
G|-2----2----2---2---2----|-6----6----4----4----|-2----2----2---2---4---2---|-2---2---4----2----4----|
D|-0----0----0---0---0----|-7----7----5----5----|-0----0----0---0---0---0---|-0---0---0----0----0----|
A|------------------------|-7---------5---------|---------------------------|------------------------|
E|------------------------|-5---------3---------|---------------------------|------------------------|


E|------3---------3----|------3------------3----|------2-----------------|---------------------------|
B|------3---------3----|------3------------3----|------3----3---3---3----|-3----3---3---3----3---3---|
G|-4----4----4----4----|-4----4----4---4---4----|-2----2----2---2---4----|-2----4---4---2----4---2---|
D|-5----5----5----5----|-5----5----5---5---5----|-0---------0---0---0----|-0----0---0---0----0-------|
A|-5---------5---------|-5---------5---5--------|------------------------|---------------------------|
E|-3---------3---------|-3---------3---3--------|------------------------|---------------------------|


E|------5---5---5---5---5----|------3----3----3----|------2--------------------|------------------------|
B|------5---5---5---5---5----|------3----3----3----|------3----3---3---3---3---|-3---3---3----3----3----|
G|-6----6---6---6---6---6----|-4----4----4----4----|-2----2----2---2---4---2---|-2---2---4----2----4----|
D|-7----7---7---7---7---7----|-5----5----5----5----|-0----0----0---0---0---0---|-0---0---0----0----0----|
A|-7-------------------------|-5-------------------|---------------------------|------------------------|
E|-5-------------------------|-3-------------------|---------------------------|------------------------|


E|------2------------2----|------5---------3----|------2----2---------------|------------------------|
B|------3--------3---3----|------5---------3----|------3----3-----------3---|-3---3---3----3----3----|
G|-2----2----2---2---2----|-6----6----4----4----|-2----2----2---2---4---2---|-2---2---4----2----4----|
D|-0----0----0---0---0----|-7----7----5----5----|-0----0----0---0---0---0---|-0---0---0----0----0----|
A|------------------------|-7---------5---------|---------------------------|------------------------|
E|------------------------|-5---------3---------|---------------------------|------------------------|


E|------2------------2----|------5---------3----|------2----2---------------|------------------------|
B|------3--------3---3----|------5---------3----|------3----3-----------3---|-3---3---3----3----3----|
G|-2----2----2---2---2----|-6----6----4----4----|-2----2----2---2---4---2---|-2---2---4----2----4----|
D|-0----0----0---0---0----|-7----7----5----5----|-0----0----0---0---0---0---|-0---0---0----0----0----|
A|------------------------|-7---------5---------|---------------------------|------------------------|
E|------------------------|-5---------3---------|---------------------------|------------------------|


E|------2------------2----|------5---------3----|------2----2---------------|------------------------|
B|------3--------3---3----|------5---------3----|------3----3-----------3---|-3---3---3----3----3----|
G|-2----2----2---2---2----|-6----6----4----4----|-2----2----2---2---4---2---|-2---2---4----2----4----|
D|-0----0----0---0---0----|-7----7----5----5----|-0----0----0---0---0---0---|-0---0---0----0----0----|
A|------------------------|-7---------5---------|---------------------------|------------------------|
E|------------------------|-5---------3---------|---------------------------|------------------------|


E|------2------------2----|------5---------3----|------2----2---------------|------------------------|
B|------3--------3---3----|------5---------3----|------3----3-----------3---|-3---3---3----3----3----|
G|-2----2----2---2---2----|-6----6----4----4----|-2----2----2---2---4---2---|-2---2---4----2----4----|
D|-0----0----0---0---0----|-7----7----5----5----|-0----0----0---0---0---0---|-0---0---0----0----0----|
A|------------------------|-7---------5---------|---------------------------|------------------------|
E|------------------------|-5---------3---------|---------------------------|------------------------|


E|------3---------3----|------3------------3----|------2-----------------|---------------------------|
B|------3---------3----|------3------------3----|------3----3---3---3----|-3----3---3---3----3---3---|
G|-4----4----4----4----|-4----4----4---4---4----|-2----2----2---2---4----|-2----4---4---2----4---2---|
D|-5----5----5----5----|-5----5----5---5---5----|-0---------0---0---0----|-0----0---0---0----0-------|
A|-5---------5---------|-5---------5---5--------|------------------------|---------------------------|
E|-3---------3---------|-3---------3---3--------|------------------------|---------------------------|


E|------5---5---5---5---5----|------3----3----3----|------2--------------------|------------------------|
B|------5---5---5---5---5----|------3----3----3----|------3----3---3---3---3---|-3---3---3----3----3----|
G|-6----6---6---6---6---6----|-4----4----4----4----|-2----2----2---2---4---2---|-2---2---4----2----4----|
D|-7----7---7---7---7---7----|-5----5----5----5----|-0----0----0---0---0---0---|-0---0---0----0----0----|
A|-7-------------------------|-5-------------------|---------------------------|------------------------|
E|-5-------------------------|-3-------------------|---------------------------|------------------------|


E|------3---------3----|------3------------3----|------2-----------------|---------------------------|
B|------3---------3----|------3------------3----|------3----3---3---3----|-3----3---3---3----3---3---|
G|-4----4----4----4----|-4----4----4---4---4----|-2----2----2---2---4----|-2----4---4---2----4---2---|
D|-5----5----5----5----|-5----5----5---5---5----|-0---------0---0---0----|-0----0---0---0----0-------|
A|-5---------5---------|-5---------5---5--------|------------------------|---------------------------|
E|-3---------3---------|-3---------3---3--------|------------------------|---------------------------|


E|------5---5---5---5---5----|------3----3----3----|-2---------------2------------|
B|------5---5---5---5---5----|------3----3----3----|-3-------3-------3-------3----|
G|-6----6---6---6---6---6----|-4----4----4----4----|-2---2---4---2---2---2---4----|
D|-7----7---7---7---7---7----|-5----5----5----5----|-0---0---0---0---0---0---0----|
A|-7-------------------------|-5-------------------|------------------------------|
E|-5-------------------------|-3-------------------|------------------------------|


E|-2------|-2------|
B|-3------|-3------|
G|-2------|-2------|
D|-0------|-0------|
A|-0------|-0------|
E|--------|--------|





Track 2: John Fogerty - Lead Gtr.

E|--------|--------|--------|--------|--------|--------|--------|--------|--------|
B|--------|--------|--------|--------|--------|--------|--------|--------|--------|
G|--------|--------|--------|--------|--------|--------|--------|--------|--------|
D|--------|--------|--------|--------|--------|--------|--------|--------|--------|
A|--------|--------|--------|--------|--------|--------|--------|--------|--------|
E|--------|--------|--------|--------|--------|--------|--------|--------|--------|


E|--------|--------|--------|--------|--------|--------|--------|--------|--------|
B|--------|--------|--------|--------|--------|--------|--------|--------|--------|
G|--------|--------|--------|--------|--------|--------|--------|--------|--------|
D|--------|--------|--------|--------|--------|--------|--------|--------|--------|
A|--------|--------|--------|--------|--------|--------|--------|--------|--------|
E|--------|--------|--------|--------|--------|--------|--------|--------|--------|


E|--------|--------|--------|----------10--10-----------|--------|----------5---5------------|
B|--------|--------|--------|------12----------12-------|--------|-7----------------7----7---|
G|--------|--------|--------|------12----------12-------|--------|-7----------------7----7---|
D|--------|--------|--------|---------------------------|--------|-7---9---------------------|
A|--------|--------|--------|---------------------------|--------|---------------------------|
E|--------|--------|--------|---------------------------|--------|---------------------------|


E|--------|--------|--------|--------|--------|--------|---------------------------|
B|--------|--------|--------|--------|--------|--------|------3----3---------------|
G|--------|--------|--------|--------|--------|--------|---------------4-----------|
D|--------|--------|--------|--------|--------|--------|-----------------------3---|
A|--------|--------|--------|--------|--------|--------|---------------------------|
E|--------|--------|--------|--------|--------|--------|---------------------------|


E|---------------------------|-----------------|--------|----------10--10--------------|
B|-----3---------------------|-----------------|--------|------12----------12--12------|
G|----------4---4---2--------|-----------------|--------|------12----------12--12------|
D|-4---------------------3---|-0---------------|--------|------------------------------|
A|---------------------------|-----------------|--------|------------------------------|
E|---------------------------|-----------------|--------|------------------------------|


E|--------|-------------5---5------------|--------|----------10--10--------------|
B|--------|-7-------------------7----7---|--------|------12----------12--12------|
G|--------|-7-------4-----------7----7---|--------|------12----------12--12------|
D|--------|-7---9------------------------|--------|------------------------------|
A|--------|------------------------------|--------|------------------------------|
E|--------|------------------------------|--------|------------------------------|


E|--------|-------------5---5------------|--------|--------|--------|--------|----------10--10-----------|
B|--------|-7-------------------7---7----|--------|--------|--------|--------|------12----------12-------|
G|--------|-7-------------------7---7----|--------|--------|--------|--------|------12----------12-------|
D|--------|-7---9---9--------------------|--------|--------|--------|--------|---------------------------|
A|--------|------------------------------|--------|--------|--------|--------|---------------------------|
E|--------|------------------------------|--------|--------|--------|--------|---------------------------|


E|--------|----------5---5------------|--------|--------|--------|--------|---------------5--------|
B|--------|-7----------------7----7---|--------|--------|--------|--------|-7----7----7---7--------|
G|--------|-7----------------7----7---|--------|--------|--------|--------|-7----7----7---7--------|
D|--------|-7---9---------------------|--------|--------|--------|--------|-7----7----7---7--------|
A|--------|---------------------------|--------|--------|--------|--------|------------------------|
E|--------|---------------------------|--------|--------|--------|--------|------------------------|


E|-5-----3---------|------2----2------------|---------------------------|------------------------|
B|-5-----3---------|------3----3------------|-----3----------------3----|-7----7----7---7--------|
G|-6-----4---------|------2----2---4--------|-----2---4---4---4----2----|-7----7----7---7--------|
D|-7-----5-----3---|-4------------------3---|-4-------------------------|-7----7----7---7--------|
A|-----------------|------------------------|---------------------------|------------------------|
E|-----------------|------------------------|---------------------------|------------------------|


E|-5-----3---------|-2-----2------------|-2--------5---5---2--------|-----------------------3---|
B|-5-----3---------|-3-----3------------|-3---3----3---3---3----3---|-3----3----3---5-------3---|
G|-6-----4---------|-2-----2---4--------|-----2------------2--------|------4----4---4-------4---|
D|-7-----5---------|-0-----0------------|---------------------------|------5----5---5-------5---|
A|-----------------|--------------------|---------------------------|---------------------------|
E|-----------------|--------------------|---------------------------|---------------------------|


E|-3---3--------3---------|---------------------------|------------------------|-----5-------5---5---5--------|
B|-3---3---5----3----5----|---------------3-------3---|-3---3---3----3---------|-----5-------7---7---5--------|
G|-4---4---4----4----4----|------2----2---2---4---2---|-2---2---4----2----4----|-----6-------6---6---6--------|
D|-5---5---5----5----5----|------0----0-----------0---|-0------------0---------|------------------------------|
A|------------------------|---------------------------|------------------------|------------------------------|
E|------------------------|---------------------------|------------------------|------------------------------|


E|-----3-------3---3---3-----------|-----------------------------2---|-2-------------------------------|
B|-----3-------5---5---3-----------|-----3-------3-------3---3---3---|-3---3---3---3---3---3---3---3---|
G|-----4-------4---4---4-----------|---------4---2-------2---4---2---|-2---2---4---2---2---2---4---2---|
D|-----------------------------3---|-4-------------------------------|---------------------------------|
A|---------------------------------|---------------------------------|---------------------------------|
E|---------------------------------|---------------------------------|---------------------------------|


E|--------|--------|----------10--10-----------|--------|-------------5---5------------|
B|--------|--------|------12----------12-------|--------|-7-------------------7----7---|
G|--------|--------|------12----------12-------|--------|-7-------------------7----7---|
D|--------|--------|---------------------------|--------|-7---9---9--------------------|
A|--------|--------|---------------------------|--------|------------------------------|
E|--------|--------|---------------------------|--------|------------------------------|


E|--------|----------10--10--------------|--------|-------------5---5------------|
B|--------|------12----------12--12------|--------|-7-------------------7----7---|
G|--------|------12----------12--12------|--------|-7-------------------7----7---|
D|--------|------------------------------|--------|-7---9---9--------------------|
A|--------|------------------------------|--------|------------------------------|
E|--------|------------------------------|--------|------------------------------|


E|--------|----------10--10--------------|--------|-------------5---5------------|
B|--------|------12----------12--12------|--------|-7-------------------7----7---|
G|--------|------12----------12--12------|--------|-7-------------------7----7---|
D|--------|------------------------------|--------|-7---9---9--------------------|
A|--------|------------------------------|--------|------------------------------|
E|--------|------------------------------|--------|------------------------------|


E|--------|----------10--10--------------|--------|--------|----------10--10-----------|
B|--------|------12----------12--12------|--------|--------|------12----------12-------|
G|--------|------12----------12--12------|--------|--------|------12----------12-------|
D|--------|------------------------------|--------|--------|---------------------------|
A|--------|------------------------------|--------|--------|---------------------------|
E|--------|------------------------------|--------|--------|---------------------------|


E|--------|----------5---5------------|--------|--------|--------|--------|--------|
B|--------|-7----------------7----7---|--------|--------|--------|--------|--------|
G|--------|-7----------------7----7---|--------|--------|--------|--------|--------|
D|--------|-7---9---------------------|--------|--------|--------|--------|--------|
A|--------|---------------------------|--------|--------|--------|--------|--------|
E|--------|---------------------------|--------|--------|--------|--------|--------|


E|---------------------------|---------------------------------|-----------------|
B|------3----3---------------|-----3---3-----------------------|-----------------|
G|---------------4-----------|-------------4---4---2---2-------|-----------------|
D|-----------------------3---|-4---------------------------3---|-0---------------|
A|---------------------------|---------------------------------|-----------------|
E|---------------------------|---------------------------------|-----------------|


E|--------|--------|--------|--------|--------|
B|--------|--------|--------|--------|--------|
G|--------|--------|--------|--------|--------|
D|--------|--------|--------|--------|--------|
A|--------|--------|--------|--------|--------|
E|--------|--------|--------|--------|--------|





Track 3: Stu Cook - Bass

G|-----------------|-------------|---------------------|---------------------|-----------------|
D|-----------------|-------------|---------------------|---------------------|-----------------|
A|-5----5-----5----|-------------|-5---------5---------|-5---------5---------|-5----5-----5----|
E|-----------------|-5-----3-----|---------------------|---------------------|-----------------|


G|-------------|---------------------|---------------------|-----------------|-------------|
D|-------------|---------------------|---------------------|-----------------|-------------|
A|-------------|-5---------5---------|-5---------5---------|-5----5-----5----|-------------|
E|-5-----3-----|---------------------|---------------------|-----------------|-5-----3-----|


G|---------------------|---------------------|-----------------|-------------|---------------------|
D|---------------------|---------------------|-----------------|-------------|---------------------|
A|-5---------5---------|-5---------5---------|-5----5-----5----|-------------|-5---------5---------|
E|---------------------|---------------------|-----------------|-5-----3-----|---------------------|


G|---------------------|-----------------|-------------|---------------------|---------------------|
D|---------------------|-----------------|-------------|---------------------|---------------------|
A|-5---------5---------|-5----5-----5----|-------------|-5---------5---------|-5---------5---------|
E|---------------------|-----------------|-5-----3-----|---------------------|---------------------|


G|---------------------|---------------------|---------------------|---------------------|
D|---------------------|---------------------|---------------------|---------------------|
A|---------------------|---------------------|-5---------5---------|-5---------5---------|
E|-3---------3---------|-3---------3---------|---------------------|---------------------|


G|---------------------|---------------------|---------------------|---------------------|
D|---------------------|---------------------|---------------------|---------------------|
A|---------------------|---------------------|-5---------5---------|-5---------5---------|
E|-5---------5---------|-3---------3---------|---------------------|---------------------|


G|-----------------|-------------|---------------------|---------------------|-----------------|
D|-----------------|-------------|---------------------|---------------------|-----------------|
A|-5----5-----5----|-------------|-5---------5---------|-5---------5---------|-5----5-----5----|
E|-----------------|-5-----3-----|---------------------|---------------------|-----------------|


G|-------------|---------------------|---------------------|-----------------|-------------|
D|-------------|---------------------|---------------------|-----------------|-------------|
A|-------------|-5---------5---------|-5---------5---------|-5----5-----5----|-------------|
E|-5-----3-----|---------------------|---------------------|-----------------|-5-----3-----|


G|---------------------|---------------------|-----------------|-------------|---------------------|
D|---------------------|---------------------|-----------------|-------------|---------------------|
A|-5---------5---------|-5---------5---------|-5----5-----5----|-------------|-5---------5---------|
E|---------------------|---------------------|-----------------|-5-----3-----|---------------------|


G|---------------------|---------------------|---------------------|---------------------|
D|---------------------|---------------------|---------------------|---------------------|
A|-5---------5---------|---------------------|---------------------|-5---------5---------|
E|---------------------|-3---------3---------|-3---------3---------|---------------------|


G|---------------------|---------------------|---------------------|---------------------|
D|---------------------|---------------------|---------------------|---------------------|
A|-5---------5---------|---------------------|---------------------|-5---------5---------|
E|---------------------|-5---------5---------|-3---------3---------|---------------------|


G|---------------------|-----------------|-------------|---------------------|---------------------|
D|---------------------|-----------------|-------------|---------------------|---------------------|
A|-5---------5---------|-5----5-----5----|-------------|-5---------5---------|-5---------5---------|
E|---------------------|-----------------|-5-----3-----|---------------------|---------------------|


G|-----------------|-------------|---------------------|---------------------|---------------------|
D|-----------------|-------------|---------------------|---------------------|---------------------|
A|-5----5-----5----|-------------|-5---------5---------|-5---------5---------|---------------------|
E|-----------------|-5-----3-----|---------------------|---------------------|-3---------3---------|


G|---------------------|---------------------|---------------------|---------------------|
D|---------------------|---------------------|---------------------|---------------------|
A|---------------------|-5---------5---------|-5---------5---------|---------------------|
E|-3---------3---------|---------------------|---------------------|-5---------5---------|


G|---------------------|---------------------|---------------------|-----------------|
D|---------------------|---------------------|---------------------|-----------------|
A|---------------------|-5---------5---------|-5---------5---------|-5----5-----5----|
E|-3---------3---------|---------------------|---------------------|-----------------|


G|-------------|---------------------|---------------------|-----------------|-------------|
D|-------------|---------------------|---------------------|-----------------|-------------|
A|-------------|-5---------5---------|-5---------5---------|-5----5-----5----|-------------|
E|-5-----3-----|---------------------|---------------------|-----------------|-5-----3-----|


G|---------------------|---------------------|-----------------|-------------|---------------------|
D|---------------------|---------------------|-----------------|-------------|---------------------|
A|-5---------5---------|-5---------5---------|-5----5-----5----|-------------|-5---------5---------|
E|---------------------|---------------------|-----------------|-5-----3-----|---------------------|


G|---------------------|-----------------|-------------|---------------------|---------------------|
D|---------------------|-----------------|-------------|---------------------|---------------------|
A|-5---------5---------|-5----5-----5----|-------------|-5---------5---------|-5---------5---------|
E|---------------------|-----------------|-5-----3-----|---------------------|---------------------|


G|---------------------|---------------------|---------------------|---------------------|
D|---------------------|---------------------|---------------------|---------------------|
A|---------------------|---------------------|-5---------5---------|-5---------5---------|
E|-3---------3---------|-3---------3---------|---------------------|---------------------|


G|---------------------|---------------------|---------------------|---------------------|
D|---------------------|---------------------|---------------------|---------------------|
A|---------------------|---------------------|-5---------5---------|-5---------5---------|
E|-5---------5---------|-3---------3---------|---------------------|---------------------|


G|---------------------|---------------------|---------------------|---------------------|
D|---------------------|---------------------|---------------------|---------------------|
A|---------------------|---------------------|-5---------5---------|-5---------5---------|
E|-3---------3---------|-3---------3---------|---------------------|---------------------|


G|---------------------|---------------------|---------------------|--------|--------|
D|---------------------|---------------------|---------------------|--------|--------|
A|---------------------|---------------------|-5---------5---------|-5------|-5------|
E|-5---------5---------|-3---------3---------|---------------------|--------|--------|