Menu:

 

Search:

 

cougar - 24:

 



Title: 24
Artist: 
Album: 
Author: Will McCracken


Track 1: Main Guitar

E|---------------------------------|---------------------------------|---------------------------------|
B|---------------------------------|---------------------------------|---------------------------------|
G|-5---5---5---5---5---5---5---5---|-5---5---5---5---5---5---5---5---|-5---5---5---5---5---5---5---5---|
D|-5---5---5---5---5---5---5---5---|-2---2---2---2---3---3---3---3---|-5---5---5---5---5---5---5---5---|
A|-3---3---3---3---3---3---3---3---|-3---3---3---3---3---3---3---3---|-3---3---3---3---3---3---3---3---|
E|---------------------------------|---------------------------------|-5---5---5---5---5---5---5---5---|


E|---------------------------------|---------------------------------|---------------------------------|
B|---------------------------------|---------------------------------|---------------------------------|
G|-5---5---5---5---5---5---5---5---|-5---5---5---5---5---5---5---5---|-5---5---5---5---5---5---5---5---|
D|-2---2---2---2---3---3---3---3---|-5---5---5---5---5---5---5---5---|-2---2---2---2---3---3---3---3---|
A|-3---3---3---3---3---3---3---3---|-3---3---3---3---3---3---3---3---|-3---3---3---3---3---3---3---3---|
E|-5---5---5---5---5---5---5---5---|-3---3---3---3---3---3---3---3---|-3---3---3---3---3---3---3---3---|


E|---------------------------------|---------------------------------|---------------------------------|
B|---------------------------------|---------------------------------|---------------------------------|
G|-5---5---5---5---5---5---5---5---|-5---5---5---5---5---5---5---5---|-5---5---5---5---5---5---5---5---|
D|-5---5---5---5---5---5---5---5---|-5---5---5---5---5---5---5---5---|-5---5---5---5---5---5---5---5---|
A|-3---3---3---3---3---3---3---3---|-2---2---2---2---2---2---2---2---|-3---3---3---3---3---3---3---3---|
E|-1---1---1---1---1---1---1---1---|-3---3---3---3---3---3---3---3---|---------------------------------|


E|---------------------------------|---------------------------------|---------------------------------|
B|---------------------------------|---------------------------------|---------------------------------|
G|-5---5---5---5---5---5---5---5---|-5---5---5---5---5---5---5---5---|-5---5---5---5---5---5---5---5---|
D|-2---2---2---2---3---3---3---3---|-5---5---5---5---5---5---5---5---|-2---2---2---2---3---3---3---3---|
A|-3---3---3---3---3---3---3---3---|-3---3---3---3---3---3---3---3---|-3---3---3---3---3---3---3---3---|
E|---------------------------------|-5---5---5---5---5---5---5---5---|-5---5---5---5---5---5---5---5---|


E|---------------------------------|---------------------------------|---------------------------------|
B|---------------------------------|---------------------------------|---------------------------------|
G|-5---5---5---5---5---5---5---5---|-5---5---5---5---5---5---5---5---|-5---5---5---5---5---5---5---5---|
D|-5---5---5---5---5---5---5---5---|-2---2---2---2---3---3---3---3---|-5---5---5---5---5---5---5---5---|
A|-3---3---3---3---3---3---3---3---|-3---3---3---3---3---3---3---3---|-3---3---3---3---3---3---3---3---|
E|-3---3---3---3---3---3---3---3---|-3---3---3---3---3---3---3---3---|-1---1---1---1---1---1---1---1---|


E|---------------------------------|---------------------------------|---------------------------------|
B|---------------------------------|---------------------------------|---------------------------------|
G|-5---5---5---5---5---5---5---5---|-5---5---5---5---5---5---5---5---|-5---5---5---5---5---5---5---5---|
D|-5---5---5---5---5---5---5---5---|---------------------------------|---------------------------------|
A|-2---2---2---2---2---2---2---2---|-3---3---3---3---3---3---3---3---|-3---3---3---3---5---5---5---5---|
E|-3---3---3---3---3---3---3---3---|---------------------------------|-----------------3---3---3---3---|


E|---------------------------------|---------------------------------|---------------------------------|
B|---------------------------------|---------------------------------|---------------------------------|
G|-5---5---5---5---5---5---5---5---|-5---5---5---5---5---5---5---5---|-5---5---5---5---5---5---5---5---|
D|---------------------------------|---------------------------------|---------------------------------|
A|-3---3---3---3---3---3---3---3---|-3---3---3---3---5---5---5---5---|-3---3---3---3---3---3---3---3---|
E|-5---5---5---5---5---5---5---5---|-5---5---5---5---3---3---3---3---|---------------------------------|


E|---------------------------------|---------------------------------|---------------------------------|
B|---------------------------------|---------------------------------|---------------------------------|
G|-5---5---5---5---5---5---5---5---|-5---5---5---5---5---5---5---5---|-5---5---5---5---5---5---5---5---|
D|---------------------------------|---------------------------------|---------------------------------|
A|-3---3---3---3---5---5---5---5---|-3---3---3---3---3---3---3---3---|-3---3---3---3---5---5---5---5---|
E|-----------------3---3---3---3---|-5---5---5---5---5---5---5---5---|-5---5---5---5---3---3---3---3---|


E|---------------------------------|---------------------------------|---------------------------------|
B|---------------------------------|---------------------------------|---------------------------------|
G|-5---5---5---5---5---5---5---5---|-5---5---5---5---5---5---5---5---|-5---5---5---5---5---5---5---5---|
D|---------------------------------|---------------------------------|---------------------------------|
A|-3---3---3---3---3---3---3---3---|-3---3---3---3---5---5---5---5---|-3---3---3---3---3---3---3---3---|
E|-1---1---1---1---1---1---1---1---|-1---1---1---1---3---3---3---3---|-1---1---1---1---1---1---1---1---|


E|---------------------------------|---------------------------------|---------------------------------|
B|---------------------------------|---------------------------------|---------------------------------|
G|-5---5---5---5---5---5---5---5---|-5---5---5---5---5---5---5---5---|-5---5---5---5---5---5---5---5---|
D|---------------------------------|---------------------------------|---------------------------------|
A|-3---3---3---3---5---5---5---5---|-3---3---3---3---3---3---3---3---|-5---5---5---5---5---5---5---5---|
E|-1---1---1---1---3---3---3---3---|-5---5---5---5---5---5---5---5---|-3---3---3---3---3---3---3---3---|


E|---------------------------------|---------------------------------|---------------------------------|
B|---------------------------------|---------------------------------|---------------------------------|
G|-5---5---5---5---5---5---5---5---|-5---5---5---5---5---5---5---5---|-5---5---5---5---5---5---5---5---|
D|---------------------------------|---------------------------------|---------------------------------|
A|-3---3---3---3---3---3---3---3---|-2---2---2---2---2---2---2---2---|-3---3---3---3---3---3---3---3---|
E|-1---1---1---1---1---1---1---1---|-3---3---3---3---3---3---3---3---|-5---5---5---5---5---5---5---5---|


E|---------------------------------|---------------------------------|---------------------------------|
B|---------------------------------|---------------------------------|---------------------------------|
G|-5---5---5---5---5---5---5---5---|-5---5---5---5---5---5---5---5---|-5---5---5---5---5---5---5---5---|
D|---------------------------------|---------------------------------|---------------------------------|
A|-5---5---5---5---5---5---5---5---|-3---3---3---3---3---3---3---3---|-2---2---2---2---2---2---2---2---|
E|-3---3---3---3---3---3---3---3---|-1---1---1---1---1---1---1---1---|-3---3---3---3---3---3---3---3---|


E|---------------------------------|---------------------------------|---------------------------------|
B|---------------------------------|---------------------------------|---------------------------------|
G|-5---5---5---5---5---5---5---5---|-5---5---5---5---5---5---5---5---|-5---5---5---5---5---5---5---5---|
D|-5---5---5---5---5---5---5---5---|-2---2---2---2---3---3---3---3---|-5---5---5---5---5---5---5---5---|
A|-3---3---3---3---3---3---3---3---|-3---3---3---3---3---3---3---3---|-3---3---3---3---3---3---3---3---|
E|---------------------------------|---------------------------------|-5---5---5---5---5---5---5---5---|


E|---------------------------------|---------------------------------|---------------------------------|
B|---------------------------------|---------------------------------|---------------------------------|
G|-5---5---5---5---5---5---5---5---|-5---5---5---5---5---5---5---5---|-5---5---5---5---5---5---5---5---|
D|-2---2---2---2---3---3---3---3---|-5---5---5---5---5---5---5---5---|-2---2---2---2---3---3---3---3---|
A|-3---3---3---3---3---3---3---3---|-3---3---3---3---3---3---3---3---|-3---3---3---3---3---3---3---3---|
E|-5---5---5---5---5---5---5---5---|-3---3---3---3---3---3---3---3---|-3---3---3---3---3---3---3---3---|


E|---------------------------------|---------------------------------|---------------------------------|
B|---------------------------------|---------------------------------|---------------------------------|
G|-5---5---5---5---5---5---5---5---|-5---5---5---5---5---5---5---5---|-5---5---5---5---5---5---5---5---|
D|-5---5---5---5---5---5---5---5---|-5---5---5---5---5---5---5---5---|-5---5---5---5---5---5---5---5---|
A|-3---3---3---3---3---3---3---3---|-2---2---2---2---2---2---2---2---|-3---3---3---3---3---3---3---3---|
E|-1---1---1---1---1---1---1---1---|-3---3---3---3---3---3---3---3---|---------------------------------|


E|---------------------------------|---------------------------------|---------------------------------|
B|---------------------------------|---------------------------------|---------------------------------|
G|-5---5---5---5---5---5---5---5---|-5---5---5---5---5---5---5---5---|-5---5---5---5---5---5---5---5---|
D|-2---2---2---2---3---3---3---3---|-5---5---5---5---5---5---5---5---|-2---2---2---2---3---3---3---3---|
A|-3---3---3---3---3---3---3---3---|-3---3---3---3---3---3---3---3---|-3---3---3---3---3---3---3---3---|
E|---------------------------------|-5---5---5---5---5---5---5---5---|-5---5---5---5---5---5---5---5---|


E|---------------------------------|---------------------------------|---------------------------------|
B|---------------------------------|---------------------------------|---------------------------------|
G|-5---5---5---5---5---5---5---5---|-5---5---5---5---5---5---5---5---|-5---5---5---5---5---5---5---5---|
D|-5---5---5---5---5---5---5---5---|-2---2---2---2---3---3---3---3---|-5---5---5---5---5---5---5---5---|
A|-3---3---3---3---3---3---3---3---|-3---3---3---3---3---3---3---3---|-3---3---3---3---3---3---3---3---|
E|-3---3---3---3---3---3---3---3---|-3---3---3---3---3---3---3---3---|-1---1---1---1---1---1---1---1---|


E|---------------------------------|---------------------------------|---------------------------------|
B|---------------------------------|---------------------------------|---------------------------------|
G|-5---5---5---5---5---5---5---5---|-5---5---5---5---5---5---5---5---|-5---5---5---5---5---5---5---5---|
D|-5---5---5---5---5---5---5---5---|-5---5---5---5---5---5---5---5---|-5---5---5---5---5---5---5---5---|
A|-2---2---2---2---2---2---2---2---|-3---3---3---3---3---3---3---3---|-5---5---5---5---7---7---7---7---|
E|-3---3---3---3---3---3---3---3---|---------------------------------|---------------------------------|


E|---------------------------------|---------------------------------|---------------------------------|
B|---------------------------------|---------------------------------|---------------------------------|
G|-5---5---5---5---5---5---5---5---|-5---5---5---5---5---5---5---5---|-5---5---5---5---5---5---5---5---|
D|-5---5---5---5---5---5---5---5---|-5---5---5---5---5---5---5---5---|-5---5---5---5---5---5---5---5---|
A|---------------------------------|---------------------------------|-3---3---3---3---3---3---3---3---|
E|-5---5---5---5---5---5---5---5---|-1---1---1---1---1---1---1---1---|---------------------------------|


E|---------------------------------|---------------------------------|--------|---------------------------------|
B|---------------------------------|---------------------------------|--------|---------------------------------|
G|-5---5---5---5---5---5---5---5---|-5---5---5---5---5---5---5---5---|-5------|-5---5---5---5---5---5---5---5---|
D|-5---5---5---5---5---5---5---5---|-5---5---5---5---5---5---5---5---|-5------|---------------------------------|
A|-5---5---5---5---7---7---7---7---|---------------------------------|--------|-3---3---3---3---3---3---3---3---|
E|---------------------------------|-5---5---5---5---5---5---5---5---|-1------|---------------------------------|


E|---------------------------------|---------------------------------|---------------------------------|
B|---------------------------------|---------------------------------|---------------------------------|
G|-5---5---5---5---5---5---5---5---|-5---5---5---5---5---5---5---5---|-5---5---5---5---5---5---5---5---|
D|---------------------------------|---------------------------------|---------------------------------|
A|-3---3---3---3---5---5---5---5---|-3---3---3---3---3---3---3---3---|-3---3---3---3---5---5---5---5---|
E|-----------------3---3---3---3---|-5---5---5---5---5---5---5---5---|-5---5---5---5---3---3---3---3---|


E|---------------------------------|---------------------------------|---------------------------------|
B|---------------------------------|---------------------------------|---------------------------------|
G|-5---5---5---5---5---5---5---5---|-5---5---5---5---5---5---5---5---|-5---5---5---5---5---5---5---5---|
D|---------------------------------|---------------------------------|---------------------------------|
A|-3---3---3---3---3---3---3---3---|-3---3---3---3---5---5---5---5---|-3---3---3---3---3---3---3---3---|
E|---------------------------------|-----------------3---3---3---3---|-5---5---5---5---5---5---5---5---|


E|---------------------------------|---------------------------------|---------------------------------|
B|---------------------------------|---------------------------------|---------------------------------|
G|-5---5---5---5---5---5---5---5---|-5---5---5---5---5---5---5---5---|-5---5---5---5---5---5---5---5---|
D|---------------------------------|---------------------------------|---------------------------------|
A|-3---3---3---3---5---5---5---5---|-3---3---3---3---3---3---3---3---|-3---3---3---3---5---5---5---5---|
E|-5---5---5---5---3---3---3---3---|-1---1---1---1---1---1---1---1---|-1---1---1---1---3---3---3---3---|


E|---------------------------------|---------------------------------|---------------------------------|
B|---------------------------------|---------------------------------|---------------------------------|
G|-5---5---5---5---5---5---5---5---|-5---5---5---5---5---5---5---5---|-5---5---5---5---5---5---5---5---|
D|---------------------------------|---------------------------------|---------------------------------|
A|-3---3---3---3---3---3---3---3---|-3---3---3---3---5---5---5---5---|-3---3---3---3---3---3---3---3---|
E|-1---1---1---1---1---1---1---1---|-1---1---1---1---3---3---3---3---|-5---5---5---5---5---5---5---5---|


E|---------------------------------|---------------------------------|---------------------------------|
B|---------------------------------|---------------------------------|---------------------------------|
G|-5---5---5---5---5---5---5---5---|-5---5---5---5---5---5---5---5---|-5---5---5---5---5---5---5---5---|
D|---------------------------------|---------------------------------|---------------------------------|
A|-5---5---5---5---5---5---5---5---|-3---3---3---3---3---3---3---3---|-2---2---2---2---2---2---2---2---|
E|-3---3---3---3---3---3---3---3---|-1---1---1---1---1---1---1---1---|-3---3---3---3---3---3---3---3---|


E|---------------------------------|---------------------------------|---------------------------------|
B|---------------------------------|---------------------------------|---------------------------------|
G|-5---5---5---5---5---5---5---5---|-5---5---5---5---5---5---5---5---|-5---5---5---5---5---5---5---5---|
D|---------------------------------|---------------------------------|---------------------------------|
A|-3---3---3---3---3---3---3---3---|-5---5---5---5---5---5---5---5---|-3---3---3---3---3---3---3---3---|
E|-5---5---5---5---5---5---5---5---|-3---3---3---3---3---3---3---3---|-1---1---1---1---1---1---1---1---|


E|---------------------------------|---------------------------------|---------------------------------|
B|---------------------------------|---------------------------------|---------------------------------|
G|-5---5---5---5---5---5---5---5---|-5---5---5---5---5---5---5---5---|-5---5---5---5---5---5---5---5---|
D|---------------------------------|-5---5---5---5---5---5---5---5---|-2---2---2---2---3---3---3---3---|
A|-2---2---2---2---2---2---2---2---|-3---3---3---3---3---3---3---3---|-3---3---3---3---3---3---3---3---|
E|-3---3---3---3---3---3---3---3---|---------------------------------|---------------------------------|


E|---------------------------------|---------------------------------|---------------------------------|
B|---------------------------------|---------------------------------|---------------------------------|
G|-5---5---5---5---5---5---5---5---|-5---5---5---5---5---5---5---5---|-5---5---5---5---5---5---5---5---|
D|-5---5---5---5---5---5---5---5---|-2---2---2---2---3---3---3---3---|-5---5---5---5---5---5---5---5---|
A|-3---3---3---3---3---3---3---3---|-3---3---3---3---3---3---3---3---|-3---3---3---3---3---3---3---3---|
E|-5---5---5---5---5---5---5---5---|-5---5---5---5---5---5---5---5---|-3---3---3---3---3---3---3---3---|


E|---------------------------------|---------------------------------|---------------------------------|
B|---------------------------------|---------------------------------|---------------------------------|
G|-5---5---5---5---5---5---5---5---|-5---5---5---5---5---5---5---5---|-5---5---5---5---5---5---5---5---|
D|-2---2---2---2---3---3---3---3---|-5---5---5---5---5---5---5---5---|-5---5---5---5---5---5---5---5---|
A|-3---3---3---3---3---3---3---3---|-3---3---3---3---3---3---3---3---|-2---2---2---2---2---2---2---2---|
E|-3---3---3---3---3---3---3---3---|-1---1---1---1---1---1---1---1---|-3---3---3---3---3---3---3---3---|


E|---------------------------------|---------------------------------|---------------------------------|
B|---------------------------------|---------------------------------|---------------------------------|
G|-5---5---5---5---5---5---5---5---|-5---5---5---5---5---5---5---5---|-5---5---5---5---5---5---5---5---|
D|-5---5---5---5---5---5---5---5---|-2---2---2---2---3---3---3---3---|-5---5---5---5---5---5---5---5---|
A|-3---3---3---3---3---3---3---3---|-3---3---3---3---3---3---3---3---|-3---3---3---3---3---3---3---3---|
E|---------------------------------|---------------------------------|-5---5---5---5---5---5---5---5---|


E|---------------------------------|---------------------------------|---------------------------------|
B|---------------------------------|---------------------------------|---------------------------------|
G|-5---5---5---5---5---5---5---5---|-5---5---5---5---5---5---5---5---|-5---5---5---5---5---5---5---5---|
D|-2---2---2---2---3---3---3---3---|-5---5---5---5---5---5---5---5---|-2---2---2---2---3---3---3---3---|
A|-3---3---3---3---3---3---3---3---|-3---3---3---3---3---3---3---3---|-3---3---3---3---3---3---3---3---|
E|-5---5---5---5---5---5---5---5---|-3---3---3---3---3---3---3---3---|-3---3---3---3---3---3---3---3---|


E|---------------------------------|---------------------------------|---------------------------|
B|---------------------------------|---------------------------------|---------------------------|
G|-5---5---5---5---5---5---5---5---|-5---5---5---5---5---5---5---5---|-5---5----5---5----5---5---|
D|-5---5---5---5---5---5---5---5---|-5---5---5---5---5---5---5---5---|---------------------------|
A|-3---3---3---3---3---3---3---3---|-2---2---2---2---2---2---2---2---|-3---3----5---5----3---3---|
E|-1---1---1---1---1---1---1---1---|-3---3---3---3---3---3---3---3---|-5---5----3---3----1---1---|


E|--------|--------|
B|--------|--------|
G|-5------|-5------|
D|--------|--------|
A|-3------|-3------|
E|-1------|-1------|





Track 2: Backup

E|--------|--------|--------|--------|--------|--------|--------|--------|--------|
B|--------|--------|--------|--------|--------|--------|--------|--------|--------|
G|--------|--------|--------|--------|--------|--------|--------|--------|--------|
D|--------|--------|--------|--------|--------|--------|--------|--------|--------|
A|--------|--------|--------|--------|--------|--------|--------|--------|--------|
E|--------|--------|--------|--------|--------|--------|--------|--------|--------|


E|--------|--------|--------|--------|--------|--------|--------|---------------------------------|
B|--------|--------|--------|--------|--------|--------|--------|-8-----------8-----------8-------|
G|--------|--------|--------|--------|--------|--------|--------|---------------------------------|
D|--------|--------|--------|--------|--------|--------|--------|-----10--10------10--10------10--|
A|--------|--------|--------|--------|--------|--------|--------|---------------------------------|
E|--------|--------|--------|--------|--------|--------|--------|---------------------------------|


E|---------------------------------|---------------------------------|-------------------------------------|
B|---------8-----------------------|-8-----------8-----------8-------|---------8---------------------------|
G|-----------------9-------10------|---------------------------------|-----------------9-------9--10-9--9--|
D|-10--10------10------10------10--|-----10--10------10--10------10--|-10--10------10------10--------------|
A|---------------------------------|---------------------------------|-------------------------------------|
E|---------------------------------|---------------------------------|-------------------------------------|


E|---------------------------------|---------------------------------|---------------------------------|
B|-8-----------8-----------8-------|---------8-----------------------|-8-----------8-----------8-------|
G|---------------------------------|-----------------9-------10------|---------------------------------|
D|-----10--10------10--10------10--|-10--10------10------10------10--|-----10--10------10--10------10--|
A|---------------------------------|---------------------------------|---------------------------------|
E|---------------------------------|---------------------------------|---------------------------------|


E|-------------------------------------|---------------------------------|---------------------------------|
B|---------8---------------------------|---------------------------------|---------------------------------|
G|-----------------9-------9--10-9--9--|---------12----------12------12--|---------12--------------7-------|
D|-10--10------10------10--------------|-10--10------10--10------10------|-10--10------10--9---9-------9---|
A|-------------------------------------|---------------------------------|---------------------------------|
E|-------------------------------------|---------------------------------|---------------------------------|


E|---------------------------------|---------------------------------|----------------|
B|---------------------------------|---------------------------------|----------------|
G|---------12----------12------12--|---------12--------------7-------|-9---10--9------|
D|-10--10------10--10------10------|-10--10------10--9---9-------9---|----------------|
A|---------------------------------|---------------------------------|----------------|
E|---------------------------------|---------------------------------|----------------|


E|---------------------|-----------------|------------------------|----------------|
B|---------------------|-----------------|------------------------|----------------|
G|------7---5-----5----|-5----9----0-----|------5---4-----4---5---|-9---10--9------|
D|---------------------|-----------------|------------------------|----------------|
A|---------------------|-----------------|------------------------|----------------|
E|---------------------|-----------------|------------------------|----------------|


E|---------------------|-----------------|------------------------|---------------------------------|
B|---------------------|-----------------|------------------------|---------------------------------|
G|------7---5-----5----|-5----9----0-----|------5---4-----4---5---|-9---9---9---9-------------------|
D|---------------------|-----------------|------------------------|-----------------5---5---5---5---|
A|---------------------|-----------------|------------------------|-7---7---7---7---3---3---3---3---|
E|---------------------|-----------------|------------------------|---------------------------------|


E|---------------------------------|---------------------------------|---------------------------------|
B|---------------------------------|---------------------------------|---------------------------------|
G|---------------------------------|-9---9---9---9-------------------|---------------------------------|
D|-5---5---5---5---5---5---5---5---|-----------------5---5---5---5---|-5---5---5---5---5---5---5---5---|
A|-3---3---3---3---5---5---5---5---|-7---7---7---7---3---3---3---3---|-3---3---3---3---5---5---5---5---|
E|---------------------------------|---------------------------------|---------------------------------|


E|---------------------------------|---------------------------------|---------------------------------|
B|---------------------------------|---------------------------------|---------------------------------|
G|-12--12--12--12--10--10--10--10--|-9---9---9---9-------------------|-9---9---9---9-------------------|
D|---------------------------------|-----------------5---5---5---5---|-----------------5---5---5---5---|
A|-10--10--10--10--8---8---8---8---|-7---7---7---7---3---3---3---3---|-7---7---7---7---3---3---3---3---|
E|---------------------------------|---------------------------------|---------------------------------|


E|---------------------------------|---------------------------------|---------------------------------|
B|---------------------------------|---------------------------------|---------------------------------|
G|-----------------4---4---4-------|-9---9---9---9-------------------|---------------------------------|
D|-5---5---5---5---5---5---5---5---|-----------------5---5---5---5---|-5---5---5---5---5---5---5---5---|
A|-3---3---3---3---2---2---2---3---|-7---7---7---7---3---3---3---3---|-3---3---3---3---5---5---5---5---|
E|---------------------------------|---------------------------------|---------------------------------|


E|---------------------------------|---------------------------------|---------------------------------|
B|---------------------------------|---------------------------------|---------------------------------|
G|-9---9---9---9-------------------|---------------------------------|-12--12--12--12--10--10--10--10--|
D|-----------------5---5---5---5---|-5---5---5---5---5---5---5---5---|---------------------------------|
A|-7---7---7---7---3---3---3---3---|-3---3---3---3---5---5---5---5---|-10--10--10--10--8---8---8---8---|
E|---------------------------------|---------------------------------|---------------------------------|


E|---------------------------------|---------------------------------|---------------------------------|
B|---------------------------------|---------------------------------|---------------------------------|
G|-9---9---9---9-------------------|-9---9---9---9-------------------|-----------------4---4---4-------|
D|-----------------5---5---5---5---|-----------------5---5---5---5---|-5---5---5---5---5---5---5---5---|
A|-7---7---7---7---3---3---3---3---|-7---7---7---7---3---3---3---3---|-3---3---3---3---2---2---2---3---|
E|---------------------------------|---------------------------------|---------------------------------|


E|--------|--------|--------|--------|--------|--------|--------|--------|---------------------------------|
B|--------|--------|--------|--------|--------|--------|--------|--------|-8-----------8-----------8-------|
G|--------|--------|--------|--------|--------|--------|--------|--------|---------------------------------|
D|--------|--------|--------|--------|--------|--------|--------|--------|-----10--10------10--10------10--|
A|--------|--------|--------|--------|--------|--------|--------|--------|---------------------------------|
E|--------|--------|--------|--------|--------|--------|--------|--------|---------------------------------|


E|---------------------------------|---------------------------------|-------------------------------------|
B|---------8-----------------------|-8-----------8-----------8-------|---------8---------------------------|
G|-----------------9-------10------|---------------------------------|-----------------9-------9--10-9--9--|
D|-10--10------10------10------10--|-----10--10------10--10------10--|-10--10------10------10--------------|
A|---------------------------------|---------------------------------|-------------------------------------|
E|---------------------------------|---------------------------------|-------------------------------------|


E|---------------------------------|---------------------------------|---------------------------------|
B|-8-----------8-----------8-------|---------8-----------------------|-8-----------8-----------8-------|
G|---------------------------------|-----------------9-------10------|---------------------------------|
D|-----10--10------10--10------10--|-10--10------10------10------10--|-----10--10------10--10------10--|
A|---------------------------------|---------------------------------|---------------------------------|
E|---------------------------------|---------------------------------|---------------------------------|


E|-------------------------------------|---------------------------------|---------------------------------|
B|---------8---------------------------|---------------------------------|---------------------------------|
G|-----------------9-------9--10-9--9--|---------12----------12------12--|---------12--------------7-------|
D|-10--10------10------10--------------|-10--10------10--10------10------|-10--10------10--9---9-------9---|
A|-------------------------------------|---------------------------------|---------------------------------|
E|-------------------------------------|---------------------------------|---------------------------------|


E|---------------------------------|---------------------------------|--------------------|
B|---------------------------------|---------------------------------|--------------------|
G|---------12----------12------12--|---------12--------------7-------|-9----0---5-----5---|
D|-10--10------10--10------10------|-10--10------10--9---9-------9---|--------------------|
A|---------------------------------|---------------------------------|--------------------|
E|---------------------------------|---------------------------------|--------------------|


E|------------------------------|--------------------|------------------------|--------------------|
B|------------------------------|--------------------|------------------------|--------------------|
G|------7---5---7---5---7---7---|-9----0---5-----5---|-5---4----4---5----2----|-9----0---5-----5---|
D|------------------------------|--------------------|------------------------|--------------------|
A|------------------------------|--------------------|------------------------|--------------------|
E|------------------------------|--------------------|------------------------|--------------------|


E|------------------------------|--------------------|------------------------|--------|
B|------------------------------|--------------------|------------------------|--------|
G|------7---5---7---5---7---7---|-9----0---5-----5---|-5---4----4---5----2----|--------|
D|------------------------------|--------------------|------------------------|--------|
A|------------------------------|--------------------|------------------------|--------|
E|------------------------------|--------------------|------------------------|--------|


E|--------|--------|--------|--------|--------|--------|--------|---------------------------------|
B|--------|--------|--------|--------|--------|--------|--------|-8-----------8-----------8-------|
G|--------|--------|--------|--------|--------|--------|--------|---------------------------------|
D|--------|--------|--------|--------|--------|--------|--------|-----10--10------10--10------10--|
A|--------|--------|--------|--------|--------|--------|--------|---------------------------------|
E|--------|--------|--------|--------|--------|--------|--------|---------------------------------|


E|---------------------------------|---------------------------------|-------------------------------------|
B|---------8-----------------------|-8-----------8-----------8-------|---------8---------------------------|
G|-----------------9-------10------|---------------------------------|-----------------9-------9--10-9--9--|
D|-10--10------10------10------10--|-----10--10------10--10------10--|-10--10------10------10--------------|
A|---------------------------------|---------------------------------|-------------------------------------|
E|---------------------------------|---------------------------------|-------------------------------------|


E|---------------------------------|---------------------------------|---------------------------------|
B|-8-----------8-----------8-------|---------8-----------------------|-8-----------8-----------8-------|
G|---------------------------------|-----------------9-------10------|---------------------------------|
D|-----10--10------10--10------10--|-10--10------10------10------10--|-----10--10------10--10------10--|
A|---------------------------------|---------------------------------|---------------------------------|
E|---------------------------------|---------------------------------|---------------------------------|


E|-------------------------------------|--------|--------|--------|
B|---------8---------------------------|--------|--------|--------|
G|-----------------9-------9--10-9--9--|--------|--------|--------|
D|-10--10------10------10--------------|--------|--------|--------|
A|-------------------------------------|--------|--------|--------|
E|-------------------------------------|--------|--------|--------|





Track 3: Main Guitar

E|--------|--------|--------|--------|--------|--------|--------|--------|--------|
B|--------|--------|--------|--------|--------|--------|--------|--------|--------|
G|--------|--------|--------|--------|--------|--------|--------|--------|--------|
D|--------|--------|--------|--------|--------|--------|--------|--------|--------|
A|--------|--------|--------|--------|--------|--------|--------|--------|--------|
E|--------|--------|--------|--------|--------|--------|--------|--------|--------|


E|--------|--------|--------|--------|--------|--------|--------|--------|--------|
B|--------|--------|--------|--------|--------|--------|--------|--------|--------|
G|--------|--------|--------|--------|--------|--------|--------|--------|--------|
D|--------|--------|--------|--------|--------|--------|--------|--------|--------|
A|--------|--------|--------|--------|--------|--------|--------|--------|--------|
E|--------|--------|--------|--------|--------|--------|--------|--------|--------|


E|--------|--------|--------|--------|--------|--------|--------|--------|--------|
B|--------|--------|--------|--------|--------|--------|--------|--------|--------|
G|--------|--------|--------|--------|--------|--------|--------|--------|--------|
D|--------|--------|--------|--------|--------|--------|--------|--------|--------|
A|--------|--------|--------|--------|--------|--------|--------|--------|--------|
E|--------|--------|--------|--------|--------|--------|--------|--------|--------|


E|--------|--------|--------|--------|--------|--------|--------|--------|--------|
B|--------|--------|--------|--------|--------|--------|--------|--------|--------|
G|--------|--------|--------|--------|--------|--------|--------|--------|--------|
D|--------|--------|--------|--------|--------|--------|--------|--------|--------|
A|--------|--------|--------|--------|--------|--------|--------|--------|--------|
E|--------|--------|--------|--------|--------|--------|--------|--------|--------|


E|--------|--------|--------|--------|--------|--------|--------|--------|--------|
B|--------|--------|--------|--------|--------|--------|--------|--------|--------|
G|--------|--------|--------|--------|--------|--------|--------|--------|--------|
D|--------|--------|--------|--------|--------|--------|--------|--------|--------|
A|--------|--------|--------|--------|--------|--------|--------|--------|--------|
E|--------|--------|--------|--------|--------|--------|--------|--------|--------|


E|--------|--------|--------|--------|--------|--------|--------|--------|-------------|
B|--------|--------|--------|--------|--------|--------|--------|--------|-------------|
G|--------|--------|--------|--------|--------|--------|--------|--------|-------------|
D|--------|--------|--------|--------|--------|--------|--------|-10-----|-10----10----|
A|--------|--------|--------|--------|--------|--------|--------|--------|-------7-----|
E|--------|--------|--------|--------|--------|--------|--------|-8------|-10----------|


E|--------|--------|--------|-------------|--------|--------|--------|--------|--------|
B|--------|--------|--------|-------------|--------|--------|--------|--------|--------|
G|--------|--------|--------|-------------|--------|--------|--------|--------|--------|
D|-10-----|-10-----|-10-----|-10----10----|-10-----|-10-----|--------|--------|--------|
A|-10-----|--------|--------|-------7-----|-10-----|--------|--------|--------|--------|
E|--------|-8------|-8------|-10----------|--------|-8------|--------|--------|--------|


E|--------|--------|--------|--------|--------|--------|--------|--------|--------|
B|--------|--------|--------|--------|--------|--------|--------|--------|--------|
G|--------|--------|--------|--------|--------|--------|--------|--------|--------|
D|--------|--------|--------|--------|--------|--------|--------|--------|--------|
A|--------|--------|--------|--------|--------|--------|--------|--------|--------|
E|--------|--------|--------|--------|--------|--------|--------|--------|--------|


E|--------|--------|--------|--------|--------|--------|--------|--------|--------|
B|--------|--------|--------|--------|--------|--------|--------|--------|--------|
G|--------|--------|--------|--------|--------|--------|--------|--------|--------|
D|--------|--------|--------|--------|--------|--------|--------|--------|--------|
A|--------|--------|--------|--------|--------|--------|--------|--------|--------|
E|--------|--------|--------|--------|--------|--------|--------|--------|--------|


E|--------|--------|--------|--------|--------|--------|--------|--------|--------|
B|--------|--------|--------|--------|--------|--------|--------|--------|--------|
G|--------|--------|--------|--------|--------|--------|--------|--------|--------|
D|--------|--------|--------|--------|--------|--------|--------|--------|--------|
A|--------|--------|--------|--------|--------|--------|--------|--------|--------|
E|--------|--------|--------|--------|--------|--------|--------|--------|--------|


E|--------|--------|--------|--------|--------|--------|--------|--------|--------|
B|--------|--------|--------|--------|--------|--------|--------|--------|--------|
G|--------|--------|--------|--------|--------|--------|--------|--------|--------|
D|--------|--------|--------|--------|--------|--------|--------|--------|--------|
A|--------|--------|--------|--------|--------|--------|--------|--------|--------|
E|--------|--------|--------|--------|--------|--------|--------|--------|--------|





Track 4: Untitled

G|--------|--------|--------|--------|--------|--------|--------|--------|--------|
D|--------|--------|--------|--------|--------|--------|--------|--------|--------|
A|--------|--------|--------|--------|--------|--------|--------|--------|--------|
E|--------|--------|--------|--------|--------|--------|--------|--------|--------|


G|--------|--------|--------|--------|--------|--------|--------|--------|--------|
D|--------|--------|--------|--------|--------|--------|--------|--------|--------|
A|--------|--------|--------|--------|--------|--------|--------|--------|--------|
E|--------|--------|--------|--------|--------|--------|--------|--------|--------|


G|--------|--------|--------|--------|--------|--------|--------|--------|--------|
D|--------|--------|--------|--------|--------|--------|--------|--------|--------|
A|--------|--------|--------|--------|--------|--------|--------|--------|--------|
E|--------|--------|--------|--------|--------|--------|--------|--------|--------|


G|--------|--------|--------|--------|--------|--------|--------|--------|--------|
D|--------|--------|--------|--------|--------|--------|--------|--------|--------|
A|--------|--------|--------|--------|--------|--------|--------|--------|--------|
E|--------|--------|--------|--------|--------|--------|--------|--------|--------|


G|--------|--------|--------|--------|--------|--------|--------|--------|--------|
D|--------|--------|--------|--------|--------|--------|--------|--------|--------|
A|--------|--------|--------|--------|--------|--------|--------|--------|--------|
E|--------|--------|--------|--------|--------|--------|--------|--------|--------|


G|--------|--------|--------|--------|--------|--------|--------|--------|--------|
D|--------|--------|--------|--------|--------|--------|--------|--------|--------|
A|--------|--------|--------|--------|--------|--------|--------|--------|--------|
E|--------|--------|--------|--------|--------|--------|--------|--------|--------|


G|--------|--------|--------|--------|--------|--------|--------|--------|--------|
D|--------|--------|--------|--------|--------|--------|--------|--------|--------|
A|--------|--------|--------|--------|--------|--------|--------|--------|--------|
E|--------|--------|--------|--------|--------|--------|--------|--------|--------|


G|--------|--------|--------|--------|--------|--------|--------|--------|--------|
D|--------|--------|--------|--------|--------|--------|--------|--------|--------|
A|--------|--------|--------|--------|--------|--------|--------|--------|--------|
E|--------|--------|--------|--------|--------|--------|--------|--------|--------|


G|--------|--------|--------|--------|--------|--------|--------|--------|--------|
D|--------|--------|--------|--------|--------|--------|--------|--------|--------|
A|--------|--------|--------|--------|--------|--------|--------|--------|--------|
E|--------|--------|--------|--------|--------|--------|--------|--------|--------|


G|--------|--------|--------|--------|--------|--------|--------|--------|--------|
D|--------|--------|--------|--------|--------|--------|--------|--------|--------|
A|--------|--------|--------|--------|--------|--------|--------|--------|--------|
E|--------|--------|--------|--------|--------|--------|--------|--------|--------|


G|--------|--------|--------|--------|--------|--------|--------|--------|--------|
D|--------|--------|--------|--------|--------|--------|--------|--------|--------|
A|--------|--------|--------|--------|--------|--------|--------|--------|--------|
E|--------|--------|--------|--------|--------|--------|--------|--------|--------|