Menu:

 

Search:

 

cinderella - winds of change:

 



Title: Winds Of Change
Artist: 
Album: Heartbreak Station
Author: Tom Keifer


Track 1: Acoustic Guitar

D|-----------------------------------|-----------------------------------|-0---------0-----|
B|-----------------------------------|-----------------------------------|-1---------1-----|
G|---------0-------0--2--0-------0---|-0-----------0---0--2--0-------0---|-0---------0-----|
D|-----0-------0-------------0-------|---------0-----------------0-------|-2---------2-----|
G|-0---------------------------------|-----0-----------------------------|-------0---------|
E|-----------------------------------|-----------------------------------|-----------------|


D|-----------------------------------|-----------------------------------|-----------------------------------|
B|---------1-----------1-------------|-----------------------------------|-----------------------------------|
G|-----0-----------0-------------0---|---------0-------0--2--0-------0---|-0-----------0---0--2--0-------0---|
D|-3-----------2-----------0--2--0---|-----0-------0-------------0-------|---------0-----------------0-------|
G|-----------------------------------|-0---------------------------------|-----0-----------------------------|
E|-----------------------------------|-----------------------------------|-----------------------------------|


D|-0---------0-----|-----------------------------------|-----------------------------------|
B|-1---------1-----|---------1-----------1-------------|-----------------------------------|
G|-0---------0-----|-----0-----------0-------------0---|---------0-------0--2--0-------0---|
D|-2---------2-----|-3-----------2-----------0--2------|-----0-------0-------------0-------|
G|-------0---------|-----------------------------------|-0---------------------------------|
E|-----------------|-----------------------------------|-----------------------------------|


D|-----------------------------------|-0---------0-----|-----------------------------------|
B|-----------------------------------|-1---------1-----|---------1-----------1-------------|
G|-0-----------0---0--2--0-------0---|-0---------0-----|-----0-----------0-------------0---|
D|---------0-----------------0-------|-2---------2-----|-3-----------2-----------0--2------|
G|-----0-----------------------------|-------0---------|-----------------------------------|
E|-----------------------------------|-----------------|-----------------------------------|


D|-----------------------------------|-----------------------------------|-0---------0-----|
B|-----------------------------------|-----------------------------------|-1---------1-----|
G|---------0-------0--2--0-------0---|-0-----------0---0--2--0-------0---|-0---------0-----|
D|-----0-------0-------------0-------|---------0-----------------0-------|-2---------2-----|
G|-0---------------------------------|-----0-----------------------------|-------0---------|
E|-----------------------------------|-----------------------------------|-----------------|


D|-----------------------------------|-----------------------------------|-----------------------------------|
B|---------1-----------1-------------|-----------------------------------|-----------------------------------|
G|-----0-----------0-------------0---|---------0-------0--2--0-------0---|-0-----------0---0--2--0-------0---|
D|-3-----------2-----------0--2------|-----0-------0-------------0-------|---------0-----------------0-------|
G|-----------------------------------|-0---------------------------------|-----0-----------------------------|
E|-----------------------------------|-----------------------------------|-----------------------------------|


D|-0---------0-----|-----------------------------------|-----------------------------------|
B|-1---------1-----|---------1-----------1-------------|-----------------------------------|
G|-0---------0-----|-----0-----------0-------------0---|---------0-------0--2--0-------0---|
D|-2---------2-----|-3-----------2-----------0--2------|-----0-------0-------------0-------|
G|-------0---------|-----------------------------------|-0---------------------------------|
E|-----------------|-----------------------------------|-----------------------------------|


D|-----------------------------------|-0---------0-----|-----------------------------------|
B|-----------------------------------|-1---------1-----|---------1-----------1-------------|
G|-0-----------0---0--2--0-------0---|-0---------0-----|-----0-----------0-------------0---|
D|---------0-----------------0-------|-2---------2-----|-3-----------2-----------0--2------|
G|-----0-----------------------------|-------0---------|-----------------------------------|
E|-----------------------------------|-----------------|-----------------------------------|


D|-------------0----------------|-----------------------------------|-------------0----------------|
B|---------1--------1-----------|-----------------------------------|---------1--------1-----------|
G|-----0----------------0-------|---------0-------0--2--0-------0---|-----0----------------0-------|
D|-1------------------------1---|-----0-------0-------------0-------|-1------------------------1---|
G|------------------------------|-0---------------------------------|------------------------------|
E|------------------------------|-----------------------------------|------------------------------|


D|---------------------------------|-----------------------------------|-------------------0---------|
B|---------------------------------|-----------------------------------|-------------------1---------|
G|---------0---------------0-------|-0--2--0-------0---0-----------0---|-0--2--0-------0---0---------|
D|-----0---------------0-------0---|-----------0---------------0-------|-----------0-------2---------|
G|-------------0---0---------------|-----------------------0-----------|-------------------------0---|
E|-1-------------------------------|-----------------------------------|-----------------------------|


D|-0---------------------|-----------------------------------|-----------------------------------|
B|-1-------------1-------|-----1-----------------------------|-----------------------------------|
G|-0---------0-----------|-0-------------0-----------0-------|-0--2--0-------0---0-----------0---|
D|-2-----3-----------2---|---------0--2----------0-------0---|-----------0---------------0-------|
G|-----------------------|-------------------0---------------|-----------------------0-----------|
E|-----------------------|-----------------------------------|-----------------------------------|


D|-------------------0---------|-0---------------------|-----------------------------------|
B|-------------------1---------|-1-------------1-------|-----1-----------------------------|
G|-0--2--0-------0---0---------|-0---------0-----------|-0-------------0-----------0-------|
D|-----------0-------2---------|-2-----3-----------2---|---------0--2----------0-------0---|
G|-------------------------0---|-----------------------|-------------------0---------------|
E|-----------------------------|-----------------------|-----------------------------------|


D|-----------------------------------|-------------------0---------|-0---------------------|
B|-----------------------------------|-------------------1---------|-1-------------1-------|
G|-0--2--0-------0---0-----------0---|-0--2--0-------0---0---------|-0---------0-----------|
D|-----------0---------------0-------|-----------0-------2---------|-2-----3-----------2---|
G|-----------------------0-----------|-------------------------0---|-----------------------|
E|-----------------------------------|-----------------------------|-----------------------|


D|-----------------------------------|-----------------------------------|-------------------0---------|
B|-----1-----------------------------|-----------------------------------|-------------------1---------|
G|-0-------------0-----------0-------|-0--2--0-------0---0-----------0---|-0--2--0-------0---0---------|
D|---------0--2----------0-------0---|-----------0---------------0-------|-----------0-------2---------|
G|-------------------0---------------|-----------------------0-----------|-------------------------0---|
E|-----------------------------------|-----------------------------------|-----------------------------|


D|-0---------------------|-----------------------------------|-----------------------------------|
B|-1-------------1-------|-----1-----------------------------|-----------------------------------|
G|-0---------0-----------|-0-------------0-----------0-------|-0--2--0-------0---0-----------0---|
D|-2-----3-----------2---|---------0--2----------0-------0---|-----------0---------------0-------|
G|-----------------------|-------------------0---------------|-----------------------0-----------|
E|-----------------------|-----------------------------------|-----------------------------------|


D|-------------------0---------|-0---------------------|-----------------------------------|
B|-------------------1---------|-1-------------1-------|-----1-----------------------------|
G|-0--2--0-------0---0---------|-0---------0-----------|-0-------------0-----------0-------|
D|-----------0-------2---------|-2-----3-----------2---|---------0--2----------0-------0---|
G|-------------------------0---|-----------------------|-------------------0---------------|
E|-----------------------------|-----------------------|-----------------------------------|


D|-----------------------------------|-------------------0---------|-0---------------------|
B|-----------------------------------|-------------------1---------|-1-------------1-------|
G|-0--2--0-------0---0-----------0---|-0--2--0-------0---0---------|-0---------0-----------|
D|-----------0---------------0-------|-----------0-------2---------|-2-----3-----------2---|
G|-----------------------0-----------|-------------------------0---|-----------------------|
E|-----------------------------------|-----------------------------|-----------------------|


D|-------------------------------0---|---------------------------------|-------------------------------0---|
B|-----1---------------------1-------|-----1---------------------------|---------------------------1-------|
G|-0-------------0-------0-----------|---------0---------------0-------|-0--2--0-------0-------0-----------|
D|---------0--2------1---------------|-------------1-------0-------0---|-----------0-------1---------------|
G|-----------------------------------|-----------------0---------------|-----------------------------------|
E|-----------------------------------|---------------------------------|-----------------------------------|


D|---------------------------------|-------0---0---0---0---|-----0---0---0---0---0---0----|
B|-----1---------------------------|-------0---1---0---3---|-----1---0---5---5---3---1----|
G|---------0---------------0-------|-------0---0---0---0---|-----0---0---5---5---0---0----|
D|-------------1-------0-----------|-------0---2---0---4---|-----2---0---5---5---5---2----|
G|-----------------------------0---|-0---------------------|------------------------------|
E|-----------------1---------------|-----------------------|------------------------------|


D|-0-----0---0---0---0---|-----0---0----0---0---0---0---|-----0---0----0---0---0---0---|
B|-0-----0---1---0---3---|-----1---0----1---3---1---3---|-----0---1----0---1---0---3---|
G|-0-----0---0---0---0---|-----0---0----0---0---0---0---|-----0---0----0---0---0---0---|
D|-0-----0---2---0---4---|-----2---0--------5---2---5---|-----0---1----0---2---0---4---|
G|-----------------------|------------------------------|------------------------------|
E|-----------------------|------------------------------|------------------------------|


D|-----0---0---0---0---0---0----|-0-----0---0---0---0---|-----0---0--------------------|
B|-----1---0---5---5---3---1----|-0-----0---1---0---3---|-----1---0------------1-------|
G|-----0---0---5---5---0---0----|-0-----0---0---0---0---|-----0---0--------0-----------|
D|-----2---0---5---5---5---2----|-0-----0---2---0---4---|-----2---0----3-----------2---|
G|------------------------------|-----------------------|------------------------------|
E|------------------------------|-----------------------|------------------------------|


D|-----------------------------------|-5----------------------------|-5---0-------0-------------------|
B|-----1---------------------3-------|-----3----------------3-------|-------------------------1-------|
G|-0-------------0-------0-------0---|---------0--------0-------0---|---------0-----------2-------2---|
D|---------0--2----------------------|------------------------------|-----------------3---------------|
G|-------------------5---------------|--------------4---------------|---------------------------------|
E|-----------------------------------|------------------------------|---------------------------------|


D|-3-------------------------------|-----------------------------------|-5----------------------------|
B|-----1-------1-------------------|---------------------------3-------|-----3----------------3-------|
G|---------2---------------0-------|-0--2--0-------0-------0-------0---|---------0--------0-------0---|
D|---------------------0-------0---|-----------0-----------------------|------------------------------|
G|-----------------0---------------|-------------------5---------------|--------------4---------------|
E|---------------------------------|-----------------------------------|------------------------------|


D|-5---0-------0-------------------|-3-------------------------------|-------------------0---0---0---0---|
B|-------------------------1-------|-----1-------1-------------------|-------------------0---1---0---3---|
G|---------0-----------2-------2---|---------2---------------0-------|-0--2--0-------0---0---0---0---0---|
D|-----------------3---------------|---------------------0-------0---|-----------0-------0---2---0---4---|
G|---------------------------------|-----------------0---------------|-----------------------------------|
E|---------------------------------|---------------------------------|-----------------------------------|


D|-----0---0---0---0---0---0----|-0-----0---0---0---0---|-----0---0----0---0---0---0---|
B|-----1---0---5---5---3---1----|-0-----0---1---0---3---|-----1---0----1---3---1---3---|
G|-----0---0---5---5---0---0----|-0-----0---0---0---0---|-----0---0----0---0---0---0---|
D|-----2---0---5---5---5---2----|-0-----0---2---0---4---|-----2---0--------5---2---5---|
G|------------------------------|-----------------------|------------------------------|
E|------------------------------|-----------------------|------------------------------|


D|-----0---0----0---0---0---0---|-----0---0---0---0---0---0----|-0-----0---0---0---0---|
B|-----0---1----0---1---0---3---|-----1---0---5---5---3---1----|-0-----0---1---0---3---|
G|-----0---0----0---0---0---0---|-----0---0---5---5---0---0----|-0-----0---0---0---0---|
D|-----0---1----0---2---0---4---|-----2---0---5---5---5---2----|-0-----0---2---0---4---|
G|------------------------------|------------------------------|-----------------------|
E|------------------------------|------------------------------|-----------------------|


D|-----0---0--------------------|-----------------------------------|-5----------------------------|
B|-----1---0------------1-------|-----1---------------------3-------|-----3----------------3-------|
G|-----0---0--------0-----------|-0-------------0-------0-------0---|---------0--------0-------0---|
D|-----2---0----3-----------2---|---------0--2----------------------|------------------------------|
G|------------------------------|-------------------5---------------|--------------4---------------|
E|------------------------------|-----------------------------------|------------------------------|


D|-5---0-------0-------------------|-3-------------------------------|-----------------------------------|
B|-------------------------1-------|-----1-------1-------------------|---------------------------3-------|
G|---------0-----------2-------2---|---------2---------------0-------|-0--2--0-------0-------0-------0---|
D|-----------------3---------------|---------------------0-------0---|-----------0-----------------------|
G|---------------------------------|-----------------0---------------|-------------------5---------------|
E|---------------------------------|---------------------------------|-----------------------------------|


D|-5----------------------------|-5---0-------0-------------------|-3-------------------------------|
B|-----3----------------3-------|-------------------------1-------|-----1-------1-------------------|
G|---------0--------0-------0---|---------0-----------2-------2---|---------2---------------0-------|
D|------------------------------|-----------------3---------------|---------------------0-------0---|
G|--------------4---------------|---------------------------------|-----------------0---------------|
E|------------------------------|---------------------------------|---------------------------------|


D|-------------------0---0---0---0---|-----0---0---0---0---0---0----|-0-----0---0---0---0---|
B|-------------------0---1---0---3---|-----1---0---5---5---3---1----|-0-----0---1---0---3---|
G|-0--2--0-------0---0---0---0---0---|-----0---0---5---5---0---0----|-0-----0---0---0---0---|
D|-----------0-------0---2---0---4---|-----2---0---5---5---5---2----|-0-----0---2---0---4---|
G|-----------------------------------|------------------------------|-----------------------|
E|-----------------------------------|------------------------------|-----------------------|


D|-----0---0----0---0---0---0---|-----0---0----0---0---0---0---|-----0---0---0---0---0---0----|
B|-----1---0----1---3---1---3---|-----0---1----0---1---0---3---|-----1---0---5---5---3---1----|
G|-----0---0----0---0---0---0---|-----0---0----0---0---0---0---|-----0---0---5---5---0---0----|
D|-----2---0--------5---2---5---|-----0---1----0---2---0---4---|-----2---0---5---5---5---2----|
G|------------------------------|------------------------------|------------------------------|
E|------------------------------|------------------------------|------------------------------|


D|-0-----0---0---0---0---|-----0---0----0-----0---|------0----0-----0---|------0----0---0---0---0---|
B|-0-----0---1---0---3---|-----1---0----6-----6---|------6----5-----5---|------5----0---1---0---3---|
G|-0-----0---0---0---0---|-----0---0----0-----0---|------0----0-----0---|------0----0---0---0---0---|
D|-0-----0---2---0---4---|-----2---0----7-----7---|------7----5-----5---|------5----0---2---0---4---|
G|-----------------------|------------------------|---------------------|---------------------------|
E|-----------------------|------------------------|---------------------|---------------------------|


D|-----0---0---0---0---0--------|-------0---0---0---0---|-0---0---0----0-----0---|
B|-----1---0---5---5---3---1----|-0-----0---1---0---3---|-3---1---0----6-----6---|
G|-----0---0---5---5---0---0----|-0-----0---0---0---0---|-0---0---0----0-----0---|
D|-----2---0---5---5---5---2----|-0-----0---2---0---4---|-4---2---0----7-----7---|
G|------------------------------|-----------------------|------------------------|
E|------------------------------|-----------------------|------------------------|


D|------0----0-----0---|------0----0---0---0---0---|-----0---0---0---0---0---0----|
B|------6----5-----5---|------5----0---1---0---3---|-----1---0---5---5---3---1----|
G|------0----0-----0---|------0----0---0---0---0---|-----0---0---5---5---0---0----|
D|------7----5-----5---|------5----0---2---0---4---|-----2---0---5---5---5---2----|
G|---------------------|---------------------------|------------------------------|
E|---------------------|---------------------------|------------------------------|


D|-0-----0-----0---|------0----0-----0---|------0----0---0---0---0---|-----0---0---0---0---0---0----|
B|-0-----6-----6---|------6----5-----5---|------5----0---1---0---3---|-----1---0---5---5---3---1----|
G|-0-----0-----0---|------0----0-----0---|------0----0---0---0---0---|-----0---0---5---5---0---0----|
D|-0-----7-----7---|------7----5-----5---|------5----0---2---0---4---|-----2---0---5---5---5---2----|
G|-----------------|---------------------|---------------------------|------------------------------|
E|-----------------|---------------------|---------------------------|------------------------------|


D|-0-----0-----0---|------0----0-----0---|------0--------------------|-----------------------------------|
B|-0-----6-----6---|------6----5-----5---|------5--------------------|-----------------------------------|
G|-0-----0-----0---|------0----0-----0---|------0------------0-------|-0--2--0-------0---0-----------0---|
D|-0-----7-----7---|------7----5-----5---|------5--------0-------0---|-----------0---------------0-------|
G|-----------------|---------------------|-----------0---------------|-----------------------0-----------|
E|-----------------|---------------------|---------------------------|-----------------------------------|


D|-------------------0---------|-0---------------------|-----------------------------------|
B|-------------------1---------|-1-------------1-------|-----1-----------------------------|
G|-0--2--0-------0---0---------|-0---------0-----------|-0-------------0-----------0-------|
D|-----------0-------2---------|-2-----3-----------2---|---------0--2--0-------0-------0---|
G|-------------------------0---|-----------------------|-------------------0---------------|
E|-----------------------------|-----------------------|-----------------------------------|


D|-----------------------------------|-------------------0---------|-0---------------------|
B|-----------------------------------|-------------------1---------|-1-------------1-------|
G|-0--2--0-------0---0-----------0---|-0--2--0-------0---0---------|-0---------0-----------|
D|-----------0---------------0-------|-----------0-------2---------|-2-----3-----------2---|
G|-----------------------0-----------|-------------------------0---|-----------------------|
E|-----------------------------------|-----------------------------|-----------------------|


D|-------------------------|
B|-----1-------------------|
G|-0-------------0---------|
D|---------0--2--0---------|
G|-------------------------|
E|-------------------------|





Track 2: Electric Guitar

D|--------|--------|--------|--------|--------|--------|--------|--------|--------|
B|--------|--------|--------|--------|--------|--------|--------|--------|--------|
G|--------|--------|--------|--------|--------|--------|--------|--------|--------|
D|--------|--------|--------|--------|--------|--------|--------|--------|--------|
G|--------|--------|--------|--------|--------|--------|--------|--------|--------|
E|--------|--------|--------|--------|--------|--------|--------|--------|--------|


D|--------|--------|--------|--------|--------|--------|--------|--------|--------|
B|--------|--------|--------|--------|--------|--------|--------|--------|--------|
G|--------|--------|--------|--------|--------|--------|--------|--------|--------|
D|--------|--------|--------|--------|--------|--------|--------|--------|--------|
G|--------|--------|--------|--------|--------|--------|--------|--------|--------|
E|--------|--------|--------|--------|--------|--------|--------|--------|--------|


D|--------|--------|--------|--------|--------|--------|--------|--------|--------|
B|--------|--------|--------|--------|--------|--------|--------|--------|--------|
G|--------|--------|--------|--------|--------|--------|--------|--------|--------|
D|--------|--------|--------|--------|--------|--------|--------|--------|--------|
G|--------|--------|--------|--------|--------|--------|--------|--------|--------|
E|--------|--------|--------|--------|--------|--------|--------|--------|--------|


D|--------|--------|--------|--------|--------|--------|--------|--------|--------|
B|--------|--------|--------|--------|--------|--------|--------|--------|--------|
G|--------|--------|--------|--------|--------|--------|--------|--------|--------|
D|--------|--------|--------|--------|--------|--------|--------|--------|--------|
G|--------|--------|--------|--------|--------|--------|--------|--------|--------|
E|--------|--------|--------|--------|--------|--------|--------|--------|--------|


D|--------|--------|--------|--------|--------|--------|--------|--------|--------|
B|--------|--------|--------|--------|--------|--------|--------|--------|--------|
G|--------|--------|--------|--------|--------|--------|--------|--------|--------|
D|--------|--------|--------|--------|--------|--------|--------|--------|--------|
G|--------|--------|--------|--------|--------|--------|--------|--------|--------|
E|--------|--------|--------|--------|--------|--------|--------|--------|--------|


D|--------|--------|--------|--------|--------|--------|--------|--------|--------|
B|--------|--------|--------|--------|--------|--------|--------|--------|--------|
G|--------|--------|--------|--------|--------|--------|--------|--------|--------|
D|--------|--------|--------|--------|--------|--------|--------|--------|--------|
G|--------|--------|--------|--------|--------|--------|--------|--------|--------|
E|--------|--------|--------|--------|--------|--------|--------|--------|--------|


D|--------|--------|--------|--------|--------|--------|--------|--------|--------|
B|--------|--------|--------|--------|--------|--------|--------|--------|--------|
G|--------|--------|--------|--------|--------|--------|--------|--------|--------|
D|--------|--------|--------|--------|--------|--------|--------|--------|--------|
G|--------|--------|--------|--------|--------|--------|--------|--------|--------|
E|--------|--------|--------|--------|--------|--------|--------|--------|--------|


D|--------|--------|--------|--------|--------|--------|--------|--------|--------|
B|--------|--------|--------|--------|--------|--------|--------|--------|--------|
G|--------|--------|--------|--------|--------|--------|--------|--------|--------|
D|--------|--------|--------|--------|--------|--------|--------|--------|--------|
G|--------|--------|--------|--------|--------|--------|--------|--------|--------|
E|--------|--------|--------|--------|--------|--------|--------|--------|--------|


D|--------|--------|-----------------------|--------------------|-------------|--------|
B|--------|--------|-----------------------|--------------------|-------------|--------|
G|--------|--------|-------9---7---5---7---|-7---4---5----------|-------------|--------|
D|--------|--------|-----------------------|--------------------|-------------|--------|
G|--------|--------|-------9---7---5---7---|-7---4---5----------|-------------|--------|
E|--------|--------|-----------------------|--------------3-----|-------------|--------|


D|--------|--------|--------|--------|--------|--------|--------|--------|--------|
B|--------|--------|--------|--------|--------|--------|--------|--------|--------|
G|--------|--------|--------|--------|--------|--------|--------|--------|--------|
D|--------|--------|--------|--------|--------|--------|--------|--------|--------|
G|--------|--------|--------|--------|--------|--------|--------|--------|--------|
E|--------|--------|--------|--------|--------|--------|--------|--------|--------|


D|--------|--------|--------|--------|--------|--------|--------|--------|--------|
B|--------|--------|--------|--------|--------|--------|--------|--------|--------|
G|--------|--------|--------|--------|--------|--------|--------|--------|--------|
D|--------|--------|--------|--------|--------|--------|--------|--------|--------|
G|--------|--------|--------|--------|--------|--------|--------|--------|--------|
E|--------|--------|--------|--------|--------|--------|--------|--------|--------|


D|--------|--------|--------|--------|--------|--------|--------|--------|--------|
B|--------|--------|--------|--------|--------|--------|--------|--------|--------|
G|--------|--------|--------|--------|--------|--------|--------|--------|--------|
D|--------|--------|--------|--------|--------|--------|--------|--------|--------|
G|--------|--------|--------|--------|--------|--------|--------|--------|--------|
E|--------|--------|--------|--------|--------|--------|--------|--------|--------|


D|--------|--------|--------|--------|--------|--------|--------|--------|--------|
B|--------|--------|--------|--------|--------|--------|--------|--------|--------|
G|--------|--------|--------|--------|--------|--------|--------|--------|--------|
D|--------|--------|--------|--------|--------|--------|--------|--------|--------|
G|--------|--------|--------|--------|--------|--------|--------|--------|--------|
E|--------|--------|--------|--------|--------|--------|--------|--------|--------|


D|--------|--------|--------|--------|
B|--------|--------|--------|--------|
G|--------|--------|--------|--------|
D|--------|--------|--------|--------|
G|--------|--------|--------|--------|
E|--------|--------|--------|--------|





Track 3: Untitled

G|--------|--------|--------|--------|--------|--------|--------|--------|--------|
D|--------|--------|--------|--------|--------|--------|--------|--------|--------|
A|--------|--------|--------|--------|--------|--------|--------|--------|--------|
E|--------|--------|--------|--------|--------|--------|--------|--------|--------|


G|--------|--------|--------|--------|--------|--------|--------|--------|--------|
D|--------|--------|--------|--------|--------|--------|--------|--------|--------|
A|--------|--------|--------|--------|--------|--------|--------|--------|--------|
E|--------|--------|--------|--------|--------|--------|--------|--------|--------|


G|--------|--------|--------|--------|--------|--------|--------|--------|--------|
D|--------|--------|--------|--------|--------|--------|--------|--------|--------|
A|--------|--------|--------|--------|--------|--------|--------|--------|--------|
E|--------|--------|--------|--------|--------|--------|--------|--------|--------|


G|--------|--------|--------|--------|--------|--------|--------|--------|--------|
D|--------|--------|--------|--------|--------|--------|--------|--------|--------|
A|--------|--------|--------|--------|--------|--------|--------|--------|--------|
E|--------|--------|--------|--------|--------|--------|--------|--------|--------|


G|--------|--------|--------|--------|--------|--------|--------|--------|--------|
D|--------|--------|--------|--------|--------|--------|--------|--------|--------|
A|--------|--------|--------|--------|--------|--------|--------|--------|--------|
E|--------|--------|--------|--------|--------|--------|--------|--------|--------|


G|--------|--------|--------|--------|--------|--------|--------|--------|--------|
D|--------|--------|--------|--------|--------|--------|--------|--------|--------|
A|--------|--------|--------|--------|--------|--------|--------|--------|--------|
E|--------|--------|--------|--------|--------|--------|--------|--------|--------|


G|--------|--------|--------|--------|--------|--------|--------|--------|--------|
D|--------|--------|--------|--------|--------|--------|--------|--------|--------|
A|--------|--------|--------|--------|--------|--------|--------|--------|--------|
E|--------|--------|--------|--------|--------|--------|--------|--------|--------|


G|--------|--------|--------|--------|--------|--------|--------|--------|--------|
D|--------|--------|--------|--------|--------|--------|--------|--------|--------|
A|--------|--------|--------|--------|--------|--------|--------|--------|--------|
E|--------|--------|--------|--------|--------|--------|--------|--------|--------|


G|--------|--------|--------|--------|--------|--------|--------|--------|--------|
D|--------|--------|--------|--------|--------|--------|--------|--------|--------|
A|--------|--------|--------|--------|--------|--------|--------|--------|--------|
E|--------|--------|--------|--------|--------|--------|--------|--------|--------|


G|--------|--------|--------|--------|--------|--------|--------|--------|--------|
D|--------|--------|--------|--------|--------|--------|--------|--------|--------|
A|--------|--------|--------|--------|--------|--------|--------|--------|--------|
E|--------|--------|--------|--------|--------|--------|--------|--------|--------|


G|--------|--------|--------|--------|--------|--------|--------|--------|--------|
D|--------|--------|--------|--------|--------|--------|--------|--------|--------|
A|--------|--------|--------|--------|--------|--------|--------|--------|--------|
E|--------|--------|--------|--------|--------|--------|--------|--------|--------|


G|--------|--------|--------|--------|--------|--------|--------|--------|--------|
D|--------|--------|--------|--------|--------|--------|--------|--------|--------|
A|--------|--------|--------|--------|--------|--------|--------|--------|--------|
E|--------|--------|--------|--------|--------|--------|--------|--------|--------|


G|--------|--------|--------|--------|--------|--------|--------|--------|--------|
D|--------|--------|--------|--------|--------|--------|--------|--------|--------|
A|--------|--------|--------|--------|--------|--------|--------|--------|--------|
E|--------|--------|--------|--------|--------|--------|--------|--------|--------|


G|--------|
D|--------|
A|--------|
E|--------|