Menu:

 

Search:

 

cargo - the witches day:

 



Title: The Witches' Day
Artist: 
Album: The Witches' Day
Author: Adi Barar


Track 1: Keyboards arranged for guitar

E|-------------------------------|-------------------------------|-------------------------------|
B|-------------------------------|-------------------------------|-------------------------------|
G|------4---------4----------4---|-4--------------0--------------|------4---------4----------4---|
D|-2-------2--2--------2--2------|------2--2--3--------3--0--0---|-2-------2--2--------2--2------|
A|-------------------------------|-------------------------------|-------------------------------|
E|-------------------------------|-------------------------------|-------------------------------|


E|-------------------------------|-------------------------------|-------------------------------|
B|-------------------------------|-------------------------------|-------------------------------|
G|-4--------------0--------------|------4---------4----------4---|-4--------------0--------------|
D|------2--2--3--------3--0--0---|-2--------2--2-------2--2------|------2--2--3--------3--0--0---|
A|-------------------------------|-------------------------------|-------------------------------|
E|-------------------------------|-------------------------------|-------------------------------|


E|-------------------------------|-------------------------------|--------|--------|
B|-------------------------------|-------------------------------|--------|--------|
G|------4---------4----------4---|-0----------------------0------|--------|--------|
D|-2--------2--2-------2--2------|------2----------3---0-----0---|--------|--------|
A|-------------------------------|---------2---------------------|--------|--------|
E|-------------------------------|------------0------------------|--------|--------|


E|--------|--------|--------|--------|--------|--------|--------|--------|--------|
B|--------|--------|--------|--------|--------|--------|--------|--------|--------|
G|--------|--------|--------|--------|--------|--------|--------|--------|--------|
D|--------|--------|--------|--------|--------|--------|--------|--------|--------|
A|--------|--------|--------|--------|--------|--------|--------|--------|--------|
E|--------|--------|--------|--------|--------|--------|--------|--------|--------|


E|--------|--------|--------|--------|--------|--------|--------|--------|--------|
B|--------|--------|--------|--------|--------|--------|--------|--------|--------|
G|--------|--------|--------|--------|--------|--------|--------|--------|--------|
D|--------|--------|--------|--------|--------|--------|--------|--------|--------|
A|--------|--------|--------|--------|--------|--------|--------|--------|--------|
E|--------|--------|--------|--------|--------|--------|--------|--------|--------|


E|------------------------|------------------------|-5----5----5------------|------------------------|
B|-5----5----5-------5----|-8----8----8---7---8----|---------------8---7----|-8----7----5---5---5----|
G|---------------7--------|------------------------|------------------------|------------------------|
D|------------------------|------------------------|------------------------|------------------------|
A|------------------------|------------------------|------------------------|------------------------|
E|------------------------|------------------------|------------------------|------------------------|


E|------------------------|------------------------|-5----5----5------------|------------------------|
B|-5----5----5-------5----|-8----8----8---7---8----|---------------8---7----|-8----7----5---5---5----|
G|---------------7--------|------------------------|------------------------|------------------------|
D|------------------------|------------------------|------------------------|------------------------|
A|------------------------|------------------------|------------------------|------------------------|
E|------------------------|------------------------|------------------------|------------------------|


E|-7----7----7---5--------|-5----5----5------------|-5----5-------------------|-5---------------------|
B|-------------------8----|---------------8---7----|-----------7---5--7--8----|-----8---7---5---5-----|
G|------------------------|------------------------|--------------------------|-----------------------|
D|------------------------|------------------------|--------------------------|-----------------------|
A|------------------------|------------------------|--------------------------|-----------------------|
E|------------------------|------------------------|--------------------------|-----------------------|


E|-7----7----7---5--------|-5----5----5------------|-5----5-------------------|-5---------------------|
B|-------------------8----|---------------8---7----|-----------7---5--7--8----|-----8---7---5---5-----|
G|------------------------|------------------------|--------------------------|-----------------------|
D|------------------------|------------------------|--------------------------|-----------------------|
A|------------------------|------------------------|--------------------------|-----------------------|
E|------------------------|------------------------|--------------------------|-----------------------|


E|------------------------|------------------------|------------------------|------------------------|
B|------------------------|-8----8----8---7---8----|-10---10---10--8---7----|-8----7-----------------|
G|-9----9----9---7---9----|------------------------|------------------------|-----------9---9---9----|
D|------------------------|------------------------|------------------------|------------------------|
A|------------------------|------------------------|------------------------|------------------------|
E|------------------------|------------------------|------------------------|------------------------|


E|------------------------|------------------------|------------------------|------------------------|
B|------------------------|-8----8----8---7---8----|-10---10---10--8---7----|-8----7-----------------|
G|-9----9----9---7---9----|------------------------|------------------------|-----------9---9---9----|
D|------------------------|------------------------|------------------------|------------------------|
A|------------------------|------------------------|------------------------|------------------------|
E|------------------------|------------------------|------------------------|------------------------|


E|-7----7----7------------|------------------------|---------------------------|------------------------|
B|---------------10--8----|-10---10---10--8---7----|-10---10---7-------7---8---|-10---8----7------------|
G|------------------------|------------------------|---------------9-----------|---------------9---9----|
D|------------------------|------------------------|---------------------------|------------------------|
A|------------------------|------------------------|---------------------------|------------------------|
E|------------------------|------------------------|---------------------------|------------------------|


E|-7----7----7------------|------------------------|---------------------------|------------------------|
B|---------------10--8----|-10---10---10--8---7----|-10---10---7-------7---8---|-10---8----7------------|
G|------------------------|------------------------|---------------9-----------|---------------9---9----|
D|------------------------|------------------------|---------------------------|------------------------|
A|------------------------|------------------------|---------------------------|------------------------|
E|------------------------|------------------------|---------------------------|------------------------|


E|--------|--------|--------|--------|--------|--------|--------|--------|--------|
B|--------|--------|--------|--------|--------|--------|--------|--------|--------|
G|--------|--------|--------|--------|--------|--------|--------|--------|--------|
D|--------|--------|--------|--------|--------|--------|--------|--------|--------|
A|--------|--------|--------|--------|--------|--------|--------|--------|--------|
E|--------|--------|--------|--------|--------|--------|--------|--------|--------|


E|--------|--------|--------|--------|--------|--------|--------|--------|--------|
B|--------|--------|--------|--------|--------|--------|--------|--------|--------|
G|--------|--------|--------|--------|--------|--------|--------|--------|--------|
D|--------|--------|--------|--------|--------|--------|--------|--------|--------|
A|--------|--------|--------|--------|--------|--------|--------|--------|--------|
E|--------|--------|--------|--------|--------|--------|--------|--------|--------|


E|--------|--------|------------------------|------------------------|------------------------|
B|--------|--------|------------------------|-8----8----8---7---8----|-10---10---10--8---7----|
G|--------|--------|-9----9----9---7---9----|------------------------|------------------------|
D|--------|--------|------------------------|------------------------|------------------------|
A|--------|--------|------------------------|------------------------|------------------------|
E|--------|--------|------------------------|------------------------|------------------------|


E|------------------------|------------------------|------------------------|------------------------|
B|-8----7-----------------|------------------------|-8----8----8---7---8----|-10---10---10--8---7----|
G|-----------9---9---9----|-9----9----9---7---9----|------------------------|------------------------|
D|------------------------|------------------------|------------------------|------------------------|
A|------------------------|------------------------|------------------------|------------------------|
E|------------------------|------------------------|------------------------|------------------------|


E|------------------------|-7----7----7------------|------------------------|---------------------------|
B|-8----7-----------------|---------------10--8----|-10---10---10--8---7----|-10---10---7-------7---8---|
G|-----------9---9---9----|------------------------|------------------------|---------------9-----------|
D|------------------------|------------------------|------------------------|---------------------------|
A|------------------------|------------------------|------------------------|---------------------------|
E|------------------------|------------------------|------------------------|---------------------------|


E|------------------------|-7----7----7------------|------------------------|---------------------------|
B|-10---8----7------------|---------------10--8----|-10---10---10--8---7----|-10---10---7-------7---8---|
G|---------------9---9----|------------------------|------------------------|---------------9-----------|
D|------------------------|------------------------|------------------------|---------------------------|
A|------------------------|------------------------|------------------------|---------------------------|
E|------------------------|------------------------|------------------------|---------------------------|


E|------------------------|--------|--------|--------|--------|--------|--------|--------|
B|-10---8----7------------|--------|--------|--------|--------|--------|--------|--------|
G|---------------9---9----|--------|--------|--------|--------|--------|--------|--------|
D|------------------------|--------|--------|--------|--------|--------|--------|--------|
A|------------------------|--------|--------|--------|--------|--------|--------|--------|
E|------------------------|--------|--------|--------|--------|--------|--------|--------|


E|--------|--------|--------|--------|--------|--------|--------|--------|--------|
B|--------|--------|--------|--------|--------|--------|--------|--------|--------|
G|--------|--------|--------|--------|--------|--------|--------|--------|--------|
D|--------|--------|--------|--------|--------|--------|--------|--------|--------|
A|--------|--------|--------|--------|--------|--------|--------|--------|--------|
E|--------|--------|--------|--------|--------|--------|--------|--------|--------|


E|--------|--------|--------|--------|-7----7----7---5--------|-5----5----5------------|
B|--------|--------|--------|--------|-------------------8----|---------------8---7----|
G|--------|--------|--------|--------|------------------------|------------------------|
D|--------|--------|--------|--------|------------------------|------------------------|
A|--------|--------|--------|--------|------------------------|------------------------|
E|--------|--------|--------|--------|------------------------|------------------------|


E|-5----------------------|-5----------------------|-7----7----7------------|------------------------|
B|------5----7---8---8----|------8----7---5---5----|---------------10--8----|-10---10---10--8---7----|
G|------------------------|------------------------|------------------------|------------------------|
D|------------------------|------------------------|------------------------|------------------------|
A|------------------------|------------------------|------------------------|------------------------|
E|------------------------|------------------------|------------------------|------------------------|


E|------------------------|------------------------|--------|--------|
B|-10--------7---8---8----|-10---8----7------------|--------|--------|
G|------9-----------------|---------------9---9----|--------|--------|
D|------------------------|------------------------|--------|--------|
A|------------------------|------------------------|--------|--------|
E|------------------------|------------------------|--------|--------|





Track 2: Lead - Adi Barar

E|--------|--------|--------|--------|--------|--------|--------|--------|--------|
B|--------|--------|--------|--------|--------|--------|--------|--------|--------|
G|--------|--------|--------|--------|--------|--------|--------|--------|--------|
D|--------|--------|--------|--------|--------|--------|--------|--------|--------|
A|--------|--------|--------|--------|--------|--------|--------|--------|--------|
E|--------|--------|--------|--------|--------|--------|--------|--------|--------|


E|--------|-------------|--------|-------------|--------|-------------|-7-----7-----|
B|--------|-------------|--------|-------------|--------|-------------|-------------|
G|--------|-------------|--------|-------------|--------|-------------|-------------|
D|--------|-2-----2-----|-3------|-2-----2-----|--------|-2-----2-----|-------------|
A|--------|-2-----2-----|-3------|-2-----2-----|--------|-2-----2-----|-------------|
E|--------|-0-----0-----|-1------|-0-----0-----|--------|-0-----0-----|-------------|


E|------------------------|--------------------------|--------------------------|--------------------------|
B|------------------------|--------------------------|--------------------------|--------------------------|
G|------------------------|--------------------------|--------------------------|--------------------------|
D|-2----2----2----2---2---|-2----2----2----3---2--3--|-2----0--0--2---0----2----|-2----0----2----3---2--3--|
A|-2----2----2----2---2---|-2----2----2----3---2--3--|-2----0--0--2---0----2----|-2----0----2----3---2--3--|
E|-0----0----0----0---0---|-0----0----0----1---------|-0----0--0--0---0----0----|-0----0----0----1---------|


E|------------------------|--------------------------|--------------------------|--------------------------|
B|------------------------|--------------------------|--------------------------|--------------------------|
G|------------------------|--------------------------|--------------------------|--------------------------|
D|-2----2----2----2---2---|-2----2----2----3---2--3--|-2----0--0--2---0----2----|-2----0----2----3---2--3--|
A|-2----2----2----2---2---|-2----2----2----3---2--3--|-2----0--0--2---0----2----|-2----0----2----3---2--3--|
E|-0----0----0----0---0---|-0----0----0----1---------|-0----0--0--0---0----0----|-0----0----0----1---------|


E|------------------------|--------------------------|--------------------------|--------|
B|------------------------|--------------------------|--------------------------|--------|
G|------------------------|--------------------------|--------------------------|--------|
D|-2----2----2----0---2---|-2----0----2----3---2--3--|-2----0--0--2---0----2----|--------|
A|-2----2----2----0---2---|-2----0----2----3---2--3--|-2----0--0--2---0----2----|--------|
E|-0----0----0----0---0---|-0----0----0----1---------|-0----0--0--0---0----0----|--------|


E|--------|--------|--------|--------|--------|--------|--------|--------|--------|
B|--------|--------|--------|--------|--------|--------|--------|--------|--------|
G|--------|--------|--------|--------|--------|--------|--------|--------|--------|
D|--------|--------|--------|--------|--------|--------|--------|--------|--------|
A|--------|--------|--------|--------|--------|--------|--------|--------|--------|
E|--------|--------|--------|--------|--------|--------|--------|--------|--------|


E|--------|--------|--------|--------|--------|--------|--------|--------|--------|
B|--------|--------|--------|--------|--------|--------|--------|--------|--------|
G|--------|--------|--------|--------|--------|--------|--------|--------|--------|
D|--------|--------|--------|--------|--------|--------|--------|--------|--------|
A|--------|--------|--------|--------|--------|--------|--------|--------|--------|
E|--------|--------|--------|--------|--------|--------|--------|--------|--------|


E|--------|--------|--------|--------|--------|--------|--------|--------|--------|
B|--------|--------|--------|--------|--------|--------|--------|--------|--------|
G|--------|--------|--------|--------|--------|--------|--------|--------|--------|
D|--------|--------|--------|--------|--------|--------|--------|--------|--------|
A|--------|--------|--------|--------|--------|--------|--------|--------|--------|
E|--------|--------|--------|--------|--------|--------|--------|--------|--------|


E|--------|--------|--------|--------|--------|------------------------|--------------------------|
B|--------|--------|--------|--------|--------|------------------------|--------------------------|
G|--------|--------|--------|--------|--------|------------------------|--------------------------|
D|--------|--------|--------|--------|--------|-2----2----2----0---2---|-0----2----0----2---0--0--|
A|--------|--------|--------|--------|--------|-2----2----2----0---2---|-0----2----0----2---0--0--|
E|--------|--------|--------|--------|--------|-0----0----0----0---0---|-0----0----0----0---0--0--|


E|------------------------|--------------------------|-------------|-------------|
B|------------------------|--------------------------|-------------|-------------|
G|------------------------|--------------------------|-------------|-------------|
D|-2----2----2----0---2---|-0----2----0----2---0--0--|-5-----5-----|-7-----7-----|
A|-2----2----2----0---2---|-0----2----0----2---0--0--|-5-----5-----|-7-----7-----|
E|-0----0----0----0---0---|-0----0----0----0---0--0--|-3-----3-----|-5-----5-----|


E|------------------------|------------------------|-------------|-------------|------------------------|
B|------------------------|------------------------|-------------|-------------|------------------------|
G|------------------------|------------------------|-------------|-------------|------------------------|
D|-0----0----0----2---0---|-2----0----2----0---0---|-5-----5-----|-7-----7-----|-0----0----0----2---0---|
A|-0----0----0----2---0---|-2----0----2----0---0---|-5-----5-----|-7-----7-----|-0----0----0----2---0---|
E|-0----0----0----0---0---|-0----0----0----0---0---|-3-----3-----|-5-----5-----|-0----0----0----0---0---|


E|------------------------|-------------|-------------|-------------|-------------|
B|------------------------|-------------|-------------|-------------|-------------|
G|------------------------|-------------|-------------|-------------|-------------|
D|-2----0----2----0---0---|-5-----5-----|-7-----7-----|-12----12----|-10----10----|
A|-2----0----2----0---0---|-5-----5-----|-7-----7-----|-12----12----|-10----10----|
E|-0----0----0----0---0---|-3-----3-----|-5-----5-----|-10----10----|-8-----8-----|


E|-------------|-------------|--------|--------|--------|--------|--------|--------|
B|-------------|-------------|--------|--------|--------|--------|--------|--------|
G|-------------|-------------|--------|--------|--------|--------|--------|--------|
D|-5-----5-----|-7-----7-----|-12-----|-12-----|--------|--------|--------|--------|
A|-5-----5-----|-7-----7-----|-12-----|-12-----|--------|--------|--------|--------|
E|-3-----3-----|-5-----5-----|-10-----|-10-----|--------|--------|--------|--------|


E|--------|--------|--------|--------|--------|--------|--------|--------|--------|
B|--------|--------|--------|--------|--------|--------|--------|--------|--------|
G|--------|--------|--------|--------|--------|--------|--------|--------|--------|
D|--------|--------|--------|--------|--------|--------|--------|--------|--------|
A|--------|--------|--------|--------|--------|--------|--------|--------|--------|
E|--------|--------|--------|--------|--------|--------|--------|--------|--------|


E|--------|--------|--------|------------------------|--------------------------|------------------------|
B|--------|--------|--------|------------------------|--------------------------|------------------------|
G|--------|--------|--------|------------------------|--------------------------|------------------------|
D|--------|--------|--------|-2----2----2----0---2---|-0----2----0----2---0--0--|-2----2----2----0---2---|
A|--------|--------|--------|-2----2----2----0---2---|-0----2----0----2---0--0--|-2----2----2----0---2---|
E|--------|--------|--------|-0----0----0----0---0---|-0----0----0----0---0--0--|-0----0----0----0---0---|


E|--------------------------|-------------|-------------|------------------------|
B|--------------------------|-------------|-------------|------------------------|
G|--------------------------|-------------|-------------|------------------------|
D|-0----2----0----2---0--0--|-5-----5-----|-7-----7-----|-0----0----0----2---0---|
A|-0----2----0----2---0--0--|-5-----5-----|-7-----7-----|-0----0----0----2---0---|
E|-0----0----0----0---0--0--|-3-----3-----|-5-----5-----|-0----0----0----0---0---|


E|------------------------|-------------|-------------|------------------------|------------------------|
B|------------------------|-------------|-------------|------------------------|------------------------|
G|------------------------|-------------|-------------|------------------------|------------------------|
D|-2----0----2----0---0---|-5-----5-----|-7-----7-----|-0----0----0----2---0---|-2----0----2----0---0---|
A|-2----0----2----0---0---|-5-----5-----|-7-----7-----|-0----0----0----2---0---|-2----0----2----0---0---|
E|-0----0----0----0---0---|-3-----3-----|-5-----5-----|-0----0----0----0---0---|-0----0----0----0---0---|


E|-------------|-------------|-------------|-------------|-------------|-------------|
B|-------------|-------------|-------------|-------------|-------------|-------------|
G|-------------|-------------|-------------|-------------|-------------|-------------|
D|-5-----5-----|-7-----7-----|-12----12----|-10----10----|-5-----5-----|-7-----7-----|
A|-5-----5-----|-7-----7-----|-12----12----|-10----10----|-5-----5-----|-7-----7-----|
E|-3-----3-----|-5-----5-----|-10----10----|-8-----8-----|-3-----3-----|-5-----5-----|


E|--------|--------|--------|--------|--------|--------|--------|--------|--------|
B|--------|--------|--------|--------|--------|--------|--------|--------|--------|
G|--------|--------|--------|--------|--------|--------|--------|--------|--------|
D|-12-----|-12-----|--------|--------|--------|--------|--------|--------|--------|
A|-12-----|-12-----|--------|--------|--------|--------|--------|--------|--------|
E|-10-----|-10-----|--------|--------|--------|--------|--------|--------|--------|


E|--------|------------------------|-----------------|
B|--------|------------------------|-----------------|
G|--------|-9----0----0---9----0---|-----------------|
D|--------|-9----0----0---9----0---|-12----12---12---|
A|--------|-7----0----0---7----0---|-12----12---12---|
E|--------|------------------------|-10----10---10---|