Menu:

 

Search:

 

candlebox - cover me:

 



Title: Cover Me
Artist: 
Album: Candlebox
Author: Candlebox


Track 1: Acoustic

E|-0---0--0--0--0--3---3--3--3---3---3--3--|-2---2--2--2--2--0---0--0---0--0--0--0--0--|
B|-0---0--0--0--0--3---3--3--3---3---3--3--|-3---3--3--3--3--3---3--3---3--3--3--3--3--|
G|-0---0--0--0--0--0---0--0--0---0---0--0--|-2---2--2--2--2--0---0--0---0--0--0--0--0--|
D|-2---2--2--2--2--0---0--0--0---0---0--0--|-0---0--0--0--0--2---2--2---2--2--2--2--2--|
A|-2---2--2--2--2--2---2--2--2---2---2--2--|-----------------3---3--3---3--3--3--3--3--|
E|-0---0--0--0--0--3---3--3--3---3---3--3--|-------------------------------------------|


E|-0---0--0--0--0--3---3--3--3---3---3--3--|-2---2--3--2--0--0---0-----|-0---0--0--0--0--3---3--3--3---3---3--3--|
B|-0---0--0--0--0--3---3--3--3---3---3--3--|-3---3--3--3--3--3---3-----|-0---0--0--0--0--3---3--3--3---3---3--3--|
G|-0---0--0--0--0--0---0--0--0---0---0--0--|-2---2--2--2--0--0---0-----|-0---0--0--0--0--0---0--0--0---0---0--0--|
D|-2---2--2--2--2--0---0--0--0---0---0--0--|-0---0--0--0--2--2---2-----|-2---2--2--2--2--0---0--0--0---0---0--0--|
A|-2---2--2--2--2--2---2--2--2---2---2--2--|--------------3--3---3-----|-2---2--2--2--2--2---2--2--2---2---2--2--|
E|-0---0--0--0--0--3---3--3--3---3---3--3--|---------------------------|-0---0--0--0--0--3---3--3--3---3---3--3--|


E|-2---2--2--2--2--0---0--0---0--0--0--0--0--|-0---0--0--0--0--3---3--3--3---3---3--3--|
B|-3---3--3--3--3--3---3--3---3--3--3--3--3--|-0---0--0--0--0--3---3--3--3---3---3--3--|
G|-2---2--2--2--2--0---0--0---0--0--0--0--0--|-0---0--0--0--0--0---0--0--0---0---0--0--|
D|-0---0--0--0--0--2---2--2---2--2--2--2--2--|-2---2--2--2--2--0---0--0--0---0---0--0--|
A|-----------------3---3--3---3--3--3--3--3--|-2---2--2--2--2--2---2--2--2---2---2--2--|
E|-------------------------------------------|-0---0--0--0--0--3---3--3--3---3---3--3--|


E|-2---2--3--2--0---------0--------0-----------|-0---0--0--0--0--3---3--3--3---3---3--3--|
B|-3---3--3--3--3--3---3-----3--------3--------|-0---0--0--0--0--3---3--3--3---3---3--3--|
G|-2---2--2--2--0--0---0--------0--------0-----|-0---0--0--0--0--0---0--0--0---0---0--0--|
D|-0---0-----------2---2--------------------0--|-2---2--2--2--2--0---0--0--0---0---0--0--|
A|-----------------3---3-----------------------|-2---2--2--2--2--2---2--2--2---2---2--2--|
E|---------------------------------------------|-0---0--0--0--0--3---3--3--3---3---3--3--|


E|-2---2--2--2--2--0---0--0---0--0--0--0--0--|-0---0--0--0--0--3---3--3--3---3---3--3--|
B|-3---3--3--3--3--3---3--3---3--3--3--3--3--|-0---0--0--0--0--3---3--3--3---3---3--3--|
G|-2---2--2--2--2--0---0--0---0--0--0--0--0--|-0---0--0--0--0--0---0--0--0---0---0--0--|
D|-0---0--0--0--0--2---2--2---2--2--2--2--2--|-2---2--2--2--2--0---0--0--0---0---0--0--|
A|-----------------3---3--3---3--3--3--3--3--|-2---2--2--2--2--2---2--2--2---2---2--2--|
E|-------------------------------------------|-0---0--0--0--0--3---3--3--3---3---3--3--|


E|-2---2--3--2--0--0---0--0---0--0---0--0--|-2---2--3--2--0--0---0--0---0--0---0--0--|
B|-3---3--3--3--3--3---3--3---3--3---3--3--|-3---3--3--3--3--3---3--3---3--3---3--3--|
G|-2---2--2--2--0--0---0--0---0--0---0--0--|-2---2--2--2--0--0---0--0---0--0---0--0--|
D|-0---0--0--0--2--2---2--2---2--2---2--2--|-0---0--0--0--2--2---2--2---2--2---2--2--|
A|--------------3--3---3--3---3--3---3--3--|--------------3--3---3--3---3--3---3--3--|
E|-----------------------------------------|-----------------------------------------|


E|-2---2--3--2--0--0---0--0---0--0---0--0--|-2---2--3--2--0--0---0--0---0--0---0--0--|
B|-3---3--3--3--3--3---3--3---3--3---3--3--|-3---3--3--3--3--3---3--3---3--3---3--3--|
G|-2---2--2--2--0--0---0--0---0--0---0--0--|-2---2--2--2--0--0---0--0---0--0---0--0--|
D|-0---0--0--0--2--2---2--2---2--2---2--2--|-0---0--0--0--2--2---2--2---2--2---2--2--|
A|--------------3--3---3--3---3--3---3--3--|--------------3--3---3--3---3--3---3--3--|
E|-----------------------------------------|-----------------------------------------|


E|-2---2--3--2--0--0---0-----|-------------------------------------------------|-0---0--0--0--0--3---3-----3--3--|
B|-3---3--3--3--3--3---3-----|-------------------------------------------------|-0---0--0--0--0--3---3-----3--3--|
G|-2---2--2--2--0--0---0-----|-------0--------0--------0--------0-----0--------|-0---0--0--0--0--0---0-----0--0--|
D|-0---0--0--0--2--2---2-----|----2--------0--------2--------0--------------0--|-2---2--2--2--2--0---0-----0--0--|
A|--------------3--3---3-----|-3--------2--------3--------2-----------------0--|-2---2--2--2--2--2---2-----2--2--|
E|---------------------------|-------------------------------------3-----2-----|-0---0--0--0--0--3---3-----3--3--|


E|-2---2--2--2--2--0---0--0---0--0--0--0--0--|-0---0--0--0--0--3---3----3---3--3--|
B|-3---3--3--3--3--3---3--3---3--3--3--3--3--|-0---0--0--0--0--3---3----3---3--3--|
G|-2---2--2--2--2--0---0--0---0--0--0--0--0--|-0---0--0--0--0--0---0----0---0--0--|
D|-0---0--0--0--0--2---2--2---2--2--2--2--2--|-2---2--2--2--2--0---0----0---0--0--|
A|-----------------3---3--3---3--3--3--3--3--|-2---2--2--2--2--2---2----2---2--2--|
E|-------------------------------------------|-0---0--0--0--0--3---3----3---3--3--|


E|-2---2--3--2--0---------0--------0-----------|-0---0--0--0--0--3---3----3---3--3--|
B|-3---3--3--3--3--3---3-----3--------3--------|-0---0--0--0--0--3---3----3---3--3--|
G|-2---2--2--2--0--0---0--------0--------0-----|-0---0--0--0--0--0---0----0---0--0--|
D|-0---0-----------2---2--------------------0--|-2---2--2--2--2--0---0----0---0--0--|
A|-----------------3---3-----------------------|-2---2--2--2--2--2---2----2---2--2--|
E|---------------------------------------------|-0---0--0--0--0--3---3----3---3--3--|


E|-2---2--2--2--2--0---0----0---0--0--|-0---0--0--0--0--3---3----3---3--3--|-2---2--2--2--2--0---0----0---0--0--|
B|-3---3--3--3--3--3---3----3---3--3--|-0---0--0--0--0--3---3----3---3--3--|-3---3--3--3--3--3---3----3---3--3--|
G|-2---2--2--2--2--0---0----0---0--0--|-0---0--0--0--0--0---0----0---0--0--|-2---2--2--2--2--0---0----0---0--0--|
D|-0---0--0--0--0--2---2----2---2--2--|-2---2--2--2--2--0---0----0---0--0--|-0---0--0--0--0--2---2----2---2--2--|
A|-----------------3---3----3---3--3--|-2---2--2--2--2--2---2----2---2--2--|-----------------3---3----3---3--3--|
E|------------------------------------|-0---0--0--0--0--3---3----3---3--3--|------------------------------------|


E|-0---0--0--0--0--3---3----3---3--3--|-2---2--2--2--2--0---0----0---0--0--|-0---0--0--0--0--3---3----3---3--3--|
B|-0---0--0--0--0--3---3----3---3--3--|-3---3--3--3--3--3---3----3---3--3--|-0---0--0--0--0--3---3----3---3--3--|
G|-0---0--0--0--0--0---0----0---0--0--|-2---2--2--2--2--0---0----0---0--0--|-0---0--0--0--0--0---0----0---0--0--|
D|-2---2--2--2--2--0---0----0---0--0--|-0---0--0--0--0--2---2----2---2--2--|-2---2--2--2--2--0---0----0---0--0--|
A|-2---2--2--2--2--2---2----2---2--2--|-----------------3---3----3---3--3--|-2---2--2--2--2--2---2----2---2--2--|
E|-0---0--0--0--0--3---3----3---3--3--|------------------------------------|-0---0--0--0--0--3---3----3---3--3--|


E|-2---2--2-------------0--------0-----------|-0---0--0--0--0--3---3----3---3--3--|
B|-3---3--3---3--3---3-----3--------3--------|-0---0--0--0--0--3---3----3---3--3--|
G|-2---2--2---0--0---0--------0--------0-----|-0---0--0--0--0--0---0----0---0--0--|
D|-0---0--0------2---2--------------------0--|-2---2--2--2--2--0---0----0---0--0--|
A|---------------3---3-----------------------|-2---2--2--2--2--2---2----2---2--2--|
E|-------------------------------------------|-0---0--0--0--0--3---3----3---3--3--|


E|-2---2--2--2--2--0---0----0---0--0--|-0---0--0--0--0--3---3----3---3--3--|-2---2--3--2--0--0---0--0---0--0---0--0--|
B|-3---3--3--3--3--3---3----3---3--3--|-0---0--0--0--0--3---3----3---3--3--|-3---3--3--3--3--3---3--3---3--3---3--3--|
G|-2---2--2--2--2--0---0----0---0--0--|-0---0--0--0--0--0---0----0---0--0--|-2---2--2--2--0--0---0--0---0--0---0--0--|
D|-0---0--0--0--0--2---2----2---2--2--|-2---2--2--2--2--0---0----0---0--0--|-0---0--0--0--2--2---2--2---2--2---2--2--|
A|-----------------3---3----3---3--3--|-2---2--2--2--2--2---2----2---2--2--|--------------3--3---3--3---3--3---3--3--|
E|------------------------------------|-0---0--0--0--0--3---3----3---3--3--|-----------------------------------------|


E|-2---2--3--2--0--0---0--0---0--0---0--0--|-2---2--3--2--0--0---0--0---0--0---0--0--|
B|-3---3--3--3--3--3---3--3---3--3---3--3--|-3---3--3--3--3--3---3--3---3--3---3--3--|
G|-2---2--2--2--0--0---0--0---0--0---0--0--|-2---2--2--2--0--0---0--0---0--0---0--0--|
D|-0---0--0--0--2--2---2--2---2--2---2--2--|-0---0--0--0--2--2---2--2---2--2---2--2--|
A|--------------3--3---3--3---3--3---3--3--|--------------3--3---3--3---3--3---3--3--|
E|-----------------------------------------|-----------------------------------------|


E|-2---2--3--2--0--0---0--0---0--0---0--0--|-2---2--3--2--0--0---0--0---0--0--0--0--0--|
B|-3---3--3--3--3--3---3--3---3--3---3--3--|-3---3--3--3--3--3---3--3---3--3--3--3--3--|
G|-2---2--2--2--0--0---0--0---0--0---0--0--|-2---2--2--2--0--0---0--0---0--0--0--0--0--|
D|-0---0--0--0--2--2---2--2---2--2---2--2--|-0---0--0--0--2--2---2--2---2--2--2--2--2--|
A|--------------3--3---3--3---3--3---3--3--|--------------3--3---3--3---3--3--3--3--3--|
E|-----------------------------------------|-------------------------------------------|


E|-2---2--3--2--0--0---0--0---0--0---0--0--|-2---2--3--2--0--0---0--0---0--0---0--0--|
B|-3---3--3--3--3--3---3--3---3--3---3--3--|-3---3--3--3--3--3---3--3---3--3---3--3--|
G|-2---2--2--2--0--0---0--0---0--0---0--0--|-2---2--2--2--0--0---0--0---0--0---0--0--|
D|-0---0--0--0--2--2---2--2---2--2---2--2--|-0---0--0--0--2--2---2--2---2--2---2--2--|
A|--------------3--3---3--3---3--3---3--3--|--------------3--3---3--3---3--3---3--3--|
E|-----------------------------------------|-----------------------------------------|


E|-2---2--3--2--0--0---0--0---0--0---0--0--|-2---2--3--2--0------------|-------------------------------------------------|
B|-3---3--3--3--3--3---3--3---3--3---3--3--|-3---3--3--3--3--3---3-----|-------------------------------------------------|
G|-2---2--2--2--0--0---0--0---0--0---0--0--|-2---2--2--2--0--0---0-----|-------0--------0--------0--------0-----0--------|
D|-0---0--0--0--2--2---2--2---2--2---2--2--|-0---0--0--0-----2---2-----|----2--------0--------2--------0--------------0--|
A|--------------3--3---3--3---3--3---3--3--|-----------------3---3-----|-3--------2--------3--------2-----------------0--|
E|-----------------------------------------|---------------------------|-------------------------------------3-----2-----|


E|-0------|-0------|----------3---3--3----|--------|--------|--------|--------|--------|
B|-0------|-0------|----------3---3--3----|--------|--------|--------|--------|--------|
G|-0------|-0------|----------0---0--0----|--------|--------|--------|--------|--------|
D|-2------|-2------|----------0---0--0----|--------|--------|--------|--------|--------|
A|-2------|-2------|----------------------|--------|--------|--------|--------|--------|
E|-0------|-0------|----------2---2--2----|--------|--------|--------|--------|--------|


E|--------|--------|-----------------------------|--------------------------|---------------------------------------|
B|--------|--------|-12--------12---12-------12--|--------------------------|---------------------------------------|
G|--------|--------|-12---7----12---12---7---12--|-7----12---7----12---12---|---------------------------------------|
D|--------|--------|------7--------------7-------|-7----12---7----12---12---|-2----2--5---4---4--4--4--4--3---3--3--|
A|--------|--------|-----------------------------|--------------------------|-2----2--5---4---4--4--4--4--3---3--3--|
E|--------|--------|-----------------------------|--------------------------|-0----0--3---2---2--2--2--2--1---1--1--|


E|------------------------------------------|--------|--------|--------|--------|--------|
B|------------------------------------------|--------|--------|--------|--------|--------|
G|------------------------------------------|--------|--------|--------|--------|--------|
D|-2--2--2--2--5--5--4--4--4--4--4--4-------|--------|--------|--------|--------|--------|
A|-2--2--2--2--5--5--4--4--4--4--4--4-------|--------|--------|--------|--------|--------|
E|-0--0--0--0--3--3--2--2--2--2--2--2-------|--------|--------|--------|--------|--------|


E|--------|--------|--------|--------|--------|-2---2--3--2--0--0---0--0---0--0---0--0--|
B|--------|--------|--------|--------|--------|-3---3--3--3--3--3---3--3---3--3---3--3--|
G|--------|--------|--------|--------|--------|-2---2--2--2--0--0---0--0---0--0---0--0--|
D|--------|--------|--------|--------|--------|-0---0--0--0--2--2---2--2---2--2---2--2--|
A|--------|--------|--------|--------|--------|--------------3--3---3--3---3--3---3--3--|
E|--------|--------|--------|--------|--------|-----------------------------------------|


E|-2---2--3--2--0--0---0--0---0--0---0--0--|-2---2--3--2--0--0---0--0---0--0---0--0--|
B|-3---3--3--3--3--3---3--3---3--3---3--3--|-3---3--3--3--3--3---3--3---3--3---3--3--|
G|-2---2--2--2--0--0---0--0---0--0---0--0--|-2---2--2--2--0--0---0--0---0--0---0--0--|
D|-0---0--0--0--2--2---2--2---2--2---2--2--|-0---0--0--0--2--2---2--2---2--2---2--2--|
A|--------------3--3---3--3---3--3---3--3--|--------------3--3---3--3---3--3---3--3--|
E|-----------------------------------------|-----------------------------------------|


E|-2---2--3--2--0--0---0--3---3--3--3--3--3--|-2---2--3--2--0--0---0--0---0--0---0--0--|
B|-3---3--3--3--3--3---3--3---3--3--3--3--3--|-3---3--3--3--3--3---3--3---3--3---3--3--|
G|-2---2--2--2--0--0---0--0---0--0--0--0--0--|-2---2--2--2--0--0---0--0---0--0---0--0--|
D|-0---0--0--0--2--2---2--2---2--2--2--2--2--|-0---0--0--0--2--2---2--2---2--2---2--2--|
A|--------------3--3---3--3---3--3--3--3--3--|--------------3--3---3--3---3--3---3--3--|
E|-------------------------------------------|-----------------------------------------|


E|-2---2--3--2--0--0---0--0---0--0---0--0--|-2---2--3--2--0--0---0--0---0--0---0--0--|
B|-3---3--3--3--3--3---3--3---3--3---3--3--|-3---3--3--3--3--3---3--3---3--3---3--3--|
G|-2---2--2--2--0--0---0--0---0--0---0--0--|-2---2--2--2--0--0---0--0---0--0---0--0--|
D|-0---0--0--0--2--2---2--2---2--2---2--2--|-0---0--0--0--2--2---2--2---2--2---2--2--|
A|--------------3--3---3--3---3--3---3--3--|--------------3--3---3--3---3--3---3--3--|
E|-----------------------------------------|-----------------------------------------|


E|-2---2--3--2--0--0---0-----|-2----2---3--3-----3---3--3--|-2----2--2--3--3----3---3--3---3--3--|
B|-3---3--3--3--3--3---3-----|-3----3---3--3-----3---3--3--|-3----3--3--3--3----3---3--3---3--3--|
G|-2---2--2--2--0--0---0-----|-2----2---0--0-----0---0--0--|-2----2--2--0--0----0---0--0---0--0--|
D|-0---0--0--0--2--2---2-----|-0----0---2--2-----2---2--2--|-0----0--0--2--2----2---2--2---2--2--|
A|--------------3--3---3-----|----------3--3-----3---3--3--|------------3--3----3---3--3---3--3--|
E|---------------------------|-----------------------------|-------------------------------------|


E|-2----2--2--3--3---3-----|
B|-3----3--3--3--3---3-----|
G|-2----2--2--0--0---0-----|
D|-0----0--0--2--2---2-----|
A|------------3--3---3-----|
E|-------------------------|





Track 2: Distortion Guitar

E|--------|--------|--------|--------|--------|--------|--------|--------|--------|
B|--------|--------|--------|--------|--------|--------|--------|--------|--------|
G|--------|--------|--------|--------|--------|--------|--------|--------|--------|
D|--------|--------|--------|--------|--------|--------|--------|--------|--------|
A|--------|--------|--------|--------|--------|--------|--------|--------|--------|
E|--------|--------|--------|--------|--------|--------|--------|--------|--------|


E|--------|--------|----------------------|---------------------------|---------------------------|
B|--------|--------|----------3---3--3----|-3-----3---3--3----3---3---|-3-----3---3--3----3---3---|
G|--------|--------|----------0---0--0----|-2-----0---0--0----0---0---|-2-----0---0--0----0---0---|
D|--------|--------|----------2---2--2----|-0-----2---2---------------|-0-----2---2---------------|
A|--------|--------|----------3---3--3----|-------3---3---------------|-------3---3---------------|
E|--------|--------|----------------------|---------------------------|---------------------------|


E|---------------------------|-------------------------|-------------|--------|--------|
B|-3-----3---3--3----3---3---|-3---3--3------3---3-----|-3-----------|--------|--------|
G|-2-----0---0--0----0---0---|-2---2--2------0---0-----|-0-----------|--------|--------|
D|-0-----2---2---------------|-0---0--0------2---2-----|-2-----------|--------|--------|
A|-------3---3---------------|------------3--3---3-----|-3-----------|--------|--------|
E|---------------------------|-------------------------|-------------|--------|--------|


E|--------|--------|--------|--------|--------|--------|--------|--------|--------|
B|--------|--------|--------|--------|--------|--------|--------|--------|--------|
G|--------|--------|--------|--------|--------|--------|--------|--------|--------|
D|--------|--------|--------|--------|--------|--------|--------|--------|--------|
A|--------|--------|--------|--------|--------|--------|--------|--------|--------|
E|--------|--------|--------|--------|--------|--------|--------|--------|--------|


E|--------|--------|--------|--------|----------------------|---------------------------|
B|--------|--------|--------|--------|----------3---3--3----|-3-----3---3--3----3---3---|
G|--------|--------|--------|--------|----------0---0--0----|-2-----0---0--0----0---0---|
D|--------|--------|--------|--------|----------2---2--2----|-0-----2---2---------------|
A|--------|--------|--------|--------|----------3---3--3----|-------3---3---------------|
E|--------|--------|--------|--------|----------------------|---------------------------|


E|---------------------------|---------------------------|--------------3---3--3--3--3--3--|
B|-3-----3---3--3----3---3---|-3-----3---3--3----3---3---|-3-----3---3--3---3--3--3--3--3--|
G|-2-----0---0--0----0---0---|-2-----0---0--0----0---0---|-2-----0---0--0---0--0--0--0--0--|
D|-0-----2---2---------------|-0-----2---2---------------|-0-----2---2---------2-----------|
A|-------3---3---------------|-------3---3---------------|-------3---3---------------------|
E|---------------------------|---------------------------|---------------------------------|


E|---------------------------|---------------------------|---------------------------|
B|-3-----3---3--3----3---3---|-3-----3---3--3----3---3---|-3-----3---3--3----3---3---|
G|-2-----0---0--0----0---0---|-2-----0---0--0----0---0---|-2-----0---0--0----0---0---|
D|-0-----2---2---------------|-0-----2---2---------------|-0-----2---2---------------|
A|-------3---3---------------|-------3---3---------------|-------3---3---------------|
E|---------------------------|---------------------------|---------------------------|


E|---------------------|----------------|------------------------------|------------------------------|
B|-3----3--------------|----------------|------------------------------|------------------------------|
G|-2----2----5---5-----|-5--------------|------------------------------|------------------------------|
D|-0----0----5---5-----|-5--------------|------------------------------|------------------------------|
A|-----------3---3-----|-3--------------|-2--------------------0-------|----------------------0-------|
E|---------------------|--------3---2---|-0----3---2----3---3------3---|-0----3---2----3---3------3---|


E|--------------------|------------------------------|-----------------------------------------|
B|--------------------|------------------------------|-----------------------------------------|
G|--------------------|------------------------------|-----------------------------------------|
D|--------------------|------------------------------|-----------------------------------------|
A|--------------------|----------------------0-------|-2---2--5---5--4---4--5---5--7--7--5--5--|
E|-0----3---2---2-----|-0----3---2----3---3------3---|-0---0--3---3--2---2--3---3--5--5--3--3--|


E|-----------------------------------------|-----------------------------------------|
B|-----------------------------------------|-----------------------------------------|
G|-----------------------------------------|-----------------------------------------|
D|-----------------------------------------|-----------------------------------------|
A|-2---2--5---5--4---4--5---5--7--7--5--5--|-2---2--5---5--4---4--5---5--7--7--5--5--|
E|-0---0--3---3--2---2--3---3--5--5--3--3--|-0---0--3---3--2---2--3---3--5--5--3--3--|


E|-----------------------------------------|-----------------------------------------|
B|-----------------------------------------|-----------------------------------------|
G|-----------------------------------------|-----------------------------------------|
D|-----------------------------------------|-----------------------------------------|
A|-2---2--5---5--4---4--5---5--7--7--5--5--|-2---2--5---5--4---4--5---5--7--7--5--5--|
E|-0---0--3---3--2---2--3---3--5--5--3--3--|-0---0--3---3--2---2--3---3--5--5--3--3--|


E|-----------------------------------------|-----------------------------------------|
B|-----------------------------------------|-----------------------------------------|
G|-----------------------------------------|-----------------------------------------|
D|-----------------------------------------|-----------------------------------------|
A|-2---2--5---5--4---4--5---5--7--7--5--5--|-2---2--5---5--4---4--5---5--7--7--5--5--|
E|-0---0--3---3--2---2--3---3--5--5--3--3--|-0---0--3---3--2---2--3---3--5--5--3--3--|


E|-----------------------------------------|-----------------------------------|------------------------------|
B|-----------------------------------------|-----------------------------------|------------------------------|
G|-----------------------------------------|--------------------0----------0---|--------------------0---------|
D|-----------------------------------------|-----------------------------------|------------------------------|
A|-2---2--5---5--4---4--5---5--7--7--5--5--|-2----2--5---4---4-------3--3------|-2----2--5---4---4------------|
E|-0---0--3---3--2---2--3---3--5--5--3--3--|-0----0--3---2---2-------1---------|-0----0--3---2---2------------|


E|--------|--------|--------|--------|--------|----------------------3---3---------------|
B|--------|--------|--------|--------|--------|----------------------3---3---------------|
G|--------|--------|--------|--------|--------|----------------------0---0--2--2-0----0--|
D|--------|--------|--------|--------|--------|--------5-------------0-------------2--0--|
A|--------|--------|--------|--------|--------|-2---2--5---------------------------------|
E|--------|--------|--------|--------|--------|-0---0--3---3--2---0--3-------------------|


E|----------------------3---3--------------|----------------------3---3--------------|
B|----------------------3---3--------------|----------------------3---3--------------|
G|----------------------0---0--2--2--------|----------------------0---0--2--2--------|
D|--------5-------------0------2--2--5--5--|--------5-------------0------2--2--5--5--|
A|-2---2--5--------------------0--0--5--5--|-2---2--5--------------------0--0--5--5--|
E|-0---0--3---3--2---0--3------------3--3--|-0---0--3---3--2---0--3------------3--3--|


E|----------------------3---3--------------|-----------------------------------|---------------------------|
B|----------------------3---3--------------|-----------------------------------|-3-----3---3--3----3---3---|
G|----------------------0---0--2--2--------|--------------------0----------0---|-2-----0---0--0----0---0---|
D|--------5-------------0------2--2--5--5--|-----------------------------------|-0-----2---2---------------|
A|-2---2--5--------------------0--0--5--5--|-2----2--5---4---4-------3--3------|-------3---3---------------|
E|-0---0--3---3--2---0--3------------3--3--|-0----0--3---2---2-------1---------|---------------------------|


E|---------------------------|---------------------------|--------------3---3--3--3--3--3--|
B|-3-----3---3--3----3---3---|-3-----3---3--3----3---3---|-3-----3---3--3---3--3--3--3--3--|
G|-2-----0---0--0----0---0---|-2-----0---0--0----0---0---|-2-----0---0--0---0--0--0--0--0--|
D|-0-----2---2---------------|-0-----2---2---------------|-0-----2---2---------2-----------|
A|-------3---3---------------|-------3---3---------------|-------3---3---------------------|
E|---------------------------|---------------------------|---------------------------------|


E|---------------------------|---------------------------|---------------------------|
B|-3-----3---3--3----3---3---|-3-----3---3--3----3---3---|-3-----3---3--3----3---3---|
G|-2-----0---0--0----0---0---|-2-----0---0--0----0---0---|-2-----0---0--0----0---0---|
D|-0-----2---2---------------|-0-----2---2---------------|-0-----2---2---------------|
A|-------3---3---------------|-------3---3---------------|-------3---3---------------|
E|---------------------------|---------------------------|---------------------------|


E|-----------------------|--------|-------------|-2---------------|
B|-3----3------3---3-----|-3------|-3----3------|-3-----1---1-----|
G|-2----2------0---0-----|-0------|-0----0------|-2-----0---0-----|
D|-0----0------2---2-----|-2------|-2----2------|-0-----2---2-----|
A|----------3--3---3-----|-3------|-3----3------|-------3---3-----|
E|-----------------------|--------|-------------|-----------------|





Track 3: Distortion Guitar II

E|--------|--------|--------|--------|--------|--------|--------|--------|--------|
B|--------|--------|--------|--------|--------|--------|--------|--------|--------|
G|--------|--------|--------|--------|--------|--------|--------|--------|--------|
D|--------|--------|--------|--------|--------|--------|--------|--------|--------|
A|--------|--------|--------|--------|--------|--------|--------|--------|--------|
E|--------|--------|--------|--------|--------|--------|--------|--------|--------|


E|--------|--------|--------|--------|--------|--------|--------|--------|--------|
B|--------|--------|--------|--------|--------|--------|--------|--------|--------|
G|--------|--------|--------|--------|--------|--------|--------|--------|--------|
D|--------|--------|--------|--------|--------|--------|--------|--------|--------|
A|--------|--------|--------|--------|--------|--------|--------|--------|--------|
E|--------|--------|--------|--------|--------|--------|--------|--------|--------|


E|--------|--------|--------|--------|--------|--------|--------|--------|--------|
B|--------|--------|--------|--------|--------|--------|--------|--------|--------|
G|--------|--------|--------|--------|--------|--------|--------|--------|--------|
D|--------|--------|--------|--------|--------|--------|--------|--------|--------|
A|--------|--------|--------|--------|--------|--------|--------|--------|--------|
E|--------|--------|--------|--------|--------|--------|--------|--------|--------|


E|--------|--------|--------|--------|--------|--------|--------|--------|--------|
B|--------|--------|--------|--------|--------|--------|--------|--------|--------|
G|--------|--------|--------|--------|--------|--------|--------|--------|--------|
D|--------|--------|--------|--------|--------|--------|--------|--------|--------|
A|--------|--------|--------|--------|--------|--------|--------|--------|--------|
E|--------|--------|--------|--------|--------|--------|--------|--------|--------|


E|--------|--------|--------|--------|--------|--------|-------------|-----------------------|
B|--------|--------|--------|--------|--------|--------|-------------|---------------14--12--|
G|--------|--------|--------|--------|--------|--------|-------------|----------12---14--12--|
D|--------|--------|--------|--------|--------|--------|-------------|----------12-----------|
A|--------|--------|--------|--------|--------|--------|-------------|-----------------------|
E|--------|--------|--------|--------|--------|--------|-0------0----|-0-----0---------------|


E|--------|--------|---------------------------------------------|---------------------------------------------|
B|--------|--------|---------------------------------------0--15-|-15---15-15-15-1515--15-15---15--12-15----12-|
G|-0------|-0------|-14-14-12--------12----14-12-----------0-----|---------------------------------------14----|
D|-0------|-0------|----------14-14-----14-------14--14-14-------|---------------------------------------------|
A|--------|--------|---------------------------------------------|---------------------------------------------|
E|--------|--------|---------------------------------------------|---------------------------------------------|


E|-----------12----------------------------------------------------|------------------------------------------------|
B|--------------15----12---------------------15--12----------------|------------------------------------------------|
G|-14-14--14-------14----14-1412---12--121414--14--1414-12---14-12-|----12------------------------------------------|
D|------------------------------14---14-------------------14-------|-14----14-13-12---------------------------------|
A|-----------------------------------------------------------------|----------------14-13-12-10-12-12-10------------|
E|-----------------------------------------------------------------|-------------------------------------12-12-12---|


E|-----------------------14------------------------------14--------|------------------------------------------------------|
B|---12121212121212121414141412--121214--14------1212141414------12|-12-------------------1214--12----12-12--12-----------|
G|---12121212121212121414141412--12121414141412--12121414141412--12|-1214-1414-12--14-12--1214--12----12-12--12--------0--|
D|-12--121212121212------------14--------------14--------------14--|-------------14-----14---------14----------9-12-0--0--|
A|-----------------------------------------------------------------|------------------------------------------------------|
E|-----------------------------------------------------------------|------------------------------------------------------|


E|----------------------------------------------------------|----------------------------------------------------------------|
B|----------------------------------------------------------|-------12-------------------------------------------------------|
G|-----12---------12--------12---------12--------12---------|-----13--14-14121214161412----12-12-----------------------------|
D|-1214--1414-1214--14--1214--1414-1214--14--1214--1414-----|---14---------------------14--------141412--12------------------|
A|------------------------------------------------------1414|-14---------------------------------------14--1412--1012-12-10--|
E|------------------------------------------------------1414|--------------------------------------------------12----------12|


E|---------------------------------|----------------------------|--------------------------------------------|
B|---------------------------------|----------------------------|--------------------------------------------|
G|---------------------------------|----------------------------|--------------------------------------------|
D|---------------------------------|-12-12-12-12-12----12-------|-7---7-7-5--5-------------------------------|
A|------10--------10-12-12-12------|----------------------------|----------------7---7--5--------------------|
E|-12--------12--------------------|----------------------------|--------------------------7--6--5--3--3--3--|


E|--------------------------------------|----------10--10-10-10-----|--------|--------|
B|--------------------------------------|----------10--10-10-10-----|--------|--------|
G|-----------------------7--9--9---9----|-9-----9-------------------|--------|--------|
D|--------------5--7--9-----------------|---------------------------|--------|--------|
A|--------5--7--------------------------|---------------------------|--------|--------|
E|-3---7--------------------------------|---------------------------|--------|--------|


E|--------|--------|--------|--------|--------|--------|--------|--------|--------|
B|--------|--------|--------|--------|--------|--------|--------|--------|--------|
G|--------|--------|--------|--------|--------|--------|--------|--------|--------|
D|--------|--------|--------|--------|--------|--------|--------|--------|--------|
A|--------|--------|--------|--------|--------|--------|--------|--------|--------|
E|--------|--------|--------|--------|--------|--------|--------|--------|--------|


E|--------|--------|--------|--------|--------|--------|--------|
B|--------|--------|--------|--------|--------|--------|--------|
G|--------|--------|--------|--------|--------|--------|--------|
D|--------|--------|--------|--------|--------|--------|--------|
A|--------|--------|--------|--------|--------|--------|--------|
E|--------|--------|--------|--------|--------|--------|--------|





Track 4: Pick slides

E|--------|--------|--------|--------|--------|--------|--------|--------|--------|
B|--------|--------|--------|--------|--------|--------|--------|--------|--------|
G|--------|--------|--------|--------|--------|--------|--------|--------|--------|
D|--------|--------|--------|--------|--------|--------|--------|--------|--------|
A|--------|--------|--------|--------|--------|--------|--------|--------|--------|
E|--------|--------|--------|--------|--------|--------|--------|--------|--------|


E|--------|--------|--------|--------|--------|--------|--------|--------|--------|
B|--------|--------|--------|--------|--------|--------|--------|--------|--------|
G|--------|--------|--------|--------|--------|--------|--------|--------|--------|
D|--------|--------|--------|--------|--------|--------|--------|--------|--------|
A|--------|--------|--------|--------|--------|--------|--------|--------|--------|
E|--------|--------|--------|--------|--------|--------|--------|--------|--------|


E|--------|--------|--------|--------|--------|--------|--------|--------|--------|
B|--------|--------|--------|--------|--------|--------|--------|--------|--------|
G|--------|--------|--------|--------|--------|--------|--------|--------|--------|
D|--------|--------|--------|--------|--------|--------|--------|--------|--------|
A|--------|--------|--------|--------|--------|--------|--------|--------|--------|
E|--------|--------|--------|--------|--------|--------|--------|--------|--------|


E|--------|--------|--------|--------|--------|--------|--------|--------|--------|
B|--------|--------|--------|--------|--------|--------|--------|--------|--------|
G|--------|--------|--------|--------|--------|--------|--------|--------|--------|
D|--------|--------|--------|--------|--------|--------|--------|--------|--------|
A|--------|--------|--------|--------|--------|--------|--------|--------|--------|
E|--------|--------|--------|--------|--------|--------|--------|--------|--------|


E|--------|--------|--------|--------|--------|--------|--------|--------|--------|
B|--------|--------|--------|--------|--------|--------|--------|--------|--------|
G|--------|--------|--------|--------|--------|--------|--------|--------|--------|
D|--------|--------|--------|--------|--------|--------|--------|--------|--------|
A|--------|--------|--------|--------|--------|--------|--------|--------|--------|
E|--------|--------|--------|--------|--------|--------|--------|--------|--------|


E|--------|--------|--------|--------|--------|--------|--------|--------|--------|
B|--------|--------|--------|--------|--------|--------|--------|--------|--------|
G|--------|--------|--------|--------|--------|--------|--------|--------|--------|
D|--------|--------|--------|--------|--------|--------|--------|--------|--------|
A|--------|--------|--------|--------|--------|--------|--------|--------|--------|
E|--------|--------|--------|--------|--------|--------|--------|--------|--------|


E|--------|-------------|--------|--------|--------|--------|--------|--------|--------|
B|--------|-------------|--------|--------|--------|--------|--------|--------|--------|
G|--------|-------------|--------|--------|--------|--------|--------|--------|--------|
D|--------|-------------|--------|--------|--------|--------|--------|--------|--------|
A|--------|-------------|--------|--------|--------|--------|--------|--------|--------|
E|--------|--------15---|--------|--------|--------|--------|--------|--------|--------|


E|--------|--------|--------|--------|--------|--------|--------|--------|--------|
B|--------|--------|--------|--------|--------|--------|--------|--------|--------|
G|--------|--------|--------|--------|--------|--------|--------|--------|--------|
D|--------|--------|--------|--------|--------|--------|--------|--------|--------|
A|--------|--------|--------|--------|--------|--------|--------|--------|--------|
E|--------|--------|--------|--------|--------|--------|--------|--------|--------|


E|--------|--------|--------|--------|--------|
B|--------|--------|--------|--------|--------|
G|--------|--------|--------|--------|--------|
D|--------|--------|--------|--------|--------|
A|--------|--------|--------|--------|--------|
E|--------|--------|--------|--------|--------|





Track 5: Acoustic

E|--------|--------|--------|--------|--------|--------|--------|--------|--------|
B|--------|--------|--------|--------|--------|--------|--------|--------|--------|
G|--------|--------|--------|--------|--------|--------|--------|--------|--------|
D|--------|--------|--------|--------|--------|--------|--------|--------|--------|
A|--------|--------|--------|--------|--------|--------|--------|--------|--------|
E|--------|--------|--------|--------|--------|--------|--------|--------|--------|


E|--------|--------|--------|--------|--------|--------|--------|--------|--------|
B|--------|--------|--------|--------|--------|--------|--------|--------|--------|
G|--------|--------|--------|--------|--------|--------|--------|--------|--------|
D|--------|--------|--------|--------|--------|--------|--------|--------|--------|
A|--------|--------|--------|--------|--------|--------|--------|--------|--------|
E|--------|--------|--------|--------|--------|--------|--------|--------|--------|


E|--------|--------|--------|--------|--------|--------|--------|--------|--------|
B|--------|--------|--------|--------|--------|--------|--------|--------|--------|
G|--------|--------|--------|--------|--------|--------|--------|--------|--------|
D|--------|--------|--------|--------|--------|--------|--------|--------|--------|
A|--------|--------|--------|--------|--------|--------|--------|--------|--------|
E|--------|--------|--------|--------|--------|--------|--------|--------|--------|


E|--------|--------|--------|--------|--------|--------|--------|--------|--------|
B|--------|--------|--------|--------|--------|--------|--------|--------|--------|
G|--------|--------|--------|--------|--------|--------|--------|--------|--------|
D|--------|--------|--------|--------|--------|--------|--------|--------|--------|
A|--------|--------|--------|--------|--------|--------|--------|--------|--------|
E|--------|--------|--------|--------|--------|--------|--------|--------|--------|


E|--------|--------|--------|--------|--------|--------|--------|--------|--------|
B|--------|--------|--------|--------|--------|--------|--------|--------|--------|
G|--------|--------|--------|--------|--------|--------|--------|--------|--------|
D|--------|--------|--------|--------|--------|--------|--------|--------|--------|
A|--------|--------|--------|--------|--------|--------|--------|--------|--------|
E|--------|--------|--------|--------|--------|--------|--------|--------|--------|


E|--------|--------|--------|--------|--------|--------|--------|--------|--------|
B|--------|--------|--------|--------|--------|--------|--------|--------|--------|
G|--------|--------|--------|--------|--------|--------|--------|--------|--------|
D|--------|--------|--------|--------|--------|--------|--------|--------|--------|
A|--------|--------|--------|--------|--------|--------|--------|--------|--------|
E|--------|--------|--------|--------|--------|--------|--------|--------|--------|


E|--------|------------------|--------|--------|--------|--------|--------|--------|
B|--------|------------------|--------|--------|--------|--------|--------|--------|
G|--------|--------------0---|--------|--------|--------|--------|--------|--------|
D|--------|------------------|--------|--------|--------|--------|--------|--------|
A|--------|--------3--3------|--------|--------|--------|--------|--------|--------|
E|--------|--------1---------|--------|--------|--------|--------|--------|--------|


E|--------|--------|--------|--------|--------|--------|--------|--------|--------|
B|--------|--------|--------|--------|--------|--------|--------|--------|--------|
G|--------|--------|--------|--------|--------|--------|--------|--------|--------|
D|--------|--------|--------|--------|--------|--------|--------|--------|--------|
A|--------|--------|--------|--------|--------|--------|--------|--------|--------|
E|--------|--------|--------|--------|--------|--------|--------|--------|--------|


E|--------|--------|--------|--------|--------|--------|
B|--------|--------|--------|--------|--------|--------|
G|--------|--------|--------|--------|--------|--------|
D|--------|--------|--------|--------|--------|--------|
A|--------|--------|--------|--------|--------|--------|
E|--------|--------|--------|--------|--------|--------|





Track 6: Acoustic

E|--------|--------|--------|--------|--------|--------|--------|--------|--------|
B|--------|--------|--------|--------|--------|--------|--------|--------|--------|
G|--------|--------|--------|--------|--------|--------|--------|--------|--------|
D|--------|--------|--------|--------|--------|--------|--------|--------|--------|
A|--------|--------|--------|--------|--------|--------|--------|--------|--------|
E|--------|--------|--------|--------|--------|--------|--------|--------|--------|


E|--------|--------|--------|--------|--------|--------|--------|--------|--------|
B|--------|--------|--------|--------|--------|--------|--------|--------|--------|
G|--------|--------|--------|--------|--------|--------|--------|--------|--------|
D|--------|--------|--------|--------|--------|--------|--------|--------|--------|
A|--------|--------|--------|--------|--------|--------|--------|--------|--------|
E|--------|--------|--------|--------|--------|--------|--------|--------|--------|


E|--------|--------|--------|--------|--------|--------|--------|--------|--------|
B|--------|--------|--------|--------|--------|--------|--------|--------|--------|
G|--------|--------|--------|--------|--------|--------|--------|--------|--------|
D|--------|--------|--------|--------|--------|--------|--------|--------|--------|
A|--------|--------|--------|--------|--------|--------|--------|--------|--------|
E|--------|--------|--------|--------|--------|--------|--------|--------|--------|


E|--------|--------|--------|--------|--------|--------|--------|--------|--------|
B|--------|--------|--------|--------|--------|--------|--------|--------|--------|
G|--------|--------|--------|--------|--------|--------|--------|--------|--------|
D|--------|--------|--------|--------|--------|--------|--------|--------|--------|
A|--------|--------|--------|--------|--------|--------|--------|--------|--------|
E|--------|--------|--------|--------|--------|--------|--------|--------|--------|


E|--------|--------|--------|--------|--------|--------|--------|--------|--------|
B|--------|--------|--------|--------|--------|--------|--------|--------|--------|
G|--------|--------|--------|--------|--------|--------|--------|--------|--------|
D|--------|--------|--------|--------|--------|--------|--------|--------|--------|
A|--------|--------|--------|--------|--------|--------|--------|--------|--------|
E|--------|--------|--------|--------|--------|--------|--------|--------|--------|


E|--------|--------|--------|--------|--------|--------|--------|--------|--------|
B|--------|--------|--------|--------|--------|--------|--------|--------|--------|
G|--------|--------|--------|--------|--------|--------|--------|--------|--------|
D|--------|--------|--------|--------|--------|--------|--------|--------|--------|
A|--------|--------|--------|--------|--------|--------|--------|--------|--------|
E|--------|--------|--------|--------|--------|--------|--------|--------|--------|


E|--------|--------------------|--------|--------|--------|--------|--------|--------|
B|--------|--------------------|--------|--------|--------|--------|--------|--------|
G|--------|--------------------|--------|--------|--------|--------|--------|--------|
D|--------|--------3--3--3--3--|--------|--------|--------|--------|--------|--------|
A|--------|--------3--3--3--3--|--------|--------|--------|--------|--------|--------|
E|--------|--------1--1--1--1--|--------|--------|--------|--------|--------|--------|


E|--------|--------|--------|--------|--------|--------|--------|--------|--------|
B|--------|--------|--------|--------|--------|--------|--------|--------|--------|
G|--------|--------|--------|--------|--------|--------|--------|--------|--------|
D|--------|--------|--------|--------|--------|--------|--------|--------|--------|
A|--------|--------|--------|--------|--------|--------|--------|--------|--------|
E|--------|--------|--------|--------|--------|--------|--------|--------|--------|


E|--------|--------|--------|--------|--------|--------|
B|--------|--------|--------|--------|--------|--------|
G|--------|--------|--------|--------|--------|--------|
D|--------|--------|--------|--------|--------|--------|
A|--------|--------|--------|--------|--------|--------|
E|--------|--------|--------|--------|--------|--------|





Track 7: Acoustic

E|--------|--------|--------|--------|--------|--------|--------|--------|--------|
B|--------|--------|--------|--------|--------|--------|--------|--------|--------|
G|--------|--------|--------|--------|--------|--------|--------|--------|--------|
D|--------|--------|--------|--------|--------|--------|--------|--------|--------|
A|--------|--------|--------|--------|--------|--------|--------|--------|--------|
E|--------|--------|--------|--------|--------|--------|--------|--------|--------|


E|--------|--------|--------|--------|--------|--------|--------|--------|--------|
B|--------|--------|--------|--------|--------|--------|--------|--------|--------|
G|--------|--------|--------|--------|--------|--------|--------|--------|--------|
D|--------|--------|--------|--------|--------|--------|--------|--------|--------|
A|--------|--------|--------|--------|--------|--------|--------|--------|--------|
E|--------|--------|--------|--------|--------|--------|--------|--------|--------|


E|--------|--------|--------|--------|--------|--------|--------|--------|--------|
B|--------|--------|--------|--------|--------|--------|--------|--------|--------|
G|--------|--------|--------|--------|--------|--------|--------|--------|--------|
D|--------|--------|--------|--------|--------|--------|--------|--------|--------|
A|--------|--------|--------|--------|--------|--------|--------|--------|--------|
E|--------|--------|--------|--------|--------|--------|--------|--------|--------|


E|--------|--------|--------|--------|--------|--------|--------|--------|--------|
B|--------|--------|--------|--------|--------|--------|--------|--------|--------|
G|--------|--------|--------|--------|--------|--------|--------|--------|--------|
D|--------|--------|--------|--------|--------|--------|--------|--------|--------|
A|--------|--------|--------|--------|--------|--------|--------|--------|--------|
E|--------|--------|--------|--------|--------|--------|--------|--------|--------|


E|--------|--------|--------|--------|--------|--------|--------|--------|--------|
B|--------|--------|--------|--------|--------|--------|--------|--------|--------|
G|--------|--------|--------|--------|--------|--------|--------|--------|--------|
D|--------|--------|--------|--------|--------|--------|--------|--------|--------|
A|--------|--------|--------|--------|--------|--------|--------|--------|--------|
E|--------|--------|--------|--------|--------|--------|--------|--------|--------|


E|--------|--------|--------|--------|--------|--------|--------|--------|--------|
B|--------|--------|--------|--------|--------|--------|--------|--------|--------|
G|--------|--------|--------|--------|--------|--------|--------|--------|--------|
D|--------|--------|--------|--------|--------|--------|--------|--------|--------|
A|--------|--------|--------|--------|--------|--------|--------|--------|--------|
E|--------|--------|--------|--------|--------|--------|--------|--------|--------|


E|--------|--------|---------------------------------------|---------------------------------|
B|--------|--------|---------------------------------------|---------------------------------|
G|--------|--------|--------------------0---0--0--0--0--0--|---------------------------------|
D|--------|--------|--------------------0---0--0--0--0--0--|---------------------------------|
A|--------|--------|-2----2--5---4---4---------------------|-2----2--5---4---4--5----7-------|
E|--------|--------|-0----0--3---2---2---------------------|-0----0--3---2---2--3----5---3---|


E|----------------------3---3--------------|----------------------3---3--------------|
B|----------------------3---3--------------|----------------------3---3--------------|
G|----------------------0---0--2--2--------|----------------------0---0--2--2--------|
D|--------5-------------0------2--2--5--5--|--------5-------------0------2--2--5--5--|
A|-2---2--5--------------------0--0--5--5--|-2---2--5--------------------0--0--5--5--|
E|-0---0--3---3--2---0--3------------3--3--|-0---0--3---3--2---0--3------------3--3--|


E|----------------------3---3--------------|--------|--------|--------|--------|--------|
B|----------------------3---3--------------|--------|--------|--------|--------|--------|
G|----------------------0---0--2--2--------|--------|--------|--------|--------|--------|
D|--------5-------------0------2--2--5--5--|--------|--------|--------|--------|--------|
A|-2---2--5--------------------0--0--5--5--|--------|--------|--------|--------|--------|
E|-0---0--3---3--2---0--3------------3--3--|--------|--------|--------|--------|--------|


E|--------|--------|--------|--------|--------|--------|--------|--------|--------|
B|--------|--------|--------|--------|--------|--------|--------|--------|--------|
G|--------|--------|--------|--------|--------|--------|--------|--------|--------|
D|--------|--------|--------|--------|--------|--------|--------|--------|--------|
A|--------|--------|--------|--------|--------|--------|--------|--------|--------|
E|--------|--------|--------|--------|--------|--------|--------|--------|--------|


E|--------|--------|
B|--------|--------|
G|--------|--------|
D|--------|--------|
A|--------|--------|
E|--------|--------|





Track 8: Acoustic

E|--------|--------|--------|--------|--------|--------|--------|--------|--------|
B|--------|--------|--------|--------|--------|--------|--------|--------|--------|
G|--------|--------|--------|--------|--------|--------|--------|--------|--------|
D|--------|--------|--------|--------|--------|--------|--------|--------|--------|
A|--------|--------|--------|--------|--------|--------|--------|--------|--------|
E|--------|--------|--------|--------|--------|--------|--------|--------|--------|


E|--------|--------|--------|--------|--------|--------|--------|--------|--------|
B|--------|--------|--------|--------|--------|--------|--------|--------|--------|
G|--------|--------|--------|--------|--------|--------|--------|--------|--------|
D|--------|--------|--------|--------|--------|--------|--------|--------|--------|
A|--------|--------|--------|--------|--------|--------|--------|--------|--------|
E|--------|--------|--------|--------|--------|--------|--------|--------|--------|


E|--------|--------|--------|--------|--------|--------|--------|--------|--------|
B|--------|--------|--------|--------|--------|--------|--------|--------|--------|
G|--------|--------|--------|--------|--------|--------|--------|--------|--------|
D|--------|--------|--------|--------|--------|--------|--------|--------|--------|
A|--------|--------|--------|--------|--------|--------|--------|--------|--------|
E|--------|--------|--------|--------|--------|--------|--------|--------|--------|


E|--------|--------|--------|--------|--------|--------|--------|--------|--------|
B|--------|--------|--------|--------|--------|--------|--------|--------|--------|
G|--------|--------|--------|--------|--------|--------|--------|--------|--------|
D|--------|--------|--------|--------|--------|--------|--------|--------|--------|
A|--------|--------|--------|--------|--------|--------|--------|--------|--------|
E|--------|--------|--------|--------|--------|--------|--------|--------|--------|


E|--------|--------|--------|--------|--------|--------|--------|--------|--------|
B|--------|--------|--------|--------|--------|--------|--------|--------|--------|
G|--------|--------|--------|--------|--------|--------|--------|--------|--------|
D|--------|--------|--------|--------|--------|--------|--------|--------|--------|
A|--------|--------|--------|--------|--------|--------|--------|--------|--------|
E|--------|--------|--------|--------|--------|--------|--------|--------|--------|


E|--------|--------|--------|--------|--------|--------|--------|--------|--------|
B|--------|--------|--------|--------|--------|--------|--------|--------|--------|
G|--------|--------|--------|--------|--------|--------|--------|--------|--------|
D|--------|--------|--------|--------|--------|--------|--------|--------|--------|
A|--------|--------|--------|--------|--------|--------|--------|--------|--------|
E|--------|--------|--------|--------|--------|--------|--------|--------|--------|


E|--------|--------|--------------------------3---3--3--3--3--3--|-------------3--3--3--3--3--3--3--3--------------|
B|--------|--------|--------------------------3---3--3--3--3--3--|-------------3--3--3--3--3--3--3--3--------------|
G|--------|--------|--------------------------0---0--0--0--0--0--|-------------0--0--0--0--0--0--0--0--------------|
D|--------|--------|-2--2--2--2--5--5--4------0---0--0--0--0--0--|-2--2--2--2--0--0--0--0--0--0--0--0--2--0-----0--|
A|--------|--------|-2--2--2--2--5--5--4-------------------------|-2--2--2--2--------------------------------2-----|
E|--------|--------|-0--0--0--0--3--3--2------2---2--2--2--2--2--|-0--0--0--0--3--3--2--2--2--3--3--3--------------|


E|--------------------|--------|--------|--------|--------|--------|--------|--------|
B|--------------------|--------|--------|--------|--------|--------|--------|--------|
G|--------------------|--------|--------|--------|--------|--------|--------|--------|
D|-2------------------|--------|--------|--------|--------|--------|--------|--------|
A|-2------------------|--------|--------|--------|--------|--------|--------|--------|
E|-0------------------|--------|--------|--------|--------|--------|--------|--------|


E|--------|--------|--------|--------|--------|--------|--------|--------|--------|
B|--------|--------|--------|--------|--------|--------|--------|--------|--------|
G|--------|--------|--------|--------|--------|--------|--------|--------|--------|
D|--------|--------|--------|--------|--------|--------|--------|--------|--------|
A|--------|--------|--------|--------|--------|--------|--------|--------|--------|
E|--------|--------|--------|--------|--------|--------|--------|--------|--------|


E|--------|--------|
B|--------|--------|
G|--------|--------|
D|--------|--------|
A|--------|--------|
E|--------|--------|





Track 9: Bass

G|--------|--------|--------|--------|--------|--------|--------|--------|--------|
D|--------|--------|--------|--------|--------|--------|--------|--------|--------|
A|--------|--------|--------|--------|--------|--------|--------|--------|--------|
E|--------|--------|--------|--------|--------|--------|--------|--------|--------|


G|--------|--------|-------------------------|-------------------------------------|
D|--------|--------|-------------------------|-------------------------------------|
A|--------|--------|-----------0--0--10--0---|-5----5--5--0--3----3--3---3---3--0--|
E|--------|--------|-------------------------|-------------------------------------|


G|-------------------------------------|---------------------------------------|-----------------------|
D|-------------------------------------|---------------------------------------|-----------------------|
A|-5----5--5--0--3----3--3---3---3--0--|-5----5--5--0--3----3--3--3--3---3--0--|-5----5---0--3---3-----|
E|-------------------------------------|---------------------------------------|-----------------------|


G|----------------|-------------------------------|-----------------------|-------------------------------|
D|----------------|-------------------------------|-----------------------|-------------------------------|
A|-3--------------|-------------------------------|-5----5---0--3---3-----|-------------------------------|
E|--------3---2---|-0----0-----0--3---3-----3--5--|-----------------------|-0----0-----0--3---3-----3--5--|


G|-----------------------|-------------------------------|-----------------------------|
D|-----------------------|-------------------------------|-----------------------------|
A|-5----5---0--3---3-----|-------------------------------|-5----5---0--3---3-----3--5--|
E|-----------------------|-0----0-----0--3---3-----3--5--|-----------------------------|


G|-------------------------------|-----------------------------|---------------------------------|
D|-------------------------------|-----------------------------|---------------------------------|
A|-7-----------------------------|-5----5---0--3---3-----3--5--|-5--7---7--7--5------------------|
E|-0----0-----0--3---3-----3--5--|-----------------------------|-0---------------3---3-----3--5--|


G|-----------------------------|---------------------------------|-----------------------------|
D|-----------------------------|---------------------------------|-----------------------------|
A|-5----5---0--3---3-----3--5--|-5--7---7--7--5------------------|-5----5---0--3---3-----3--5--|
E|-----------------------------|-0---------------3---3-----3--5--|-----------------------------|


G|------------------------------------|--------------------------------|----------------------------------|
D|---------------5---5----5--0--------|--------------------------------|----------------------------------|
A|-5--7---7---5-----------------------|-5----5---0--3---3----3---3--5--|-7----7---------------------------|
E|------------------------------3--5--|--------------------------------|-0----0-----0--3---3----3---3--5--|


G|--------------------------------|-------------------------------------|-------------------------------------|
D|--------------------------------|-------------------------------------|-------------------------------------|
A|-5----5---0--3----3---3---3--3--|-5----5--5--0--3----3--3---3---3--0--|-5----5--5--0--3----3--3---3---3--0--|
E|--------------------------------|-------------------------------------|-------------------------------------|


G|---------------------------------------|---------------------------------------|
D|---------------------------------------|---------------------------------------|
A|-5----5--5--0--3----3--3--3--3---3--0--|-5----5--5--0--3----3--2---3--2--3--4--|
E|---------------------------------------|---------------------------------------|


G|-------------------------------------|-------------------------------------|----------------------------------------|
D|-------------------------------------|-------------------------------------|----------------------------------------|
A|-5----5--5--0--3----3--3---3---3--0--|-5----5--5--0--3----3--3---3---3--0--|-5----5--5--0--3----3--3--3--3---3--0-0-|
E|-------------------------------------|-------------------------------------|----------------------------------------|


G|-----------------------|----------------|-------------------------------|-------------------------------|
D|-----------------------|----------------|-------------------------------|-------------------------------|
A|-5----5--5---3---3-----|-3--------------|-----------------------0-------|-----------------------0-------|
E|-----------------------|--------3---2---|-0----0--3---2----3--------3---|-0----0--3---2----3--------3---|


G|-----------------------|-------------------------------|-----------------------------------------|
D|-----------------------|-------------------------------|-----------------------------------------|
A|-----------------------|-----------------------0-------|-----------------------------------------|
E|-0----0--3---2---2-----|-0----0--3---2----3--------3---|-0---0--3---3--2---2--3---3--5--5--3--3--|


G|-----------------------------------------|-----------------------------------------|
D|-----------------------------------------|-----------------------------------------|
A|-----------------------------------------|-----------------------------------------|
E|-0---0--3---3--2---2--3---3--5--5--3--3--|-0---0--3---3--2---2--3---3--5--5--3--3--|


G|-----------------------------------------|-----------------------------------------|
D|-----------------------------------------|-----------------------------------------|
A|-----------------------------------------|-----------------------------------------|
E|-0---0--3---3--2---2--3---3--5--5--3--3--|-0---0--3---3--2---2--3---3--5--5--3--3--|


G|-----------------------------------------|-----------------------------------------|
D|-----------------------------------------|-----------------------------------------|
A|-----------------------------------------|-----------------------------------------|
E|-0---0--3---3--2---2--3---3--5--5--3--3--|-0---0--3---3--2---2--3---3--5--5--3--3--|


G|-----------------------------------------|----------------------------|----------------------------|
D|-----------------------------------------|----------------------------|----------------------------|
A|-----------------------------------------|----------------------------|----------------------------|
E|-0---0--3---3--2---2--3---3--5--5--3--3--|-0----0--3---2----2----1----|-0----0--3---2----2----1----|


G|-----------------------|-----------------------------------|-----------------------------------------|
D|-----------------------|-----------------------------------|-----------------------------------------|
A|-----------------------|-----------------------------------|-----------------------------------------|
E|-0----0--3---2---2-----|-0----0--3---2----3--3--3--5---3---|-0---0--3---3--2---2--3---3--5--5--3--3--|


G|-----------------------------------------|-----------------------------------------|
D|-----------------------------------------|-----------------------------------------|
A|-----------------------------------------|-----------------------------------------|
E|-0---0--3---3--2---2--3---3--5--5--3--3--|-0---0--3---3--2---2--3---3--5--5--3--3--|


G|------------------------------------------|-----------------------------------------|
D|------------------------------------------|-----------------------------------------|
A|------------------------------------------|-----------------------------------------|
E|-0---0--3---3--2---2--3---3--5--5-5-3--5--|-0---0--3---3--2---2--3---3--5--5--3--3--|


G|-----------------------------------------|-----------------------------------------|
D|-----------------------------------------|-----------------------------------------|
A|-----------------------------------------|-----------------------------------------|
E|-0---0--3---3--2---2--3---3--5--5--3--3--|-0---0--3---3--2---2--3---3--5--5--3--3--|


G|-----------------------------------|-------------------------------------|-------------------------------------|
D|--------------------4--------------|-------------------------------------|-------------------------------------|
A|-----------------------------------|-5----5--5--0--3----3--3---3---3--0--|-5----5--5--0--3----3--3---3---3--0--|
E|-0----0--3---2---2------2--1---1---|-------------------------------------|-------------------------------------|


G|-------------------------------------|-----------------------------------------|
D|-------------------------------------|-----------------------------------------|
A|-5----5--5--0--3----3--3---3---3--0--|-5----5--5--0--3----3--2--2--3--2--3--3--|
E|-------------------------------------|-----------------------------------------|


G|---------------------------------------|-------------------------------------|-----------------------------------------|
D|-4---4--5--4---------------------------|-------------------------------------|-4---4--5--4-----------------------------|
A|--------------5--3----3--3---3---3--0--|-5----5---0--3----3--3--3--3---3--3--|--------------5--3----3--2--3--3---0--0--|
E|---------------------------------------|-------------------------------------|-----------------------------------------|


G|-------------------------|--------|--------|--------|
D|-------------------------|--------|--------|--------|
A|-5----5--5--3--3---3-----|-3------|-3------|-3------|
E|-------------------------|--------|--------|--------|