Menu:

 

Search:

 

butch walker - my way:

 



Title: My Way
Artist: 
Album: Left Of Self-Centered
Author: Butch Walker


Track 1: Guitar I

E|--------|--------|--------|--------|-----------------------|------------------------------|
B|--------|--------|--------|--------|-----------------------|------------------------------|
G|--------|--------|--------|--------|-----------------------|---------4---2---2------------|
D|--------|--------|--------|--------|-2---2---6---7---7-----|-2---2---4---2---2----7---6---|
A|--------|--------|--------|--------|-2---2---6---7---7-----|-2---2---2---0---0----7---6---|
E|--------|--------|--------|--------|-0---0---4---5---5-----|-0---0----------------5---4---|


E|-----------------------|---------------------------------|-----------------------|
B|-----------------------|---------------------------------|-----------------------|
G|-----------------------|---------------------------------|-----------------------|
D|-2---2---6---7---7-----|---------------------------------|-2---2---6---7---7-----|
A|-2---2---6---7---7-----|---------------------------------|-2---2---6---7---7-----|
E|-0---0---4---5---5-----|-0---7---7---4---0---4---5---4---|-0---0---4---5---5-----|


E|------------------------------|-----------------------|---------------------------------|
B|------------------------------|-----------------------|---------------------------------|
G|---------4---2---2------------|-----------------------|---------------------------------|
D|-2---2---4---2---2----7---6---|-2---2---6---7---7-----|---------------------------------|
A|-2---2---2---0---0----7---6---|-2---2---6---7---7-----|---------------------------------|
E|-0---0----------------5---4---|-0---0---4---5---5-----|-0---7---7---4---0---4---5---4---|


E|---------------------------------|---------------------------------|---------------------------------|
B|---------------------------------|---------------------------------|---------------------------------|
G|---------------------------------|-------------------------6---4---|---------------------------------|
D|-------------------------8---9---|---------4---2---2---2---4---2---|-------------------------8---9---|
A|-2---2---6---7---7---7---6---7---|-2---2---2---0---0---0-----------|-2---2---6---7---7---7---6---7---|
E|-0---0---4---5---5---5-----------|-0---0---------------------------|-0---0---4---5---5---5-----------|


E|------------------------------|---------------------------------|---------------------------------|
B|------------------------------|---------------------------------|---------------------------------|
G|---------------------2---2----|---------------------------------|-------------------------6---4---|
D|-----4---4---2-------2---2----|-------------------------8---9---|---------4---2---2---2---4---2---|
A|-2---2---2---0---2---0---0----|-2---2---6---7---7---7---6---7---|-2---2---2---0---0---0-----------|
E|-0---------------0------------|-0---0---4---5---5---5-----------|-0---0---------------------------|


E|---------------------------------|---------------------------------|-0------|-0-----------|
B|---------------------------------|---------------------------------|-0------|-0-----------|
G|---------------------------------|---------------------------------|-2------|-2-----------|
D|-------------------------8---9---|---------------------------------|-2------|-2-----------|
A|-2---2---6---7---7---7---6---7---|---------------------------------|-0------|-0-----12----|
E|-0---0---4---5---5---5-----------|-0---7---7---4---0---4---5---4---|--------|-------12----|


E|-----------------------|------------------------------|-----------------------|---------------------------------|
B|-----------------------|------------------------------|-----------------------|---------------------------------|
G|-----------------------|---------4---2---2------------|-----------------------|---------------------------------|
D|-2---2---6---7---7-----|-2---2---4---2---2----7---6---|-2---2---6---7---7-----|---------------------------------|
A|-2---2---6---7---7-----|-2---2---2---0---0----7---6---|-2---2---6---7---7-----|-7-------7-------7-------7-------|
E|-0---0---4---5---5-----|-0---0----------------5---4---|-0---0---4---5---5-----|-----7-------7-------7-------7---|


E|-----------------------|------------------------------|-----------------------|---------------------------------|
B|-----------------------|------------------------------|-----------------------|---------------------------------|
G|-----------------------|---------4---2---2------------|-----------------------|---------------------------------|
D|-2---2---6---7---7-----|-2---2---4---2---2----7---6---|-2---2---6---7---7-----|---------------------------------|
A|-2---2---6---7---7-----|-2---2---2---0---0----7---6---|-2---2---6---7---7-----|-7-------7-----------------------|
E|-0---0---4---5---5-----|-0---0----------------5---4---|-0---0---4---5---5-----|-----7-------7---4---7---4---7---|


E|---------------------------------|---------------------------------|---------------------------------|
B|---------------------------------|---------------------------------|---------------------------------|
G|---------------------------------|-------------------------6---4---|---------------------------------|
D|-------------------------8---9---|---------4---2---2---2---4---2---|-------------------------8---9---|
A|-2---2---6---7---7---7---6---7---|-2---2---2---0---0---0-----------|-2---2---6---7---7---7---6---7---|
E|-0---0---4---5---5---5-----------|-0---0---------------------------|-0---0---4---5---5---5-----------|


E|--------------------|---------------------------------|---------------------------------|
B|--------------------|---------------------------------|---------------------------------|
G|-----------2---2----|---------------------------------|-------------------------6---4---|
D|-----------2---2----|-------------------------8---9---|---------4---2---2---2---4---2---|
A|-----------0---0----|-2---2---6---7---7---7---6---7---|-2---2---2---0---0---0-----------|
E|--------------------|-0---0---4---5---5---5-----------|-0---0---------------------------|


E|---------------------------------|------------------------------|---------------------------------|
B|---------------------------------|------------------------------|---------------------------------|
G|---------------------------------|---------------------2---2----|---------------------------------|
D|-------------------------8---9---|-----4---4---2-------2---2----|-------------------------8---9---|
A|-2---2---6---7---7---7---6---7---|-2---2---2---0---2---0---0----|-2---2---6---7---7---7---6---7---|
E|-0---0---4---5---5---5-----------|-0---------------0------------|-0---0---4---5---5---5-----------|


E|---------------------------------|---------------------------------|---------------------------------|
B|---------------------------------|---------------------------------|---------------------------------|
G|-------------------------6---4---|---------------------------------|---------------------------------|
D|---------4---2---2---2---4---2---|-------------------------8---9---|---------------------------------|
A|-2---2---2---0---0---0-----------|-2---2---6---7---7---7---6---7---|---------------------------------|
E|-0---0---------------------------|-0---0---4---5---5---5-----------|-0---7---7---4---0---4---5---4---|


E|-0------|-0-----------|-----------------------|------------------------------|-----------------------|
B|-0------|-0-----------|-----------------------|------------------------------|-----------------------|
G|-2------|-2-----------|-----------------------|---------4---2---2------------|-----------------------|
D|-2------|-2-----------|-2---2---6---7---7-----|-2---2---4---2---2----7---6---|-2---2---6---7---7-----|
A|-0------|-0-----12----|-2---2---6---7---7-----|-2---2---2---0---0----7---6---|-2---2---6---7---7-----|
E|--------|-------12----|-0---0---4---5---5-----|-0---0----------------5---4---|-0---0---4---5---5-----|


E|---------------------------------|-----------------------|------------------------------|
B|---------------------------------|-----------------------|------------------------------|
G|---------------------------------|-----------------------|---------4---2---2------------|
D|---------------------------------|-2---2---6---7---7-----|-2---2---4---2---2----7---6---|
A|-7-------7-------7-------7-------|-2---2---6---7---7-----|-2---2---2---0---0----7---6---|
E|-----7-------7-------7-------7---|-0---0---4---5---5-----|-0---0----------------5---4---|


E|-----------------------|---------------------------------|-4----4----4----4----|
B|-----------------------|---------------------------------|-5----5----5----5----|
G|-----------------------|---------------------------------|-6----6----6----6----|
D|-2---2---6---7---7-----|---------------------------------|-6----6----6----6----|
A|-2---2---6---7---7-----|-7-------7-----------------------|-4----4----4----4----|
E|-0---0---4---5---5-----|-----7-------7---4---7---4---7---|---------------------|


E|---------------------|---------------------|------------------------------|-4----4----4----4----|
B|---------------------|---------------------|------------------------------|-5----5----5----5----|
G|-2----2----2----2----|---------------------|-4---6---6---8---8---9---9----|-6----6----6----6----|
D|-2----2----2----2----|-2----2----2----2----|------------------------------|-6----6----6----6----|
A|-0----0----0----0----|-2----2----2----2----|-2---4---4---6---6---7---7----|-4----4----4----4----|
E|---------------------|-0----0----0----0----|------------------------------|---------------------|


E|---------------------|---------------------|---------------------|---------------------------------|
B|---------------------|---------------------|---------------------|---------------------------------|
G|-2----2----2----2----|-4----4----4----4----|-4----4----4----4----|-4---4---4---4---4---4---4---4---|
D|-2----2----2----2----|-4----4----4----4----|-4----4----4----4----|-4---4---4---4---4---4---4---4---|
A|-0----0----0----0----|-2----2----2----2----|-2----2----2----2----|-2---2---2---2---2---2---2---2---|
E|---------------------|---------------------|---------------------|---------------------------------|


E|---------------------------------|--------|--------|--------|--------|--------|--------|
B|---------------------------------|--------|--------|--------|--------|--------|--------|
G|-4---4---4---4---4---4---4---4---|--------|--------|--------|--------|--------|--------|
D|-4---4---4---4---4---4---4---4---|--------|--------|--------|--------|--------|--------|
A|-2---2---2---2---2---2---2---2---|--------|--------|--------|--------|--------|--------|
E|---------------------------------|--------|--------|--------|--------|--------|--------|


E|--------|--------|--------|--------|--------|--------|--------|--------|--------|
B|--------|--------|--------|--------|--------|--------|--------|--------|--------|
G|--------|--------|--------|--------|--------|--------|--------|--------|--------|
D|--------|--------|--------|--------|--------|--------|--------|--------|--------|
A|--------|--------|--------|--------|--------|--------|--------|--------|--------|
E|--------|--------|--------|--------|--------|--------|--------|--------|--------|


E|--------|--------|--------|--------|--------|--------|--------|--------|--------|
B|--------|--------|--------|--------|--------|--------|--------|--------|--------|
G|--------|--------|--------|--------|--------|--------|--------|--------|--------|
D|--------|--------|--------|--------|--------|--------|--------|--------|--------|
A|--------|--------|--------|--------|--------|--------|--------|--------|--------|
E|--------|--------|--------|--------|--------|--------|--------|--------|--------|


E|-----------------------|------------------------------|-----------------------|---------------------------------|
B|-----------------------|------------------------------|-----------------------|---------------------------------|
G|-----------------------|---------4---2---2------------|-----------------------|---------------------------------|
D|-2---2---6---7---7-----|-2---2---4---2---2----7---6---|-2---2---6---7---7-----|---------------------------------|
A|-2---2---6---7---7-----|-2---2---2---0---0----7---6---|-2---2---6---7---7-----|-7-------7-------7-------7-------|
E|-0---0---4---5---5-----|-0---0----------------5---4---|-0---0---4---5---5-----|-----7-------7-------7-------7---|


E|-----------------------|------------------------------|-----------------------|-------------------------12---|
B|-----------------------|------------------------------|-----------------------|---------------------12-------|
G|-----------------------|---------4---2---2------------|-----------------------|------------------------------|
D|-2---2---6---7---7-----|-2---2---4---2---2----7---6---|-2---2---6---7---7-----|------------------------------|
A|-2---2---6---7---7-----|-2---2---2---0---0----7---6---|-2---2---6---7---7-----|-7---7-------7----------------|
E|-0---0---4---5---5-----|-0---0----------------5---4---|-0---0---4---5---5-----|---------7-------7------------|


E|-----------------------|------------------------------|-----------------------|---------------------------------|
B|-----------------------|------------------------------|-----------------------|---------------------------------|
G|-----------------------|---------4---2---2----8---9---|-----------------------|---------------------------------|
D|-2---2---6---7---7-----|-2---2---4---2---2------------|-2---2---6---7---7-----|---------------------------------|
A|-2---2---6---7---7-----|-2---2---2---0---0----6---7---|-2---2---6---7---7-----|-7-------7-------7-------7-------|
E|-0---0---4---5---5-----|-0---0------------------------|-0---0---4---5---5-----|-----7-------7-------7-------7---|


E|-----------------------|------------------------------|-----------------------|---------------------------------|
B|-----------------------|------------------------------|-----------------------|---------------------------------|
G|-----------------------|---------4---2---2----8---9---|-----------------------|---------------------------------|
D|-2---2---6---7---7-----|-2---2---4---2---2------------|-2---2---6---7---7-----|---------------------------------|
A|-2---2---6---7---7-----|-2---2---2---0---0----6---7---|-2---2---6---7---7-----|-7-------7-------7-------7-------|
E|-0---0---4---5---5-----|-0---0------------------------|-0---0---4---5---5-----|-----7-------7-------7-------7---|





Track 2: Guitar II

E|--------|--------|--------|--------|------------------------------|------------------------------|
B|--------|--------|--------|--------|-17------17--19--19--17--17---|-17------17--19--19--17--17---|
G|--------|--------|--------|--------|-----16-----------------------|-----16-----------------------|
D|--------|--------|--------|--------|------------------------------|------------------------------|
A|--------|--------|--------|--------|------------------------------|------------------------------|
E|--------|--------|--------|--------|------------------------------|------------------------------|


E|------------------------------|-16--17--16------16-----------|------------------------------|
B|-17------17--19--19--17--17---|-------------17------17-------|-17------17--19--19--17--17---|
G|-----16-----------------------|-------------------------16---|-----16-----------------------|
D|------------------------------|------------------------------|------------------------------|
A|------------------------------|------------------------------|------------------------------|
E|------------------------------|------------------------------|------------------------------|


E|------------------------------|------------------------------|-16--17--16------16-----------|
B|-17------17--19--19--17--17---|-17------17--19--19--17--17---|-------------17------17-------|
G|-----16-----------------------|-----16-----------------------|-------------------------16---|
D|------------------------------|------------------------------|------------------------------|
A|------------------------------|------------------------------|------------------------------|
E|------------------------------|------------------------------|------------------------------|


E|--------|--------|--------|--------|--------|--------|--------|--------|--------|
B|--------|--------|--------|--------|--------|--------|--------|--------|--------|
G|--------|--------|--------|--------|--------|--------|--------|--------|--------|
D|--------|--------|--------|--------|--------|--------|--------|--------|--------|
A|--------|--------|--------|--------|--------|--------|--------|--------|--------|
E|--------|--------|--------|--------|--------|--------|--------|--------|--------|


E|--------|--------|--------|--------|--------|--------|--------|--------|--------|
B|--------|--------|--------|--------|--------|--------|--------|--------|--------|
G|--------|--------|--------|--------|--------|--------|--------|--------|--------|
D|--------|--------|--------|--------|--------|--------|--------|--------|--------|
A|--------|--------|--------|--------|--------|--------|--------|--------|--------|
E|--------|--------|--------|--------|--------|--------|--------|--------|--------|


E|--------|--------|--------|--------|--------|--------|--------|--------|--------|
B|--------|--------|--------|--------|--------|--------|--------|--------|--------|
G|--------|--------|--------|--------|--------|--------|--------|--------|--------|
D|--------|--------|--------|--------|--------|--------|--------|--------|--------|
A|--------|--------|--------|--------|--------|--------|--------|--------|--------|
E|--------|--------|--------|--------|--------|--------|--------|--------|--------|


E|--------|--------|--------|--------|--------|--------|--------|--------|--------|
B|--------|--------|--------|--------|--------|--------|--------|--------|--------|
G|--------|--------|--------|--------|--------|--------|--------|--------|--------|
D|--------|--------|--------|--------|--------|--------|--------|--------|--------|
A|--------|--------|--------|--------|--------|--------|--------|--------|--------|
E|--------|--------|--------|--------|--------|--------|--------|--------|--------|


E|--------|--------|--------|--------|-------------------------|-----------------------|
B|--------|--------|--------|--------|-5-----5----7------7--7--|-------9----9--9---9---|
G|--------|--------|--------|--------|-------------------------|-6---------------------|
D|--------|--------|--------|--------|-------------------------|-----------------------|
A|--------|--------|--------|--------|-------------------------|-----------------------|
E|--------|--------|--------|--------|-------------------------|-----------------------|


E|-----------------------|--------|-------------------------|-----------------|---------------------|
B|-----------------------|--------|-5-----5----7------7--7--|-------9----9----|-10---9----7----5----|
G|-9-----9----9--9---9---|-8------|-------------------------|-6---------------|---------------------|
D|-----------------------|--------|-------------------------|-----------------|---------------------|
A|-----------------------|--------|-------------------------|-----------------|---------------------|
E|-----------------------|--------|-------------------------|-----------------|---------------------|


E|--------|-----11--11------12--12------14--|------------------------------|--------|
B|-4------|-14----------15----------17------|-17--17--17--17--17--17--17---|--------|
G|--------|---------------------------------|------------------------------|--------|
D|--------|---------------------------------|------------------------------|--------|
A|--------|---------------------------------|------------------------------|--------|
E|--------|---------------------------------|------------------------------|--------|


E|--------|--------|--------|--------|--------|--------|--------|--------|--------|
B|--------|--------|--------|--------|--------|--------|--------|--------|--------|
G|--------|--------|--------|--------|--------|--------|--------|--------|--------|
D|--------|--------|--------|--------|--------|--------|--------|--------|--------|
A|--------|--------|--------|--------|--------|--------|--------|--------|--------|
E|--------|--------|--------|--------|--------|--------|--------|--------|--------|


E|--------|--------|--------|--------|--------|--------|--------|--------|--------|
B|--------|--------|--------|--------|--------|--------|--------|--------|--------|
G|--------|--------|--------|--------|--------|--------|--------|--------|--------|
D|--------|--------|--------|--------|--------|--------|--------|--------|--------|
A|--------|--------|--------|--------|--------|--------|--------|--------|--------|
E|--------|--------|--------|--------|--------|--------|--------|--------|--------|


E|--------|--------|--------|--------|--------|--------|--------|--------|--------|
B|--------|--------|--------|--------|--------|--------|--------|--------|--------|
G|--------|--------|--------|--------|--------|--------|--------|--------|--------|
D|--------|--------|--------|--------|--------|--------|--------|--------|--------|
A|--------|--------|--------|--------|--------|--------|--------|--------|--------|
E|--------|--------|--------|--------|--------|--------|--------|--------|--------|


E|--------|--------|--------|--------|-12------12------14------12------|-12------12------14------12------|
B|--------|--------|--------|--------|-----12------12------12------12--|-----12------12------12------12--|
G|--------|--------|--------|--------|---------------------------------|---------------------------------|
D|--------|--------|--------|--------|---------------------------------|---------------------------------|
A|--------|--------|--------|--------|---------------------------------|---------------------------------|
E|--------|--------|--------|--------|---------------------------------|---------------------------------|


E|-12------12------14------12------|-12------12------14------12------|-12------12------14------12------|
B|-----12------12------12------12--|-----12------12------12------12--|-----12------12------12------12--|
G|---------------------------------|---------------------------------|---------------------------------|
D|---------------------------------|---------------------------------|---------------------------------|
A|---------------------------------|---------------------------------|---------------------------------|
E|---------------------------------|---------------------------------|---------------------------------|


E|-12------12------14------12------|-12------12------14------12------|-12------12------14------12------|
B|-----12------12------12------12--|-----12------12------12------12--|-----12------12------12------12--|
G|---------------------------------|---------------------------------|---------------------------------|
D|---------------------------------|---------------------------------|---------------------------------|
A|---------------------------------|---------------------------------|---------------------------------|
E|---------------------------------|---------------------------------|---------------------------------|





Track 3: Clean Guitar

E|--------|--------|--------|--------|--------|--------|--------|--------|--------|
B|--------|--------|--------|--------|--------|--------|--------|--------|--------|
G|--------|--------|--------|--------|--------|--------|--------|--------|--------|
D|--------|--------|--------|--------|--------|--------|--------|--------|--------|
A|--------|--------|--------|--------|--------|--------|--------|--------|--------|
E|--------|--------|--------|--------|--------|--------|--------|--------|--------|


E|--------|--------|--------|--------|--------|--------|--------|---------0-----------0-----------|
B|--------|--------|--------|--------|--------|--------|--------|-----0-------0-----------0-------|
G|--------|--------|--------|--------|--------|--------|--------|-1---------------2-----------2---|
D|--------|--------|--------|--------|--------|--------|--------|---------------------------------|
A|--------|--------|--------|--------|--------|--------|--------|---------------------------------|
E|--------|--------|--------|--------|--------|--------|--------|---------------------------------|


E|---------0-----------0-----------|---------0-----------0-----------|---------0---------------0-------|
B|-----0-------0-----------0-------|-----0-------0-----------0-------|-----4-------4-------2-------2---|
G|-1---------------2-----------2---|-1---------------2-----------2---|-4---------------4---------------|
D|---------------------------------|---------------------------------|---------------------------------|
A|---------------------------------|---------------------------------|---------------------------------|
E|---------------------------------|---------------------------------|---------------------------------|


E|--------|--------|--------|--------|--------|--------|--------|--------|--------|
B|--------|--------|--------|--------|--------|--------|--------|--------|--------|
G|--------|--------|--------|--------|--------|--------|--------|--------|--------|
D|--------|--------|--------|--------|--------|--------|--------|--------|--------|
A|--------|--------|--------|--------|--------|--------|--------|--------|--------|
E|--------|--------|--------|--------|--------|--------|--------|--------|--------|


E|--------|--------|--------|--------|--------|--------|--------|--------|--------|
B|--------|--------|--------|--------|--------|--------|--------|--------|--------|
G|--------|--------|--------|--------|--------|--------|--------|--------|--------|
D|--------|--------|--------|--------|--------|--------|--------|--------|--------|
A|--------|--------|--------|--------|--------|--------|--------|--------|--------|
E|--------|--------|--------|--------|--------|--------|--------|--------|--------|


E|---------0-----------0-----------|---------0-----------0-----------|---------0-----------0-----------|
B|-----0-------0-----------0-------|-----0-------0-----------0-------|-----0-------0-----------0-------|
G|-1---------------2-----------2---|-1---------------2-----------2---|-1---------------2-----------2---|
D|---------------------------------|---------------------------------|---------------------------------|
A|---------------------------------|---------------------------------|---------------------------------|
E|---------------------------------|---------------------------------|---------------------------------|


E|---------0---------------0-------|--------|--------|--------|--------|--------|--------|
B|-----4-------4-------2-------2---|--------|--------|--------|--------|--------|--------|
G|-4---------------4---------------|--------|--------|--------|--------|--------|--------|
D|---------------------------------|--------|--------|--------|--------|--------|--------|
A|---------------------------------|--------|--------|--------|--------|--------|--------|
E|---------------------------------|--------|--------|--------|--------|--------|--------|


E|--------|--------|--------|--------|--------|--------|--------|--------|--------|
B|--------|--------|--------|--------|--------|--------|--------|--------|--------|
G|--------|--------|--------|--------|--------|--------|--------|--------|--------|
D|--------|--------|--------|--------|--------|--------|--------|--------|--------|
A|--------|--------|--------|--------|--------|--------|--------|--------|--------|
E|--------|--------|--------|--------|--------|--------|--------|--------|--------|


E|--------|--------|--------|--------|--------|---------------------------------|---------------------------------|
B|--------|--------|--------|--------|--------|---------0-----------0-----------|---------0-----------0-----------|
G|--------|--------|--------|--------|--------|---------------------------------|---------------------------------|
D|--------|--------|--------|--------|--------|-----2-------2-----------2-------|-----2-------2-----------2-------|
A|--------|--------|--------|--------|--------|-----------------------------2---|-----------------------------2---|
E|--------|--------|--------|--------|--------|-0---------------0---------------|-2---------------2---------------|


E|---------------------------------|---------------------------------|---------------------------------|
B|---------0---------------0-------|---------0---------------0-------|---------0-----------0-----------|
G|---------------------------------|---------------------------------|---------------------------------|
D|-----1-------1-------2-------2---|-----1-------1-------2-------2---|-----2-------2-----------2-------|
A|-0---------------0---------------|-0---------------0---------------|-----------------------------2---|
E|---------------------------------|---------------------------------|-0---------------0---------------|


E|---------------------------------|---------------------------------|---------------------------------|
B|---------0-----------0-----------|---------0---------------0-------|---------0---------------0-------|
G|---------------------------------|---------------------------------|---------------------------------|
D|-----2-------2-----------2-------|-----1-------1-------2-------2---|-----1-------1-------2-------2---|
A|-----------------------------2---|-0---------------0---------------|-0---------------0---------------|
E|-2---------------2---------------|---------------------------------|---------------------------------|


E|---------------------------------|---------------------------------|---------------------------------|
B|---------0-----------0-----------|---------0-----------0-----------|---------0---------------0-------|
G|---------------------------------|---------------------------------|---------------------------------|
D|-----2-------2-----------2-------|-----2-------2-----------2-------|-----1-------1-------2-------2---|
A|-----------------------------2---|-----------------------------2---|-0---------------0---------------|
E|-0---------------0---------------|-2---------------2---------------|---------------------------------|


E|---------------------------------|---------------------------------|---------------------------------|
B|---------0---------------0-------|---------0-----------0-----------|---------0-----------0-----------|
G|---------------------------------|---------------------------------|---------------------------------|
D|-----1-------1-------2-------2---|-----2-------2-----------2-------|-----2-------2-----------2-------|
A|-0---------------0---------------|-----------------------------2---|-----------------------------2---|
E|---------------------------------|-0---------------0---------------|-2---------------2---------------|


E|---------------------------------|---------------------------------|-----------------------|
B|---------0---------------0-------|---------0---------------0-------|-----------------------|
G|---------------------------------|---------------------------------|-----------------------|
D|-----1-------1-------2-------2---|-----1-------1-------2-------2---|-2---2---6---7---7-----|
A|-0---------------0---------------|-0---------------0---------------|-2---2---6---7---7-----|
E|---------------------------------|---------------------------------|-0---0---4---5---5-----|


E|------------------------------|-----------------------|---------------------------------|
B|------------------------------|-----------------------|---------------------------------|
G|---------4---2---2------------|-----------------------|---------------------------------|
D|-2---2---4---2---2----7---6---|-2---2---6---7---7-----|---------------------------------|
A|-2---2---2---0---0----7---6---|-2---2---6---7---7-----|-7-------7-------7-------7-------|
E|-0---0----------------5---4---|-0---0---4---5---5-----|-----7-------7-------7-------7---|


E|-----------------------|------------------------------|-----------------------|---------------------------------|
B|-----------------------|------------------------------|-----------------------|---------------------------------|
G|-----------------------|---------4---2---2------------|-----------------------|---------------------------------|
D|-2---2---6---7---7-----|-2---2---4---2---2----7---6---|-2---2---6---7---7-----|---------------------------------|
A|-2---2---6---7---7-----|-2---2---2---0---0----7---6---|-2---2---6---7---7-----|-7-------7-----------------------|
E|-0---0---4---5---5-----|-0---0----------------5---4---|-0---0---4---5---5-----|-----7-------7---4---7---4---7---|


E|--------|--------|--------|--------|--------|--------|--------|--------|--------|
B|--------|--------|--------|--------|--------|--------|--------|--------|--------|
G|--------|--------|--------|--------|--------|--------|--------|--------|--------|
D|--------|--------|--------|--------|--------|--------|--------|--------|--------|
A|--------|--------|--------|--------|--------|--------|--------|--------|--------|
E|--------|--------|--------|--------|--------|--------|--------|--------|--------|


E|--------|--------|--------|--------|--------|--------|--------|
B|--------|--------|--------|--------|--------|--------|--------|
G|--------|--------|--------|--------|--------|--------|--------|
D|--------|--------|--------|--------|--------|--------|--------|
A|--------|--------|--------|--------|--------|--------|--------|
E|--------|--------|--------|--------|--------|--------|--------|





Track 4: Guitar III

E|--------|--------|--------|--------|--------|--------|--------|--------|--------|
B|--------|--------|--------|--------|--------|--------|--------|--------|--------|
G|--------|--------|--------|--------|--------|--------|--------|--------|--------|
D|--------|--------|--------|--------|--------|--------|--------|--------|--------|
A|--------|--------|--------|--------|--------|--------|--------|--------|--------|
E|--------|--------|--------|--------|--------|--------|--------|--------|--------|


E|--------|--------|--------|--------|--------|--------|--------|--------|--------|
B|--------|--------|--------|--------|--------|--------|--------|--------|--------|
G|--------|--------|--------|--------|--------|--------|--------|--------|--------|
D|--------|--------|--------|--------|--------|--------|--------|--------|--------|
A|--------|--------|--------|--------|--------|--------|--------|--------|--------|
E|--------|--------|--------|--------|--------|--------|--------|--------|--------|


E|--------|--------|--------|--------|--------|--------|--------|--------|--------|
B|--------|--------|--------|--------|--------|--------|--------|--------|--------|
G|--------|--------|--------|--------|--------|--------|--------|--------|--------|
D|--------|--------|--------|--------|--------|--------|--------|--------|--------|
A|--------|--------|--------|--------|--------|--------|--------|--------|--------|
E|--------|--------|--------|--------|--------|--------|--------|--------|--------|


E|--------|--------|--------|--------|--------|--------|--------|--------|--------|
B|--------|--------|--------|--------|--------|--------|--------|--------|--------|
G|--------|--------|--------|--------|--------|--------|--------|--------|--------|
D|--------|--------|--------|--------|--------|--------|--------|--------|--------|
A|--------|--------|--------|--------|--------|--------|--------|--------|--------|
E|--------|--------|--------|--------|--------|--------|--------|--------|--------|


E|--------|--------|--------|--------|--------|--------|--------|--------|--------|
B|--------|--------|--------|--------|--------|--------|--------|--------|--------|
G|--------|--------|--------|--------|--------|--------|--------|--------|--------|
D|--------|--------|--------|--------|--------|--------|--------|--------|--------|
A|--------|--------|--------|--------|--------|--------|--------|--------|--------|
E|--------|--------|--------|--------|--------|--------|--------|--------|--------|


E|--------|--------|--------|--------|--------|--------|--------|-------------------------|
B|--------|--------|--------|--------|--------|--------|--------|-------------------------|
G|--------|--------|--------|--------|--------|--------|--------|-6-----6----8------8--8--|
D|--------|--------|--------|--------|--------|--------|--------|-------------------------|
A|--------|--------|--------|--------|--------|--------|--------|-------------------------|
E|--------|--------|--------|--------|--------|--------|--------|-------------------------|


E|-----------------------|-----------------------|--------|-------------------------|
B|-----------------------|-----------------------|--------|-------------------------|
G|-------9----9--9---9---|-----------------------|--------|-6-----6----8------8--8--|
D|-7---------------------|-6-----6----6--6---6---|-4------|-------------------------|
A|-----------------------|-----------------------|--------|-------------------------|
E|-----------------------|-----------------------|--------|-------------------------|


E|-----------------|---------------------|-----------------------------------|---------------------------------|
B|-----------------|---------------------|------------4--5--4----------------|-----12--12------14--14------16--|
G|-------9----9----|-11---9----8----6----|-4----4--6-----------6--4-----4----|-14----------16----------18------|
D|-7---------------|---------------------|---------------------------7-------|---------------------------------|
A|-----------------|---------------------|-----------------------------------|---------------------------------|
E|-----------------|---------------------|-----------------------------------|---------------------------------|


E|------------------------------|--------|--------|--------|--------|--------|--------|
B|------------------------------|--------|--------|--------|--------|--------|--------|
G|-18--18--18--18--18--18--18---|--------|--------|--------|--------|--------|--------|
D|------------------------------|--------|--------|--------|--------|--------|--------|
A|------------------------------|--------|--------|--------|--------|--------|--------|
E|------------------------------|--------|--------|--------|--------|--------|--------|


E|--------|--------|--------|--------|--------|--------|--------|--------|--------|
B|--------|--------|--------|--------|--------|--------|--------|--------|--------|
G|--------|--------|--------|--------|--------|--------|--------|--------|--------|
D|--------|--------|--------|--------|--------|--------|--------|--------|--------|
A|--------|--------|--------|--------|--------|--------|--------|--------|--------|
E|--------|--------|--------|--------|--------|--------|--------|--------|--------|


E|--------|--------|--------|--------|--------|--------|--------|--------|--------|
B|--------|--------|--------|--------|--------|--------|--------|--------|--------|
G|--------|--------|--------|--------|--------|--------|--------|--------|--------|
D|--------|--------|--------|--------|--------|--------|--------|--------|--------|
A|--------|--------|--------|--------|--------|--------|--------|--------|--------|
E|--------|--------|--------|--------|--------|--------|--------|--------|--------|


E|--------|--------|--------|--------|--------|--------|--------|--------|--------|
B|--------|--------|--------|--------|--------|--------|--------|--------|--------|
G|--------|--------|--------|--------|--------|--------|--------|--------|--------|
D|--------|--------|--------|--------|--------|--------|--------|--------|--------|
A|--------|--------|--------|--------|--------|--------|--------|--------|--------|
E|--------|--------|--------|--------|--------|--------|--------|--------|--------|


E|--------|--------|--------|--------|--------|--------|--------|
B|--------|--------|--------|--------|--------|--------|--------|
G|--------|--------|--------|--------|--------|--------|--------|
D|--------|--------|--------|--------|--------|--------|--------|
A|--------|--------|--------|--------|--------|--------|--------|
E|--------|--------|--------|--------|--------|--------|--------|





Track 5: Untitled

G|--------|--------|--------|--------|---------------------------------|---------------------------------|
D|--------|--------|--------|--------|---------------------------------|---------------------------------|
A|--------|--------|--------|--------|---------------------------------|---------2---0---0---0---0-------|
E|--------|--------|--------|--------|-0---0---4---5---5---5---5---5---|-0---0-----------------------4---|


G|---------------------------------|---------------------------------|---------------------------------|
D|---------------------------------|---------------------------------|---------------------------------|
A|---------------------------------|-----2---2-----------------------|---------------------------------|
E|-0---0---4---5---5---5---5---5---|-0-----------4---0---4---5---4---|-0---0---4---5---5---5---5---5---|


G|---------------------------------|---------------------------------|---------------------------------|
D|---------------------------------|---------------------------------|---------------------------------|
A|---------2---0---0---0---0-------|---------------------------------|-----2---2-----------------------|
E|-0---0-----------------------4---|-0---0---4---5---5---5---5---5---|-0-----------4---0---4---5---4---|


G|---------------------------------|---------------------------------|---------------------------------|
D|---------------------------------|-------------------------4---2---|---------------------------------|
A|-------------------------6---7---|---------2---0---0---0-----------|-------------------------6---7---|
E|-0---0---4---5---5---5-----------|-0---0---------------------------|-0---0---4---5---5---5-----------|


G|------------------------------|---------------------------------|---------------------------------|
D|------------------------------|---------------------------------|-------------------------4---2---|
A|-----2---2---0-------0---0----|-------------------------6---7---|---------2---0---0---0-----------|
E|-0---------------0------------|-0---0---4---5---5---5-----------|-0---0---------------------------|


G|---------------------------------|---------------------------------|--------|-------------|
D|---------------------------------|---------------------------------|--------|-------------|
A|-------------------------6---7---|-----2---2-----------------------|-0------|-0-----12----|
E|-0---0---4---5---5---5-----------|-0-----------4---0---4---5---4---|--------|-------------|


G|---------------------------------|---------------------------------|---------------------------------|
D|---------------------------------|---------------------------------|---------------------------------|
A|---------------------------------|---------2---0---0-------0-------|---------------------------------|
E|-0---0---4---5---5---5---5---5---|-0---0---------------0-------4---|-0---0---4---5---5---5---5---5---|


G|--------|---------------------------------|---------------------------------|---------------------------------|
D|--------|---------------------------------|---------------------------------|---------------------------------|
A|--------|---------------------------------|---------2---0---0---0---6---7---|---------------------------------|
E|--------|-0---0---4---5---5---5---5---5---|-0---0---------------------------|-0---0---4---5---5---5---5---5---|


G|---------------------------------|---------------------------------|---------------------------------|
D|---------------------------------|---------------------------------|-------------------------4---2---|
A|---------------------------------|---------------------7---6---7---|---------2---0---0---0-----------|
E|-0---0---0---0---0---0---0---0---|-0---0---4---5---5---------------|-0---0---------------------------|


G|---------------------------------|--------|---------------------------------|---------------------------------|
D|---------------------------------|--------|---------------------------------|-------------------------4---2---|
A|---------------------7---6---7---|--------|-------------------------6---7---|---------2---0---0---0-----------|
E|-0---0---4---5---5---------------|--------|-0---0---4---5---5---5-----------|-0---0---------------------------|


G|---------------------------------|------------------------------|---------------------------------|
D|---------------------------------|------------------------------|---------------------------------|
A|-------------------------6---7---|-----2---2---0-------0---0----|-------------------------6---7---|
E|-0---0---4---5---5---5-----------|-0---------------0------------|-0---0---4---5---5---5-----------|


G|---------------------------------|---------------------------------|---------------------------------|
D|-------------------------4---2---|---------------------------------|---------------------------------|
A|---------2---0---0---0-----------|-------------------------6---7---|-----2---2-----------------------|
E|-0---0---------------------------|-0---0---4---5---5---5-----------|-0-----------4---0---4---5---4---|


G|--------|-------------|---------------------------------|---------------------------------|
D|--------|-------------|---------------------------------|---------------------------------|
A|-0------|-0-----12----|---------------------------------|---------2---0---0-------0-------|
E|--------|-------------|-0---0---4---5---5---5---5---5---|-0---0---------------0-------4---|


G|---------------------------------|--------|---------------------------------|---------------------------------|
D|---------------------------------|--------|---------------------------------|---------------------------------|
A|---------------------------------|--------|---------------------------------|---------2---0---0---0---0-------|
E|-0---0---4---5---5---5---5---5---|--------|-0---0---4---5---5---5---5---5---|-0---0-----------------------4---|


G|---------------------------------|---------------------------------|------------------------|
D|---------------------------------|---------------------------------|------------------------|
A|---------------------------------|---------7---7---7---7---7---7---|-4----4----4----4---4---|
E|-0---0---4---5---5---5---5---5---|-0---7---------------------------|------------------------|


G|------------------------|------------------------|---------------------------|---------------------------------|
D|------------------------|--------------------2---|---------------------------|-----6-------6-------6-------6---|
A|-0----0----0----0---0---|------------------------|-2----2----2---2---2-------|-4-------7-------4-------7-------|
E|------------------------|-0----0----0----0-------|-----------------------4---|---------------------------------|


G|---------------------------------|---------------------------------|---------------------------------|
D|-----2-------2-------2-------2---|---------------------------------|-----------------4---4---4---4---|
A|-0-------4-------0-------4-------|-2---2---2---2---4---4---4---4---|-6---6---6---6-------------------|
E|---------------------------------|---------------------------------|---------------------------------|


G|---------------------------------|------------------------------|--------|--------|
D|-9---9---9---9---9---9---9---9---|-9---9---9---9---9---9---9----|--------|--------|
A|---------------------------------|------------------------------|--------|--------|
E|---------------------------------|------------------------------|--------|--------|


G|--------|--------|--------|--------|--------|--------|--------|--------|--------|
D|--------|--------|--------|--------|--------|--------|--------|--------|--------|
A|--------|--------|--------|--------|--------|--------|--------|--------|--------|
E|--------|--------|--------|--------|--------|--------|--------|--------|--------|


G|--------|--------|--------|--------|--------|---------------------------------|---------------------------------|
D|--------|--------|--------|--------|--------|---------------------------------|---------------------------------|
A|--------|--------|--------|--------|--------|---------------------------------|---------2---0---0---0---0-------|
E|--------|--------|--------|--------|--------|-0---0---4---5---5---5---5---5---|-0---0-----------------------4---|


G|---------------------------------|---------------------------|---------------------------------|
D|---------------------------------|---------------------------|---------------------------------|
A|---------------------------------|----------------------7----|---------------------------------|
E|-0---0---4---5---5---5---5---5---|-0---0--------0---0--------|-0---0---4---5---5---5---5---5---|


G|---------------------------------|---------------------------------|---------------------------------|
D|---------------------------------|---------------------------------|---------------------------------|
A|---------2---0---0---0---0-------|---------------------------------|-------------7---7---7---7---7---|
E|-0---0-----------------------4---|-0---0---4---5---5---5---5---5---|-0---0---7-----------------------|


G|---------------------------------|---------------------------------|---------------------------------|
D|---------------------------------|---------------------------------|---------------------------------|
A|---------------------------------|---------2---0---0---0---0-------|---------------------------------|
E|-0---0---4---5---5---5---5---5---|-0---0-----------------------4---|-0---0---4---5---5---5---5---5---|


G|---------------------------------|---------------------------------|---------------------------------|
D|---------------------------------|---------------------------------|---------------------------------|
A|-----7-------7-------7---7-------|---------------------------------|---------2---0---0---0---0-------|
E|-0-------7-------0-----------7---|-0---0---4---5---5---5---5---5---|-0---0-----------------------4---|


G|---------------------------------|------------------------------|---------------------------------|
D|---------------------------------|------------------------------|---------------------------------|
A|---------------------------------|-7---7---7---7---7---7---7----|---------------------------------|
E|-0---0---4---5---5---5---5---5---|------------------------------|-0---0---4---5---5---5---5---5---|


G|---------------------------------|---------------------------------|---------------------------------|
D|---------------------------------|---------------------------------|---------------------------------|
A|---------2---0---0---0---0-------|---------------------------------|-----7---7-------7-------7-------|
E|-0---0-----------------------4---|-0---0---4---5---5---5---5---5---|-0-----------7-------7-------7---|


G|---------------------------------|---------------------------------|---------------------------------|
D|---------------------------------|---------------------------------|---------------------------------|
A|---------------------------------|---------2---0---0---0---0-------|---------------------------------|
E|-0---0---4---5---5---5---5---5---|-0---0-----------------------4---|-0---0---4---5---5---5---5---5---|


G|---------------------------------|
D|---------------------------------|
A|-------------7---7---7---7---7---|
E|-0---0---7-----------------------|