Menu:

 

Search:

 

butch walker - alicia amnesia:

 



Title: Alicia Amnesia
Artist: 
Album: Left Of Self-Centered
Author: Butch Walker


Track 1: Guitar I

E|-------------|-----------------------------------------------|-----------------------------------------------|
B|-------------|-----------------------------------------------|-----------------------------------------------|
G|-------------|-----------------------------------------------|-----------------------------------------------|
D|-------------|--------------------------------4--------------|--------------------------------4--------------|
A|--------12---|-7--5--7--5--7---7--5--7--5--7-----7--5--0--5--|-7--5--7--5--7---7--5--7--5--7-----7--5--0--5--|
D|-------------|-----------------------------------------------|-----------------------------------------------|


E|---------------------------------|---------------------------------|-----------------------------------------------|
B|---------------------------------|---------------------------------|-----------------------------------------------|
G|---------------------------------|---------------------------------|-----------------------------------------------|
D|-5---5--5-----5-----5--5----5----|-5---5--5-----5-----5--5----5----|--------------------------------4--------------|
A|-5---5--5-----5-----5--5----5----|-5---5--5-----5-----5--5----5----|-7--5--7--5--7---7--5--7--5--7-----7--5--0--5--|
D|-5---5--5-----5-----5--5---------|-5---5--5-----5-----5--5---------|-----------------------------------------------|


E|-----------------------------------------------|---------------------------------|
B|-----------------------------------------------|---------------------------------|
G|-----------------------------------------------|---------------------------------|
D|--------------------------------4--------------|-5---5--5-----5-----5--5----5----|
A|-7--5--7--5--7---7--5--7--5--7-----7--5--0--5--|-5---5--5-----5-----5--5----5----|
D|-----------------------------------------------|-5---5--5-----5-----5--5---------|


E|---------------------------------|---------------------------------|---------------------------------|
B|---------------------------------|---------------------------------|---------------------------------|
G|---------------------------------|---------------------------------|---------------------------------|
D|-5---5--5-----5-----5--5---------|-7---7---7---7---7---7---7---7---|-7---7---7---7---7---7---7---7---|
A|-5---5--5-----5-----5--5----12---|-5---5---5---5---5---5---5---5---|-5---5---5---5---5---5---5---5---|
D|-5---5--5-----5-----5--5---------|---------------------------------|---------------------------------|


E|---------------------------------|--------------------------------------|---------------------------------|
B|---------------------------------|--------------------------------------|---------------------------------|
G|---------------------------------|----------------------------9--11-9---|---------------------------------|
D|-5---5--5-----5-----5--5----5----|-5---5--5-----5-----5--5--------------|-7---7---7---7---7---7---7---7---|
A|-5---5--5-----5-----5--5----5----|-5---5--5-----5-----5--5----7--9--7---|-5---5---5---5---5---5---5---5---|
D|-5---5--5-----5-----5--5---------|-5---5--5-----5-----5--5--------------|---------------------------------|


E|---------------------------------|---------------------------------|---------------------------------|
B|---------------------------------|---------------------------------|---------------------------------|
G|---------------------------------|---------------------------------|---------------------------------|
D|-7---7---7---7---7---7---7---7---|-5---5--5-----5-----5--5----5----|-5---5--5-----5-----5--5----5----|
A|-5---5---5---5---5---5---5---5---|-5---5--5-----5-----5--5----5----|-5---5--5-----5-----5--5----5----|
D|---------------------------------|-5---5--5-----5-----5--5---------|-5---5--5-----5-----5--5---------|


E|-------0---0------------|------------------------------|-------0---0------------|
B|---------------0---0----|-------------------------8----|---------------0--------|
G|-2----------------------|-------------7---7-------7----|-2----------------------|
D|-2----------------------|-------------7---7------------|-2----------------------|
A|-0----------------------|------------------------------|-0-----------------12---|
D|------------------------|-5---5---5-----------5--------|------------------------|


E|-------------------------------------------|---------------------------------|---------------------------------|
B|-------------------------------------------|---------------------------------|---------------------------------|
G|-------------------------------------------|---------------------------------|---------------------------------|
D|----4------5------6--6-----7---7--7--7--7--|-7---7---7---7-------------------|---------------------------------|
A|----4------5------6--6-----7---7--7--7--7--|-5---5---5---5---7---7---7---7---|-5---5---5---5---5---5---5---7---|
D|----4------5------6--6-----7---7--7--7--7--|-----------------7---7---7---7---|-5---5---5---5---5---5---5---7---|


E|---------------------------------|------------------------------|---------------------------------|
B|---------------------------------|------------------------------|---------------------------------|
G|---------------------------------|------------------------------|-7---7---7---7-------------------|
D|-7---7---7---7-------------------|-------------------------5----|-7---7---7---7---7---7---7---7---|
A|-5---5---5---5---7---7---7---7---|-5---5---5---5---5-------5----|-5---5---5---5---4---4---4---4---|
D|-----------------7---7---7---7---|-5---5---5---5---5------------|---------------------------------|


E|---------------------------------|-------------|-----------------------------------------------|
B|---------------------------------|-------------|-----------------------------------------------|
G|-4---4---4---4---2---2---2---2---|-------------|-----------------------------------------------|
D|-4---4---4---4---2---2---2---2---|-5-----------|--------------------------------4--------------|
A|-2---2---2---2---0---0---0---0---|-5------12---|-7--5--7--5--7---7--5--7--5--7-----7--5--0--5--|
D|---------------------------------|-5-----------|-----------------------------------------------|


E|-----------------------------------------------|---------------------------------|
B|-----------------------------------------------|---------------------------------|
G|-----------------------------------------------|---------------------------------|
D|--------------------------------4--------------|-5---5--5-----5-----5--5---------|
A|-7--5--7--5--7---7--5--7--5--7-----7--5--0--5--|-5---5--5-----5-----5--5----12---|
D|-----------------------------------------------|-5---5--5-----5-----5--5---------|


E|--------------------------------------|---------------------------------|---------------------------------|
B|--------------------------------------|---------------------------------|---------------------------------|
G|----------------------------9--11-9---|---------------------------------|---------------------------------|
D|-5---5--5-----5-----5--5--------------|-7---7---7---7---7---7---7---7---|-7---7---7---7---7---7---7---7---|
A|-5---5--5-----5-----5--5----7--9--7---|-5---5---5---5---5---5---5---5---|-5---5---5---5---5---5---5---5---|
D|-5---5--5-----5-----5--5--------------|---------------------------------|---------------------------------|


E|----------------------------3----|--------------------------------------|---------------------------------|
B|----------------------------3----|--------------------------------------|---------------------------------|
G|----------------------------3----|----------------------------9--11-9---|---------------------------------|
D|-5---5--5-----5-----5--5---------|-5---5--5-----5-----5--5--------------|-7---7---7---7---7---7---7---7---|
A|-5---5--5-----5-----5--5---------|-5---5--5-----5-----5--5----7--9--7---|-5---5---5---5---5---5---5---5---|
D|-5---5--5-----5-----5--5---------|-5---5--5-----5-----5--5--------------|---------------------------------|


E|-------------------------------------------------|---------------------------------|
B|-------------------------------------------------|---------------------------------|
G|----7--------6-----6--7-----7--------6-----6--7--|---------------------------------|
D|-------------------------------------------------|-5---5--5-----5-----5--5---------|
A|-5--5--5--5--4--4--4--5--5--5--5--5--4--4--4--5--|-5---5--5-----5-----5--5----12---|
D|-------------------------------------------------|-5---5--5-----5-----5--5---------|


E|---------------------------------|-------0---0------------|------------------------------|
B|---------------------------------|---------------0---0----|-------------------------8----|
G|---------------------------------|-2----------------------|-------------7---7-------7----|
D|-5---5--5-----5-----5--5---------|-2----------------------|-------------7---7------------|
A|-5---5--5-----5-----5--5----12---|-0----------------------|------------------------------|
D|-5---5--5-----5-----5--5---------|------------------------|-5---5---5-----------5--------|


E|-------0---0------------|-------------------------------------------|---------------------------------|
B|---------------0--------|-------------------------------------------|---------------------------------|
G|-2----------------------|-------------------------------------------|---------------------------------|
D|-2----------------------|----4------5------6--6-----7---7--7--7--7--|-7---7---7---7-------------------|
A|-0-----------------12---|----4------5------6--6-----7---7--7--7--7--|-5---5---5---5---7---7---7---7---|
D|------------------------|----4------5------6--6-----7---7--7--7--7--|-----------------7---7---7---7---|


E|---------------------------------|---------------------------------|------------------------------|
B|---------------------------------|---------------------------------|------------------------------|
G|---------------------------------|---------------------------------|------------------------------|
D|---------------------------------|-7---7---7---7---7---7---7---7---|-------------------------5----|
A|-5---5---5---5---5---5---5---7---|-5---5---5---5---4---4---4---4---|-5---5---5---5---5-------5----|
D|-5---5---5---5---5---5---5---7---|---------------------------------|-5---5---5---5---5------------|


E|---------------------------------|---------------------------------|-------------|
B|---------------------------------|---------------------------------|-------------|
G|-7---7---7---7-------------------|-4---4---4---4---2---2---2---2---|-------------|
D|-7---7---7---7---7---7---7---7---|-4---4---4---4---2---2---2---2---|-5-----------|
A|-5---5---5---5---4---4---4---4---|-2---2---2---2---0---0---0---0---|-5------12---|
D|---------------------------------|---------------------------------|-5-----------|


E|-----------------------------------------------|-----------------------------------------------|
B|-----------------------------------------------|-----------------------------------------------|
G|-----------------------------------------------|-----------------------------------------------|
D|--------------------------------4--------------|--------------------------------4--------------|
A|-7--5--7--5--7---7--5--7--5--7-----7--5--0--5--|-7--5--7--5--7---7--5--7--5--7-----7--5--0--5--|
D|-----------------------------------------------|-----------------------------------------------|


E|---------------------------------|---------------------------------|--------------------|
B|---------------------------------|---------------------------------|-----------------2--|
G|---------------------------------|---------------------------------|-2------2--2--4-----|
D|-5---5--5-----5-----5--5---------|-5---5--5-----5-----5--5---------|--------------------|
A|-5---5--5-----5-----5--5----12---|-5---5--5-----5-----5--5----12---|--------------------|
D|-5---5--5-----5-----5--5---------|-5---5--5-----5-----5--5---------|--------------------|


E|--------------------------------------|------------------------------|-----------------------------------------------|
B|--------------------------------------|------------------------------|-----------------------------------------------|
G|-4----4----6--6--6--6--6--6--6--4--2--|-0-----7--7--0--7-------6--7--|-6--7--6---------------------------------------|
D|--------------------------------------|------------------------------|----------7--5--7--5--0---------0--2--0-----0--|
A|--------------------------------------|------------------------------|-------------------------4---4-----------4-----|
D|--------------------------------------|------------------------------|-----------------------------------------------|


E|----------------------12-10-9--|-10-9-----9------------------------------------|
B|-10---10-----------------------|-------12----10--------------------------------|
G|-----------9---9---------------|----------------9------------------------------|
D|-----------9---7---------------|-------------------12-11-12-11-9--11-7---7--9--|
A|-------------------------------|-----------------------------------------------|
D|-------------------------------|-----------------------------------------------|


E|----------------------------------|----------------------------------------------------------12-14-15-14-12-|
B|----------------------------------|----------------------------10----10-12-10-12-14-12-14-15----------------|
G|------------6---6------6--7---7---|-9-----9--11-9--11-12-11-12----12----------------------------------------|
D|-9----7--9----------9-------------|----12-------------------------------------------------------------------|
A|----------------------------------|-------------------------------------------------------------------------|
D|----------------------------------|-------------------------------------------------------------------------|


E|-------------|-----------------|--------|--------|---------------------------------|
B|-14---14-----|-14--------------|--------|--------|---------------------------------|
G|-------------|-----------------|--------|--------|-7---7---7---7-------------------|
D|-------------|-----------------|--------|--------|-7---7---7---7---7---7---7---7---|
A|-------------|-----------------|--------|--------|-5---5---5---5---4---4---4---4---|
D|-------------|-----------------|--------|--------|---------------------------------|


E|---------------------------------|-------------|-----------------------------------------------|
B|---------------------------------|-------------|-----------------------------------------------|
G|-4---4---4---4---2---2---2---2---|-------------|-----------------------------------------------|
D|-4---4---4---4---2---2---2---2---|-5-----------|--------------------------------4--------------|
A|-2---2---2---2---0---0---0---0---|-5------12---|-7--5--7--5--7---7--5--7--5--7-----7--5--0--5--|
D|---------------------------------|-5------12---|-----------------------------------------------|


E|--------|--------|-----------------------------------------------|-----------------------------------------------|
B|--------|--------|-----------------------------------------------|-----------------------------------------------|
G|--------|--------|-----------------------------------------------|-----------------------------------------------|
D|--------|--------|--------------------------------4--------------|--------------------------------4--------------|
A|--------|--------|-7--5--7--5--7---7--5--7--5--7-----7--5--0--5--|-7--5--7--5--7---7--5--7--5--7-----7--5--0--5--|
D|--------|--------|-----------------------------------------------|-----------------------------------------------|


E|-----------------------------------------------|-----------------------------------------------|
B|-----------------------------------------------|-----------------------------------------------|
G|-----------------------------------------------|-----------------------------------------------|
D|--------------------------------4--------------|--------------------------------4--------------|
A|-7--5--7--5--7---7--5--7--5--7-----7--5--0--5--|-7--5--7--5--7---7--5--7--5--7-----7--5--0--5--|
D|-----------------------------------------------|-----------------------------------------------|


E|-----------------------------------------------|-----------------------------------------------|
B|-----------------------------------------------|-----------------------------------------------|
G|-----------------------------------------------|-----------------------------------------------|
D|--------------------------------4--------------|--------------------------------4--------------|
A|-7--5--7--5--7---7--5--7--5--7-----7--5--0--5--|-7--5--7--5--7---7--5--7--5--7-----7--5--0--5--|
D|-----------------------------------------------|-----------------------------------------------|


E|-----------------------------------------------|-----------------------------------------------|
B|-----------------------------------------------|-----------------------------------------------|
G|-----------------------------------------------|-----------------------------------------------|
D|--------------------------------4--------------|--------------------------------4--------------|
A|-7--5--7--5--7---7--5--7--5--7-----7--5--0--5--|-7--5--7--5--7---7--5--7--5--7-----7--5--0--5--|
D|-----------------------------------------------|-----------------------------------------------|


E|-------------------------------------------|--------------------|
B|-------------------------------------------|--------------------|
G|-------------------------------7--7--7--7--|--------------------|
D|-4--4---5--5---6--6--6--7--7---7--7--7--7--|--------------------|
A|-4--4---5--5---6--6--6--7--7---5--5--5--5--|--------------------|
D|-4--4---5--5---6--6--6--7--7---------------|-0------------------|





Track 2: Guitar II

E|-------------|---------------------|---------------------|---------------------|
B|-------------|---------------------|---------------------|---------------------|
G|-------------|-7---------7---------|-7---------7---------|---------------------|
D|-------------|-7---------7---------|-7---------7---------|-5---------5---------|
A|--------12---|-5---------5---------|-5---------5---------|-5---------5---------|
D|-------------|-0---------0---------|-0---------0---------|-5---------5---------|


E|---------------------|---------------------------|---------------------------|---------------------|
B|---------------------|---------------------------|---------------------------|---------------------|
G|---------------------|-7---7--------7---7--------|-7---7--------7---7--------|---------------------|
D|-5---------5---------|-7---7--------7---7--------|-7---7--------7---7--------|-5---------5---------|
A|-5---------5---------|-5---5--------5---5--------|-5---5--------5---5--------|-5---------5---------|
D|-5---------5---------|-0---0--------0---0--------|-0---0--------0---0--------|-5---------5---------|


E|---------------------|--------|--------|--------|--------|--------|--------|--------|
B|---------------------|--------|--------|--------|--------|--------|--------|--------|
G|---------------------|--------|--------|--------|--------|--------|--------|--------|
D|-5---------5---------|--------|--------|--------|--------|--------|--------|--------|
A|-5---------5---------|--------|--------|--------|--------|--------|--------|--------|
D|-5---------5---------|--------|--------|--------|--------|--------|--------|--------|


E|--------|--------|--------|--------|--------|--------|--------|--------|--------|
B|--------|--------|--------|--------|--------|--------|--------|--------|--------|
G|--------|--------|--------|--------|--------|--------|--------|--------|--------|
D|--------|--------|--------|--------|--------|--------|--------|--------|--------|
A|--------|--------|--------|--------|--------|--------|--------|--------|--------|
D|--------|--------|--------|--------|--------|--------|--------|--------|--------|


E|--------|--------|--------|---------------------|---------------------------|---------------------|
B|--------|--------|--------|---------------------|---------------------------|---------------------|
G|--------|--------|--------|-7---------7---------|-7---------7------7--------|---------------------|
D|--------|--------|--------|-7---------7---------|-7---------7------7--------|-5---------5---------|
A|--------|--------|--------|-5---------5---------|-5---------5------5--------|-5---------5---------|
D|--------|--------|--------|-0---------0---------|-0---------0------0--------|-5---------5---------|


E|---------------------|--------|--------|--------|--------|--------|--------|--------|
B|---------------------|--------|--------|--------|--------|--------|--------|--------|
G|---------------------|--------|--------|--------|--------|--------|--------|--------|
D|-5---------5---------|--------|--------|--------|--------|--------|--------|--------|
A|-5---------5---------|--------|--------|--------|--------|--------|--------|--------|
D|-5---------5---------|--------|--------|--------|--------|--------|--------|--------|


E|--------|--------|--------|--------|--------|--------|--------|--------|--------|
B|--------|--------|--------|--------|--------|--------|--------|--------|--------|
G|--------|--------|--------|--------|--------|--------|--------|--------|--------|
D|--------|--------|--------|--------|--------|--------|--------|--------|--------|
A|--------|--------|--------|--------|--------|--------|--------|--------|--------|
D|--------|--------|--------|--------|--------|--------|--------|--------|--------|


E|--------|--------|--------|---------------------|---------------------|---------------------|
B|--------|--------|--------|---------------------|---------------------|---------------------|
G|--------|--------|--------|-7---------7---------|-7---------7---------|---------------------|
D|--------|--------|--------|-7---------7---------|-7---------7---------|-5---------5---------|
A|--------|--------|--------|-5---------5---------|-5---------5---------|-5---------5---------|
D|--------|--------|--------|-0---------0---------|-0---------0---------|-5---------5---------|


E|---------------------|-----------------------------------------------|-----------------------------------------------|
B|---------------------|-----------------------------------------------|-----------------------------------------------|
G|---------------------|-----------------------------------------------|-----------------------------------------------|
D|-5---------5---------|----------7-----7-----------------7------------|----------7-----7--------7--------7------------|
A|-5---------5---------|----------7-----7-----------------7------------|----------7-----7--------7--------7------------|
D|-5---------5---------|-7--7--7--7--7--7--7--7--7--7--7--7------7--7--|-7--7--7--7--7--7--7--7--7--7--7--7------7--7--|


E|-------------------------------------------------|-------------------------------------------------|
B|-------------------------------------------------|-------------------------------------------------|
G|-------------------------------------------------|-------------------------------------------------|
D|----------5-----5--------5-----5-----5-----------|----------5-----5--------5-----5-----5--5--5--5--|
A|----------5-----5--------5-----5-----5-----------|----------5-----5--------5-----5-----5--5--5--5--|
D|-5--5--5--5--5--5--5--5--5--5--5--5--5--5--5--5--|-5--5--5--5--5--5--5--5--5--5--5--5--5--5--5--5--|


E|-------------------------------------------------|-------------------------------------------------|
B|-------------------------------------------------|-------------------------------------------------|
G|-------------------------------------------------|-------------------------------------------------|
D|----------7-----7--------7-----7-----7-----------|----------7-----7--------7-----7-----7--7--7--7--|
A|----------7-----7--------7-----7-----7-----------|----------7-----7--------7-----7-----7--7--7--7--|
D|-7--7--7--7--7--7--7--7--7--7--7--7--7-----7--7--|-7--7--7--7--7--7--7--7--7--7--7--7--7--7--7--7--|


E|-------------------------------------------|---------------------|--------|--------|
B|-------------------------------------------|---------------------|-3------|-3------|
G|-------------------------------------------|---------------------|-2------|-2------|
D|-------------------------------------------|----------------0----|-0------|-0------|
A|-------------------------------------------|-0----2----4---------|--------|--------|
D|-5--5--5--5--5---5--5--5--5---5--5--5--5---|---------------------|--------|--------|


E|--------|-------------|--------|--------|--------|-----------------|--------|--------|
B|-3------|-3-----------|--------|--------|--------|-----------------|--------|--------|
G|-2------|-2-----------|--------|--------|--------|-7---------------|--------|--------|
D|-0------|-0-----------|--------|--------|--------|-7---------------|--------|--------|
A|--------|-------------|--------|--------|--------|-5---------------|--------|--------|
D|--------|-------------|--------|--------|--------|-0---------------|--------|--------|


E|------------------------|---------------------------|---------------------------|
B|------------------------|---------------------------|---------------------------|
G|-7---------7---7--------|-7---7--------7---7--------|-7---7--------7---7--------|
D|-7---------7---7--------|-7---7--------7---7--------|-7---7--------7---7--------|
A|-5---------5---5--------|-5---5--------5---5--------|-5---5--------5---5--------|
D|-0---------0---0--------|-0---0--------0---0--------|-0---0--------0---0--------|


E|---------------------------|---------------------|---------------------|---------------------|
B|---------------------------|---------------------|---------------------|---------------------|
G|-7---7--------7---7--------|-7----7----7----7----|-7----7----7----7----|-7----7----7----7----|
D|-7---7--------7---7--------|-7----7----7----7----|-7----7----7----7----|-7----7----7----7----|
A|-5---5--------5---5--------|-5----5----5----5----|-5----5----5----5----|-5----5----5----5----|
D|-0---0--------0---0--------|-0----0----0----0----|-0----0----0----0----|-0----0----0----0----|


E|---------------------|--------|--------|
B|---------------------|--------|--------|
G|-7----7----7----7----|--------|--------|
D|-7----7----7----7----|--------|--------|
A|-5----5----5----5----|--------|--------|
D|-0----0----0----0----|--------|--------|





Track 3: Guitar III

E|--------|--------|--------|--------|--------|--------|-----------------------------------------------|
B|--------|--------|--------|--------|--------|--------|-----------------------------------------------|
G|--------|--------|--------|--------|--------|--------|-----------------------------------------------|
D|--------|--------|--------|--------|--------|--------|-5--4--5--4--5---5--4--5--4--5--7--5--4--0--4--|
A|--------|--------|--------|--------|--------|--------|-----------------------------------------------|
D|--------|--------|--------|--------|--------|--------|-----------------------------------------------|


E|--------|--------|--------|--------|--------|--------|--------|--------|--------|
B|--------|--------|--------|--------|--------|--------|--------|--------|--------|
G|--------|--------|--------|--------|--------|--------|--------|--------|--------|
D|--------|--------|--------|--------|--------|--------|--------|--------|--------|
A|--------|--------|--------|--------|--------|--------|--------|--------|--------|
D|--------|--------|--------|--------|--------|--------|--------|--------|--------|


E|--------|--------|--------|--------|--------|--------|--------|--------|--------|
B|--------|--------|--------|--------|--------|--------|--------|--------|--------|
G|--------|--------|--------|--------|--------|--------|--------|--------|--------|
D|--------|--------|--------|--------|--------|--------|--------|--------|--------|
A|--------|--------|--------|--------|--------|--------|--------|--------|--------|
D|--------|--------|--------|--------|--------|--------|--------|--------|--------|


E|--------|--------|--------|--------|--------|--------|--------|--------|--------|
B|--------|--------|--------|--------|--------|--------|--------|--------|--------|
G|--------|--------|--------|--------|--------|--------|--------|--------|--------|
D|--------|--------|--------|--------|--------|--------|--------|--------|--------|
A|--------|--------|--------|--------|--------|--------|--------|--------|--------|
D|--------|--------|--------|--------|--------|--------|--------|--------|--------|


E|--------|--------|--------|--------|--------|--------|--------|--------|--------|
B|--------|--------|--------|--------|--------|--------|--------|--------|--------|
G|--------|--------|--------|--------|--------|--------|--------|--------|--------|
D|--------|--------|--------|--------|--------|--------|--------|--------|--------|
A|--------|--------|--------|--------|--------|--------|--------|--------|--------|
D|--------|--------|--------|--------|--------|--------|--------|--------|--------|


E|--------|--------|--------|--------|--------|--------|--------|--------|--------|
B|--------|--------|--------|--------|--------|--------|--------|--------|--------|
G|--------|--------|--------|--------|--------|--------|--------|--------|--------|
D|--------|--------|--------|--------|--------|--------|--------|--------|--------|
A|--------|--------|--------|--------|--------|--------|--------|--------|--------|
D|--------|--------|--------|--------|--------|--------|--------|--------|--------|


E|--------|--------|--------|--------|--------|--------|--------|--------|--------|
B|--------|--------|--------|--------|--------|--------|--------|--------|--------|
G|--------|--------|--------|--------|--------|--------|--------|--------|--------|
D|--------|--------|--------|--------|--------|--------|--------|--------|--------|
A|--------|--------|--------|--------|--------|--------|--------|--------|--------|
D|--------|--------|--------|--------|--------|--------|--------|--------|--------|


E|--------|--------|--------|--------|--------|--------|--------|--------|--------|
B|--------|--------|--------|--------|--------|--------|--------|--------|--------|
G|--------|--------|--------|--------|--------|--------|--------|--------|--------|
D|--------|--------|--------|--------|--------|--------|--------|--------|--------|
A|--------|--------|--------|--------|--------|--------|--------|--------|--------|
D|--------|--------|--------|--------|--------|--------|--------|--------|--------|


E|--------|--------|--------|--------|--------|--------|--------|-----------------------------------------------|
B|--------|--------|--------|--------|--------|--------|--------|-----------------------------------------------|
G|--------|--------|--------|--------|--------|--------|--------|-----------------------------------------------|
D|--------|--------|--------|--------|--------|--------|--------|-5--4--5--4--5---5--4--5--4--5--7--5--4--0--4--|
A|--------|--------|--------|--------|--------|--------|--------|-----------------------------------------------|
D|--------|--------|--------|--------|--------|--------|--------|-----------------------------------------------|


E|-----------------------------------------------|-----------------------------------------------|
B|-----------------------------------------------|-----------------------------------------------|
G|-----------------------------------------------|-----------------------------------------------|
D|-5--4--5--4--5---5--4--5--4--5--7--5--4--0--4--|-5--4--5--4--5---5--4--5--4--5--7--5--4--0--4--|
A|-----------------------------------------------|-----------------------------------------------|
D|-----------------------------------------------|-----------------------------------------------|


E|-----------------------------------------------|--------|--------|
B|-----------------------------------------------|--------|--------|
G|-----------------------------------------------|--------|--------|
D|-5--4--5--4--5---5--4--5--4--5--7--5--4--0--4--|--------|--------|
A|-----------------------------------------------|--------|--------|
D|-----------------------------------------------|--------|--------|





Track 4: Clean Guitar

E|--------|--------|--------|--------|--------|--------|--------|--------|--------|
B|--------|--------|--------|--------|--------|--------|--------|--------|--------|
G|--------|--------|--------|--------|--------|--------|--------|--------|--------|
D|--------|--------|--------|--------|--------|--------|--------|--------|--------|
A|--------|--------|--------|--------|--------|--------|--------|--------|--------|
D|--------|--------|--------|--------|--------|--------|--------|--------|--------|


E|--------|--------|--------|--------|--------|--------|--------|--------|--------|
B|--------|--------|--------|--------|--------|--------|--------|--------|--------|
G|--------|--------|--------|--------|--------|--------|--------|--------|--------|
D|--------|--------|--------|--------|--------|--------|--------|--------|--------|
A|--------|--------|--------|--------|--------|--------|--------|--------|--------|
D|--------|--------|--------|--------|--------|--------|--------|--------|--------|


E|--------|--------|--------|--------|--------|--------|--------|--------|--------|
B|--------|--------|--------|--------|--------|--------|--------|--------|--------|
G|--------|--------|--------|--------|--------|--------|--------|--------|--------|
D|--------|--------|--------|--------|--------|--------|--------|--------|--------|
A|--------|--------|--------|--------|--------|--------|--------|--------|--------|
D|--------|--------|--------|--------|--------|--------|--------|--------|--------|


E|--------|--------|--------|--------|--------|--------|--------|--------|--------|
B|--------|--------|--------|--------|--------|--------|--------|--------|--------|
G|--------|--------|--------|--------|--------|--------|--------|--------|--------|
D|--------|--------|--------|--------|--------|--------|--------|--------|--------|
A|--------|--------|--------|--------|--------|--------|--------|--------|--------|
D|--------|--------|--------|--------|--------|--------|--------|--------|--------|


E|--------|--------|--------|--------|--------|--------|--------|--------|--------|
B|--------|--------|--------|--------|--------|--------|--------|--------|--------|
G|--------|--------|--------|--------|--------|--------|--------|--------|--------|
D|--------|--------|--------|--------|--------|--------|--------|--------|--------|
A|--------|--------|--------|--------|--------|--------|--------|--------|--------|
D|--------|--------|--------|--------|--------|--------|--------|--------|--------|


E|--------|--------|--------|--------|--------|--------|--------|--------|--------|
B|--------|--------|--------|--------|--------|--------|--------|--------|--------|
G|--------|--------|--------|--------|--------|--------|--------|--------|--------|
D|--------|--------|--------|--------|--------|--------|--------|--------|--------|
A|--------|--------|--------|--------|--------|--------|--------|--------|--------|
D|--------|--------|--------|--------|--------|--------|--------|--------|--------|


E|--------|--------|--------|--------|--------|--------|--------|--------|--------|
B|--------|--------|--------|--------|--------|--------|--------|--------|--------|
G|--------|--------|--------|--------|--------|--------|--------|--------|--------|
D|--------|--------|--------|--------|--------|--------|--------|--------|--------|
A|--------|--------|--------|--------|--------|--------|--------|--------|--------|
D|--------|--------|--------|--------|--------|--------|--------|--------|--------|


E|------------------------------|---------------------------------|---------------------------------|
B|------15----------15----------|-15----------15----------15------|-------------15--15----------15--|
G|----------14----------14------|-----14----------14----------14--|---------14----------14----------|
D|-12-----------12----------12--|---------12----------12----------|-12--12------------------12------|
A|------------------------------|---------------------------------|---------------------------------|
D|------------------------------|---------------------------------|---------------------------------|


E|------------------------------|--------|--------|--------|--------|--------|--------|
B|---------15----------15-------|--------|--------|--------|--------|--------|--------|
G|-14----------14---------------|--------|--------|--------|--------|--------|--------|
D|-----12----------12-----------|--------|--------|--------|--------|--------|--------|
A|------------------------------|--------|--------|--------|--------|--------|--------|
D|------------------------------|--------|--------|--------|--------|--------|--------|


E|--------|--------|--------|--------|--------|--------|--------|--------|--------|
B|--------|--------|--------|--------|--------|--------|--------|--------|--------|
G|--------|--------|--------|--------|--------|--------|--------|--------|--------|
D|--------|--------|--------|--------|--------|--------|--------|--------|--------|
A|--------|--------|--------|--------|--------|--------|--------|--------|--------|
D|--------|--------|--------|--------|--------|--------|--------|--------|--------|


E|--------|
B|--------|
G|--------|
D|--------|
A|--------|
D|--------|