Menu:

 

Search:

 

brendan newell - no estoy triste:

 



Title: No Estoy Triste
Artist: 
Album: 
Author: Brendan Newell


Track 1: Acoustic Guitar

E|---------------------------------|-------------------------------------|-0--1--------------1--3--------------|
B|-1---------------1---------------|-0--1--------------0--1--------------|-------1-------1---------1-------1---|
G|---------0-----------0-------0---|-------0-------0---------2-------2---|-----------2-----------------2-------|
D|-----3-------3---2-------2-------|-----------2-----------------2-------|-3-----------------0-----------------|
A|---------------------------------|-3-----------------0-----------------|-------------------------------------|
E|---------------------------------|-------------------------------------|-------------------------------------|


E|-------------------------------------|-0--1--------------1--3--------------|---------------------------------|
B|-0--1--------------0--1--------------|-------1-------1---------1-------1---|-1---------------1---------------|
G|-------0-------0---------2-------2---|-----------2-----------------2-------|-----0-------0-------0-------0---|
D|-----------2-----------------2-------|-3-----------------0-----------------|-3-------3-------2-------2-------|
A|-3-----------------0-----------------|-------------------------------------|---------------------------------|
E|-------------------------------------|-------------------------------------|---------------------------------|


E|---------------------------------|-------------1---------------3---|-1---------------1---------------|
B|-----1-----------------------1---|-----1---------------3-----------|-----3-------3-------3-------3---|
G|---------0-----------2-----------|---------2---------------5-------|---------2---------------2-------|
D|-------------2-----------2-------|-3---------------5---------------|-0---------------0---------------|
A|-3---------------0---------------|---------------------------------|---------------------------------|
E|---------------------------------|---------------------------------|---------------------------------|


E|---------------------------------|---------------------------------|-------------1---------------3---|
B|-1---------------1---------------|-----1-----------------------1---|-----1---------------3-----------|
G|-----0-------0-------0-------0---|---------0-----------2-----------|---------2---------------5-------|
D|-3-------3-------2-------2-------|-------------2-----------2-------|-3---------------5---------------|
A|---------------------------------|-3---------------0---------------|---------------------------------|
E|---------------------------------|---------------------------------|---------------------------------|


E|-1---------------1---------------|---------------------------------|---------------------------------|
B|-----3-------3-------3-------3---|-1---------------1---------------|-----1-----------------------1---|
G|---------2---------------2-------|-----0-------0-------0-------0---|---------0-----------2-----------|
D|-0---------------0---------------|-3-------3-------2-------2-------|-------------2-----------2-------|
A|---------------------------------|---------------------------------|-3---------------0---------------|
E|---------------------------------|---------------------------------|---------------------------------|


E|-------------1---------------3---|-1---------------1---------------|---------------------------------|
B|-----1---------------3-----------|-----3-------3-------3-------3---|-1---------------1---------------|
G|---------2---------------5-------|---------2---------------2-------|-----0-------0-------0-------0---|
D|-3---------------5---------------|-0---------------0---------------|-3-------3-------2-------2-------|
A|---------------------------------|---------------------------------|---------------------------------|
E|---------------------------------|---------------------------------|---------------------------------|


E|---------------------------------|-------------1---------------3---|-1---------------1---------------|
B|-----1-----------------------1---|-----1---------------3-----------|-----3-------3-------3-------3---|
G|---------0-----------2-----------|---------2---------------5-------|---------2---------------2-------|
D|-------------2-----------2-------|-3---------------5---------------|-0---------------0---------------|
A|-3---------------0---------------|---------------------------------|---------------------------------|
E|---------------------------------|---------------------------------|---------------------------------|


E|---------------------------------|---------------------------------|-------------1---------------3---|
B|-1---------------1---------------|-----1-----------------------1---|-----1---------------3-----------|
G|-----0-------0-------0-------0---|---------0-----------2-----------|---------2---------------5-------|
D|-3-------3-------2-------2-------|-------------2-----------2-------|-3---------------5---------------|
A|---------------------------------|-3---------------0---------------|---------------------------------|
E|---------------------------------|---------------------------------|---------------------------------|


E|-1---------------1---------------|---------------------------------|---------------------------------|
B|-----3-------3-------3-------3---|-1---------------1---------------|-----1-----------------------1---|
G|---------2---------------2-------|-----0-------0-------0-------0---|---------0-----------2-----------|
D|-0---------------0---------------|-3-------3-------2-------2-------|-------------2-----------2-------|
A|---------------------------------|---------------------------------|-3---------------0---------------|
E|---------------------------------|---------------------------------|---------------------------------|


E|-------------1---------------3---|-1---------------1---------------|---------------------------------|
B|-----1---------------3-----------|-----3-------3-------3-------3---|-1---------------1---------------|
G|---------2---------------5-------|---------2---------------2-------|-----0-------0-------0-------0---|
D|-3---------------5---------------|-0---------------0---------------|-3-------3-------2-------2-------|
A|---------------------------------|---------------------------------|---------------------------------|
E|---------------------------------|---------------------------------|---------------------------------|


E|---------------------------------|-------------1---------------3---|-1---------------1---------------|
B|-----1-----------------------1---|-----1---------------3-----------|-----3-------3-------3-------3---|
G|---------0-----------2-----------|---------2---------------5-------|---------2---------------2-------|
D|-------------2-----------2-------|-3---------------5---------------|-0---------------0---------------|
A|-3---------------0---------------|---------------------------------|---------------------------------|
E|---------------------------------|---------------------------------|---------------------------------|


E|---------------------------------|---------------------------------|-------------1---------------3---|
B|-1---------------1---------------|-----1-----------------------1---|-----1---------------3-----------|
G|-----0-------0-------0-------0---|---------0-----------2-----------|---------2---------------5-------|
D|-3-------3-------2-------2-------|-------------2-----------2-------|-3---------------5---------------|
A|---------------------------------|-3---------------0---------------|---------------------------------|
E|---------------------------------|---------------------------------|---------------------------------|


E|-1---------------1---------------|---------------------------------|---------------------------------|
B|-----3-------3-------3-------3---|-1---------------1---------------|-----1-----------------------1---|
G|---------2---------------2-------|-----0-------0-------0-------0---|---------0-----------2-----------|
D|-0---------------0---------------|-3-------3-------2-------2-------|-------------2-----------2-------|
A|---------------------------------|---------------------------------|-3---------------0---------------|
E|---------------------------------|---------------------------------|---------------------------------|


E|-------------1---------------3---|-1---------------1---------------|---------------------------------|
B|-----1---------------3-----------|-----3-------3-------3-------3---|-1---------------1---------------|
G|---------2---------------5-------|---------2---------------2-------|-----0-------0-------0-------0---|
D|-3---------------5---------------|-0---------------0---------------|-3-------3-------2-------2-------|
A|---------------------------------|---------------------------------|---------------------------------|
E|---------------------------------|---------------------------------|---------------------------------|


E|---------------------------------|-------------1---------------3---|-1---------------1---------------|
B|-----1-----------------------1---|-----1---------------3-----------|-----3-------3-------3-------3---|
G|---------0-----------2-----------|---------2---------------5-------|---------2---------------2-------|
D|-------------2-----------2-------|-3---------------5---------------|-0---------------0---------------|
A|-3---------------0---------------|---------------------------------|---------------------------------|
E|---------------------------------|---------------------------------|---------------------------------|


E|---------------------------------|---------------------------------|-------------1---------------3---|
B|-1---------------1---------------|-----1-----------------------1---|-----1---------------3-----------|
G|-----0-------0-------0-------0---|---------0-----------2-----------|---------2---------------5-------|
D|-3-------3-------2-------2-------|-------------2-----------2-------|-3---------------5---------------|
A|---------------------------------|-3---------------0---------------|---------------------------------|
E|---------------------------------|---------------------------------|---------------------------------|


E|-1---------------1---------------|---------------------------------|---------------------------------|
B|-----3-------3-------3-------3---|-1---------------1---------------|-----1-----------------------1---|
G|---------2---------------2-------|-----0-------0-------0-------0---|---------0-----------2-----------|
D|-0---------------0---------------|-3-------3-------2-------2-------|-------------2-----------2-------|
A|---------------------------------|---------------------------------|-3---------------0---------------|
E|---------------------------------|---------------------------------|---------------------------------|


E|-------------1---------------3---|-1---------------1---------------|---------------------------------|
B|-----1---------------3-----------|-----3-------3-------3-------3---|-1---------------1---------------|
G|---------2---------------5-------|---------2---------------2-------|-----0-------0-------0-------0---|
D|-3---------------5---------------|-0---------------0---------------|-3-------3-------2-------2-------|
A|---------------------------------|---------------------------------|---------------------------------|
E|---------------------------------|---------------------------------|---------------------------------|


E|---------------------------------|-------------1---------------3---|-1---------------1---------------|
B|-----1-----------------------1---|-----1---------------3-----------|-----3-------3-------3-------3---|
G|---------0-----------2-----------|---------2---------------5-------|---------2---------------2-------|
D|-------------2-----------2-------|-3---------------5---------------|-0---------------0---------------|
A|-3---------------0---------------|---------------------------------|---------------------------------|
E|---------------------------------|---------------------------------|---------------------------------|


E|---------------------------------|---------------------------------|-------------1---------------3---|
B|-1---------------1---------------|-----1-----------------------1---|-----1---------------3-----------|
G|-----0-------0-------0-------0---|---------0-----------2-----------|---------2---------------5-------|
D|-3-------3-------2-------2-------|-------------2-----------2-------|-3---------------5---------------|
A|---------------------------------|-3---------------0---------------|---------------------------------|
E|---------------------------------|---------------------------------|---------------------------------|


E|-1---------------1---------------|---------------------------------|---------------------------------|
B|-----3-------3-------3-------3---|-1---------------1---------------|-----1-----------------------1---|
G|---------2---------------2-------|-----0-------0-------0-------0---|---------0-----------2-----------|
D|-0---------------0---------------|-3-------3-------2-------2-------|-------------2-----------2-------|
A|---------------------------------|---------------------------------|-3---------------0---------------|
E|---------------------------------|---------------------------------|---------------------------------|


E|---------------------------------|-----------------------|---------------------------------|
B|-----------------1-----------1---|-----1-----------1-----|-1---------------1---------------|
G|-----0-------0-------2-----------|---------2-------------|---------0-----------0-------0---|
D|---------0---------------2-------|-3-----------3---2-----|-----3-------3---2-------2-------|
A|---------------------------------|-----------------------|---------------------------------|
E|-3-------------------------------|-----------------------|---------------------------------|


E|-------------------------------------|-0--1--------------1--3--------------|-------------------------------------|
B|-0--1--------------0--1--------------|-------1-------1---------1-------1---|-0--1--------------0--1--------------|
G|-------0-------0---------2-------2---|-----------2-----------------2-------|-------0-------0---------2-------2---|
D|-----------2-----------------2-------|-3-----------------0-----------------|-----------2-----------------2-------|
A|-3-----------------0-----------------|-------------------------------------|-3-----------------0-----------------|
E|-------------------------------------|-------------------------------------|-------------------------------------|


E|-0--1--------------------|
B|-------1-------1---1-----|
G|-----------2-------0-----|
D|-3-----------------2-----|
A|-------------------3-----|
E|-------------------------|





Track 2: Electric Guitar

E|--------|--------|--------|--------|--------|--------------------|-----------------------------------|
B|--------|--------|--------|--------|--------|-3--5---------------|-3-------5---6---5--6--3-------3---|
G|--------|--------|--------|--------|--------|-------5------2--5--|-----5---------------------5-------|
D|--------|--------|--------|--------|--------|--------------------|-----------------------------------|
A|--------|--------|--------|--------|--------|--------------------|-----------------------------------|
E|--------|--------|--------|--------|--------|--------------------|-----------------------------------|


E|--------|-----------------|--------------------|---------5---3---------------------|
B|--------|-6-----5---------|-3--5---------------|-3---------------5--6--5-----------|
G|-5------|------------7----|-------5------2--5--|-----5---------------------7---5---|
D|--------|-----------------|--------------------|-----------------------------------|
A|--------|-----------------|--------------------|-----------------------------------|
E|--------|-----------------|--------------------|-----------------------------------|


E|--------|------------------|--------|--------|--------|--------|--------|--------|
B|--------|-3--5-------------|--------|--------|--------|--------|--------|--------|
G|-9------|-------5---5------|--------|--------|--------|--------|--------|--------|
D|--------|------------------|--------|--------|--------|--------|--------|--------|
A|--------|------------------|--------|--------|--------|--------|--------|--------|
E|--------|------------------|--------|--------|--------|--------|--------|--------|


E|--------|--------|--------|--------|--------|--------|--------|--------|--------|
B|--------|--------|--------|--------|--------|--------|--------|--------|--------|
G|--------|--------|--------|--------|--------|--------|--------|--------|--------|
D|--------|--------|--------|--------|--------|--------|--------|--------|--------|
A|--------|--------|--------|--------|--------|--------|--------|--------|--------|
E|--------|--------|--------|--------|--------|--------|--------|--------|--------|


E|--------|------------------|--------|-----------------------------|--------|-----------------------------------------|
B|--------|-3--5-------------|--------|-3--5-----------5--------5---|--------|-------8---6--6--5------5----------------|
G|--------|-------5---5------|--------|-------5---5--------5--------|-7------|-7--9----------------7-----7---5--5--4---|
D|--------|------------------|--------|-----------------------------|--------|-----------------------------------------|
A|--------|------------------|--------|-----------------------------|--------|-----------------------------------------|
E|--------|------------------|--------|-----------------------------|--------|-----------------------------------------|


E|--------|-------------------------------|--------|---------------5-----------------|
B|--------|-8----6---5----6---5-------5---|--------|-8----6---5--------8---6--6--5---|
G|--------|-----------------------7-------|-5------|---------------------------------|
D|-5------|-------------------------------|--------|---------------------------------|
A|--------|-------------------------------|--------|---------------------------------|
E|--------|-------------------------------|--------|---------------------------------|


E|--------|---------------------------|--------|------8---10---10--10--8---10--|-15-----|
B|--------|-------3--5--3-------------|--------|-10----------------------------|--------|
G|-5------|-----------------5--5--4---|-5------|-------------------------------|--------|
D|--------|---------------------------|--------|-------------------------------|--------|
A|--------|---------------------------|--------|-------------------------------|--------|
E|--------|---------------------------|--------|-------------------------------|--------|


E|-15--17--19--20--19-19---17--19--|-20-----|-19-20-19--17-19-17--15----|-15-17-15-13-12-12-12-------13-12----15---|
B|---------------------------------|--------|---------------------------|----------------------15-13-------13------|
G|---------------------------------|--------|---------------------------|------------------------------------------|
D|---------------------------------|--------|---------------------------|------------------------------------------|
A|---------------------------------|--------|---------------------------|------------------------------------------|
E|---------------------------------|--------|---------------------------|------------------------------------------|


E|-17----20---19---|-20-----|-13---15---17---19---|-20---22---20---19---|-20-----|
B|-----------------|--------|---------------------|---------------------|--------|
G|-----------------|--------|---------------------|---------------------|--------|
D|-----------------|--------|---------------------|---------------------|--------|
A|-----------------|--------|---------------------|---------------------|--------|
E|-----------------|--------|---------------------|---------------------|--------|


E|-22---22---22--22--20--22--|-20-----|--------|--------|--------|--------|--------|
B|---------------------------|--------|--------|--------|--------|--------|--------|
G|---------------------------|--------|--------|--------|--------|--------|--------|
D|---------------------------|--------|--------|--------|--------|--------|--------|
A|---------------------------|--------|--------|--------|--------|--------|--------|
E|---------------------------|--------|--------|--------|--------|--------|--------|


E|--------|--------|--------|--------|--------|--------|--------|--------|--------|
B|--------|--------|--------|--------|--------|--------|--------|--------|--------|
G|--------|--------|--------|--------|--------|--------|--------|--------|--------|
D|--------|--------|--------|--------|--------|--------|--------|--------|--------|
A|--------|--------|--------|--------|--------|--------|--------|--------|--------|
E|--------|--------|--------|--------|--------|--------|--------|--------|--------|


E|--------|--------|
B|--------|--------|
G|--------|--------|
D|--------|--------|
A|--------|--------|
E|--------|--------|





Track 3: Cello

E|--------|--------|--------|--------|--------|---------------------|---------------------|
B|--------|--------|--------|--------|--------|-1----1----1----1----|-1----1----1----1----|
G|--------|--------|--------|--------|--------|-2----2----0----0----|-2----2----2----2----|
D|--------|--------|--------|--------|--------|-3----3----2----2----|-3----3----2----2----|
A|--------|--------|--------|--------|--------|-----------3----3----|-3----3----0----0----|
E|--------|--------|--------|--------|--------|---------------------|-1----1--------------|


E|-1----1----1----1----|-1----1----0----0----|---------------------|---------------------|
B|-1----1----3----3----|-3----3----1----1----|-1----1----1----1----|-1----1----1----1----|
G|-2----2----5----5----|-2----2----2----2----|-2----2----0----0----|-2----2----2----2----|
D|-3----3----5----5----|-0----0----2----2----|-3----3----2----2----|-3----3----2----2----|
A|---------------------|---------------------|-----------3----3----|-3----3----0----0----|
E|---------------------|---------------------|---------------------|-1----1--------------|


E|-1----1----1----1----|-1----1----0----0----|--------|--------|--------|--------|
B|-1----1----3----3----|-3----3----1----1----|--------|--------|--------|--------|
G|-2----2----5----5----|-2----2----2----2----|--------|--------|--------|--------|
D|-3----3----5----5----|-0----0----2----2----|--------|--------|--------|--------|
A|---------------------|---------------------|--------|--------|--------|--------|
E|---------------------|---------------------|--------|--------|--------|--------|


E|---------------------|---------------------|-1----1----1----1----|-1----1----0----0----|
B|-1----1----1----1----|-1----1----1----1----|-1----1----3----3----|-3----3----1----1----|
G|-2----2----0----0----|-2----2----2----2----|-2----2----5----5----|-2----2----2----2----|
D|-3----3----2----2----|-3----3----2----2----|-3----3----5----5----|-0----0----2----2----|
A|-----------3----3----|-3----3----0----0----|---------------------|---------------------|
E|---------------------|-1----1--------------|---------------------|---------------------|


E|---------------------------|---------------------------|-----------------|-1----1----1--0--------------|
B|-1----1--------------------|-1----1--------------------|-----------------|-3----3----------3---1---3---|
G|-2----2----2---0-------2---|-2----2----2---0-------0---|-----------------|-2----2----------------------|
D|-3----3----3---2---2---3---|-2----2----2---0---2---0---|-----------------|-0----0----------------------|
A|-------------------3-------|-------------------3-------|-3----3-----3----|-----------------------------|
E|---------------------------|---------------------------|-----------------|-----------------------------|


E|---------------------------|---------------------------|-----------------|-1----1----1--0--------------|
B|-1----1--------------------|-1----1--------------------|-----------------|-3----3----------3---1---3---|
G|-2----2----2---0-------2---|-2----2----2---0-------0---|-----------------|-2----2----------------------|
D|-3----3----3---2---2---3---|-2----2----2---0---2---0---|-----------------|-0----0----------------------|
A|-------------------3-------|-------------------3-------|-3----3-----3----|-----------------------------|
E|---------------------------|---------------------------|-----------------|-----------------------------|


E|---------------------|---------------------|-1----1----1----1----|-1----1----0----0----|
B|-1----1----1----1----|-1----1----1----1----|-1----1----3----3----|-3----3----1----1----|
G|-2----2----0----0----|-2----2----2----2----|-2----2----5----5----|-2----2----2----2----|
D|-3----3----2----2----|-3----3----2----2----|-3----3----5----5----|-0----0----2----2----|
A|-----------3----3----|-3----3----0----0----|---------------------|---------------------|
E|---------------------|-1----1--------------|---------------------|---------------------|


E|---------------------|---------------------|-1----1----1----1----|-1----1----0----0----|
B|-1----1----1----1----|-1----1----1----1----|-1----1----3----3----|-3----3----1----1----|
G|-2----2----0----0----|-2----2----2----2----|-2----2----5----5----|-2----2----2----2----|
D|-3----3----2----2----|-3----3----2----2----|-3----3----5----5----|-0----0----2----2----|
A|-----------3----3----|-3----3----0----0----|---------------------|---------------------|
E|---------------------|-1----1--------------|---------------------|---------------------|


E|---------------------|---------------------|-1----1----1----1----|-1----1----0----0----|
B|-1----1----1----1----|-1----1----1----1----|-1----1----3----3----|-3----3----1----1----|
G|-2----2----0----0----|-2----2----2----2----|-2----2----5----5----|-2----2----2----2----|
D|-3----3----2----2----|-3----3----2----2----|-3----3----5----5----|-0----0----2----2----|
A|-----------3----3----|-3----3----0----0----|---------------------|---------------------|
E|---------------------|-1----1--------------|---------------------|---------------------|


E|---------------------|---------------------|-1----1----1----1----|-1----1----0----0----|
B|-1----1----1----1----|-1----1----1----1----|-1----1----3----3----|-3----3----1----1----|
G|-2----2----0----0----|-2----2----2----2----|-2----2----5----5----|-2----2----2----2----|
D|-3----3----2----2----|-3----3----2----2----|-3----3----5----5----|-0----0----2----2----|
A|-----------3----3----|-3----3----0----0----|---------------------|---------------------|
E|---------------------|-1----1--------------|---------------------|---------------------|


E|---------------------|---------------------|-1----1----1----1----|-1----1----0----0----|
B|-1----1----1----1----|-1----1----1----1----|-1----1----3----3----|-3----3----1----1----|
G|-2----2----0----0----|-2----2----2----2----|-2----2----5----5----|-2----2----2----2----|
D|-3----3----2----2----|-3----3----2----2----|-3----3----5----5----|-0----0----2----2----|
A|-----------3----3----|-3----3----0----0----|---------------------|---------------------|
E|---------------------|-1----1--------------|---------------------|---------------------|


E|---------------------|---------------------|-1----1----1----1----|-1----1----0----0----|
B|-1----1----1----1----|-1----1----1----1----|-1----1----3----3----|-3----3----1----1----|
G|-2----2----0----0----|-2----2----2----2----|-2----2----5----5----|-2----2----2----2----|
D|-3----3----2----2----|-3----3----2----2----|-3----3----5----5----|-0----0----2----2----|
A|-----------3----3----|-3----3----0----0----|---------------------|---------------------|
E|---------------------|-1----1--------------|---------------------|---------------------|


E|---------------------|---------------------|-1----1----1----1----|-1----1----0----0----|
B|-1----1----1----1----|-1----1----1----1----|-1----1----3----3----|-3----3----1----1----|
G|-2----2----0----0----|-2----2----2----2----|-2----2----5----5----|-2----2----2----2----|
D|-3----3----2----2----|-3----3----2----2----|-3----3----5----5----|-0----0----2----2----|
A|-----------3----3----|-3----3----0----0----|---------------------|---------------------|
E|---------------------|-1----1--------------|---------------------|---------------------|


E|---------------------|---------------------|-1----1----1----1----|-1----1----0----0----|
B|-1----1----1----1----|-1----1----1----1----|-1----1----3----3----|-3----3----1----1----|
G|-2----2----0----0----|-2----2----2----2----|-2----2----5----5----|-2----2----2----2----|
D|-3----3----2----2----|-3----3----2----2----|-3----3----5----5----|-0----0----2----2----|
A|-----------3----3----|-3----3----0----0----|---------------------|---------------------|
E|---------------------|-1----1--------------|---------------------|---------------------|


E|---------------------|---------------------|-----------0----0----|---------------------|
B|-1----1----1----1----|-1----1----1----1----|-----------1----1----|-1----1----1----1----|
G|-2----2----0----0----|-2----2----2----2----|-0----0----2----2----|-2----2----0----0----|
D|-3----3----2----2----|-3----3----2----2----|-0----0----2----2----|-3----3----2----2----|
A|-----------3----3----|-3----3----0----0----|-2----2--------------|-----------3----3----|
E|---------------------|-1----1--------------|-3----3--------------|---------------------|


E|--------|--------|--------|--------|--------|
B|--------|--------|--------|--------|--------|
G|--------|--------|--------|--------|--------|
D|--------|--------|--------|--------|--------|
A|--------|--------|--------|--------|--------|
E|--------|--------|--------|--------|--------|





Track 4: Electric Bass

G|--------|--------|--------|--------|--------|-9---7-------7---------7-----------|
D|--------|--------|--------|--------|--------|---------10------10-10-----10--10--|
A|--------|--------|--------|--------|--------|-----------------------------------|
E|--------|--------|--------|--------|--------|-----------------------------------|


G|--------|-14--12--10--9---12----|-14---12---9---------|-7--9--7------7-----------9---7----|
D|-10-----|-----------------------|----------------12---|----------10------10--7------------|
A|--------|-----------------------|---------------------|-----------------------------------|
E|--------|-----------------------|---------------------|-----------------------------------|


G|-9---12---9---9--7----------7---|-12-----|-14---12---9---------|--------|--------|
D|--------------------10--10------|--------|----------------12---|--------|--------|
A|--------------------------------|--------|---------------------|--------|--------|
E|--------------------------------|--------|---------------------|--------|--------|


G|--------|--------|--------|--------|--------|--------|--------|--------|--------|
D|--------|--------|--------|--------|--------|--------|--------|--------|--------|
A|--------|--------|--------|--------|--------|--------|--------|--------|--------|
E|--------|--------|--------|--------|--------|--------|--------|--------|--------|


G|--------|--------|--------|--------|--------|-9---7-------7---------7-----------|
D|--------|--------|--------|--------|--------|---------10------10-10-----10--10--|
A|--------|--------|--------|--------|--------|-----------------------------------|
E|--------|--------|--------|--------|--------|-----------------------------------|


G|--------|-14--12--10--9---12----|-14---12---9---------|-7--9--7------7-----------9---7----|
D|-10-----|-----------------------|----------------12---|----------10------10--7------------|
A|--------|-----------------------|---------------------|-----------------------------------|
E|--------|-----------------------|---------------------|-----------------------------------|


G|-9---12---9---9--7----------7---|-12-----|-14---12---9---------|-----7-----------7--9--------7---|
D|--------------------10--10------|--------|----------------12---|-10------10--9-----------10------|
A|--------------------------------|--------|---------------------|---------------------------------|
E|--------------------------------|--------|---------------------|---------------------------------|


G|--------|-------14--12--10--9---|-10-----|--------|-9---12---9---9--7----------7---|
D|-10-----|-10--------------------|--------|-10-----|--------------------10--10------|
A|--------|-----------------------|--------|--------|--------------------------------|
E|--------|-----------------------|--------|--------|--------------------------------|


G|--------|-14---12---9---------|-------9---7-------7---|-------9---12--14--16-16-17--|
D|-10-----|----------------12---|-10------------10------|-10--------------------------|
A|--------|---------------------|-----------------------|-----------------------------|
E|--------|---------------------|-----------------------|-----------------------------|


G|-17----19--21--19--17--19--|-17-----|-----------------|------7----9----10---|-12--14--16--17--19--16--17--19--|
D|---------------------------|--------|------7----10----|-10------------------|---------------------------------|
A|---------------------------|--------|-10--------------|---------------------|---------------------------------|
E|---------------------------|--------|-----------------|---------------------|---------------------------------|


G|-21----21--22--21--19--17--|-17----14--12--10--9---|-7-----------7---------|----------7---9---7-------7---|
D|---------------------------|-----------------------|-----10--10------10----|-7---10---------------10------|
A|---------------------------|-----------------------|-----------------------|------------------------------|
E|---------------------------|-----------------------|-----------------------|------------------------------|


G|--------|--------|--------|--------|--------|--------|--------|--------|--------|
D|-10-----|--------|--------|--------|--------|--------|--------|--------|--------|
A|--------|--------|--------|--------|--------|--------|--------|--------|--------|
E|--------|--------|--------|--------|--------|--------|--------|--------|--------|


G|--------|--------|--------|--------|--------|
D|--------|--------|--------|--------|--------|
A|--------|--------|--------|--------|--------|
E|--------|--------|--------|--------|--------|