Menu:

 

Search:

 

bon jovi - the distance:

 



Title: The Distance
Artist: 
Album: Bounce
Author: Bon Jovi


Track 1: Distortion

E|-------------------------------------------------|-------------------------------------------------|
B|-------------------------------------------------|-------------------------------------------------|
G|-5-----------------------------------------------|-5-----------------------------------------------|
D|----5-----5--------5--------5--------5-----5-----|----5-----5--------5--------5--------5-----5-----|
A|-------5-----5--5-----5--5-----5--5-----5-----5--|-------5-----5--5-----5--5-----5--5-----5-----5--|
D|-------------------------------------------------|-------------------------------------------------|


E|-----------------------------|-----------------------------|-------------------------------------------|
B|-----------------------------|-----------------------------|-------------------------------------------|
G|-6----7----6----7----6---7---|-6----7----9----7----6---7---|-4---------4------------4-----4--4------4--|
D|-6----7----6----7----6---7---|-6----7----9----7----6---7---|-4---------4------------4-----4--4------4--|
A|-4----5----4----5----4---5---|-4----5----7----5----4---5---|-2---2--2--2---2--2--2--2--2--2--2---2--2--|
D|-----------------------------|-----------------------------|-------------------------------------------|


E|--------------------|-----------------------------|-----------------------------|
B|--------------------|-----------------------------|-----------------------------|
G|--------------------|-6----7----6----7----6---7---|-6----7----9----7----6---7---|
D|-5------5---5---5---|-6----7----6----7----6---7---|-6----7----9----7----6---7---|
A|-5------5---5---5---|-4----5----4----5----4---5---|-4----5----7----5----4---5---|
D|-5------5---5---5---|-----------------------------|-----------------------------|


E|-------------------------------------------|--------|--------|--------|--------|
B|-------------------------------------------|--------|--------|--------|--------|
G|-4---------4------------4-----4--4------4--|--------|--------|--------|--------|
D|-4---------4------------4-----4--4------4--|-5------|--------|--------|--------|
A|-2---2--2--2---2--2--2--2--2--2--2---2--2--|-5------|--------|--------|--------|
D|-------------------------------------------|-5------|--------|--------|--------|


E|--------|--------|--------|--------|--------|--------|--------|--------|--------|
B|--------|--------|--------|--------|--------|--------|--------|--------|--------|
G|--------|--------|--------|--------|--------|--------|--------|--------|--------|
D|--------|--------|--------|--------|--------|--------|--------|--------|--------|
A|--------|--------|--------|--------|--------|--------|--------|--------|--------|
D|--------|--------|--------|--------|--------|--------|--------|--------|--------|


E|--------|--------|-----------------------------------------|-------------------------------------------|
B|--------|--------|-----------------------------------------|-------------------------------------------|
G|--------|--------|-----------------------------------------|-------------------------------------------|
D|--------|--------|-5---------5---------5---------5---------|-7---------7---------7---------7--7--7--7--|
A|--------|--------|-5---5--5--5---5--5--5---5--5--5---5--5--|-7---7--7--7---7--7--7---7--7--7--7--7--7--|
D|--------|--------|-5---5--5--5---5--5--5---5--5--5---5--5--|-7---7--7--7---7--7--7---7--7--7--7--7--7--|


E|--------|-------------------------------------|--------|-------------------------------------|
B|--------|-------------------------------------|--------|-------------------------------------|
G|--------|-------------------------------------|--------|-------------------------------------|
D|-0------|-5-------------5---5------------5----|-0------|-5-------------5---5------------5----|
A|-0------|-5----5--5--5--5---5---5--5--5--5----|-0------|-5----5--5--5--5---5---5--5--5--5----|
D|-0------|-5----5--5--5--5---5---5--5--5--5----|-0------|-5----5--5--5--5---5---5--5--5--5----|


E|--------|-------------------------------------|--------|-------------------------------------|
B|--------|-------------------------------------|--------|-------------------------------------|
G|--------|-------------------------------------|-4------|-------------------------------------|
D|-0------|-5-------------5---5------------5----|-4------|-5-------------5---5------------5----|
A|-0------|-5----5--5--5--5---5---5--5--5--5----|-2------|-5----5--5--5--5---5---5--5--5--5----|
D|-0------|-5----5--5--5--5---5---5--5--5--5----|--------|-5----5--5--5--5---5---5--5--5--5----|


E|---------------------------------|----------------|-----------------------------|
B|---------------------------------|----------------|-----------------------------|
G|---------------------------------|----------------|-6----7----6----7----6---7---|
D|-5---4---2---5-------4-------2---|-2---0---3------|-6----7----6----7----6---7---|
A|-5---4---2---5-------4-------2---|-2---0---3------|-4----5----4----5----4---5---|
D|-5---4---2---5-------4-------2---|-2---0---3------|-----------------------------|


E|-----------------------------|-------------------------------------------|--------|
B|-----------------------------|-------------------------------------------|--------|
G|-6----7----9----7----6---7---|-4---------4------------4-----4--4------4--|--------|
D|-6----7----9----7----6---7---|-4---------4------------4-----4--4------4--|-5------|
A|-4----5----7----5----4---5---|-2---2--2--2---2--2--2--2--2--2--2---2--2--|-5------|
D|-----------------------------|-------------------------------------------|-5------|


E|--------|--------|--------|--------|--------|--------|-----------------------------------------|
B|--------|--------|--------|--------|--------|--------|-----------------------------------------|
G|--------|--------|--------|--------|--------|--------|-----------------------------------------|
D|--------|--------|--------|--------|--------|--------|-5---------5---------5---------5---------|
A|--------|--------|--------|--------|--------|--------|-5---5--5--5---5--5--5---5--5--5---5--5--|
D|--------|--------|--------|--------|--------|--------|-5---5--5--5---5--5--5---5--5--5---5--5--|


E|-------------------------------------------|--------|-------------------------------------|
B|-------------------------------------------|--------|-------------------------------------|
G|-------------------------------------------|--------|-------------------------------------|
D|-7---------7---------7---------7--7--7--7--|-0------|-5-------------5---5------------5----|
A|-7---7--7--7---7--7--7---7--7--7--7--7--7--|-0------|-5----5--5--5--5---5---5--5--5--5----|
D|-7---7--7--7---7--7--7---7--7--7--7--7--7--|-0------|-5----5--5--5--5---5---5--5--5--5----|


E|--------|-------------------------------------|--------|-------------------------------------|
B|--------|-------------------------------------|--------|-------------------------------------|
G|--------|-------------------------------------|--------|-------------------------------------|
D|-0------|-5-------------5---5------------5----|-0------|-5-------------5---5------------5----|
A|-0------|-5----5--5--5--5---5---5--5--5--5----|-0------|-5----5--5--5--5---5---5--5--5--5----|
D|-0------|-5----5--5--5--5---5---5--5--5--5----|-0------|-5----5--5--5--5---5---5--5--5--5----|


E|--------|-------------------------------------|---------------------------------|
B|--------|-------------------------------------|---------------------------------|
G|-4------|-------------------------------------|---------------------------------|
D|-4------|-5-------------5---5------------5----|-5---4---2---5-------4-------2---|
A|-2------|-5----5--5--5--5---5---5--5--5--5----|-5---4---2---5-------4-------2---|
D|--------|-5----5--5--5--5---5---5--5--5--5----|-5---4---2---5-------4-------2---|


E|---------------------|-----------------------------------------|-------------------------|
B|---------------------|-----------------------------------------|-------------------------|
G|---------------------|----------------------5---5--5--5--5--5--|-5------4------7---7-----|
D|-2---0---5-----3-----|-0------3------5------5---5--5--5--5--5--|-5------4------7---7-----|
A|-2---0---5-----3-----|-0------3------5------3---3--3--3--3--3--|-3---3--2---2--5---5-----|
D|-2---0---5-----3-----|-0---0--3---0--5---0---------------------|---------------0---0-----|


E|-----------------------------------------|-------------------------|-----------------------------------------|
B|-----------------------------------------|-------------------------|-----------------------------------------|
G|----------------------5---5--5--5--5--5--|-5------4------7---7-----|----------------------5---5--5--5--5--5--|
D|-0------3------5------5---5--5--5--5--5--|-5------4------7---7-----|-0------3------5------5---5--5--5--5--5--|
A|-0------3------5------3---3--3--3--3--3--|-3---3--2---2--5---5-----|-0------3------5------3---3--3--3--3--3--|
D|-0---0--3---0--5---0---------------------|---------------0---0-----|-0---0--3---0--5---0---------------------|


E|-------------------------|-----------------------------------------|-------------------------|
B|-------------------------|-----------------------------------------|-------------------------|
G|-5------4------7---7-----|----------------------5---5--5--5--5--5--|-5------4------7---7-----|
D|-5------4------7---7-----|-0------3------5------5---5--5--5--5--5--|-5------4------7---7-----|
A|-3---3--2---2--5---5-----|-0------3------5------3---3--3--3--3--3--|-3---3--2---2--5---5-----|
D|---------------0---0-----|-0---0--3---0--5---0---------------------|---------------0---0-----|


E|-----------------------------------------|-------------------------|-----------------------------------------|
B|-----------------------------------------|-------------------------|-----------------------------------------|
G|----------------------5---5--5--5--5--5--|-5------4------7---7-----|----------------------5---5--5--5--5--5--|
D|-0------3------5------5---5--5--5--5--5--|-5------4------7---7-----|-0------3------5------5---5--5--5--5--5--|
A|-0------3------5------3---3--3--3--3--3--|-3---3--2---2--5---5-----|-0------3------5------3---3--3--3--3--3--|
D|-0---0--3---0--5---0---------------------|---------------0---0-----|-0---0--3---0--5---0---------------------|


E|-------------------------------------------------|--------|-------------------------------------|
B|-------------------------------------------------|--------|-------------------------------------|
G|-5-----------------------------------------------|--------|-------------------------------------|
D|----5-----5--------5--------5--------5-----5-----|-0------|-5-------------5---5------------5----|
A|-------5-----5--5-----5--5-----5--5-----5-----5--|-0------|-5----5--5--5--5---5---5--5--5--5----|
D|-------------------------------------------------|-0------|-5----5--5--5--5---5---5--5--5--5----|


E|--------|-------------------------------------|--------|-------------------------------------|
B|--------|-------------------------------------|--------|-------------------------------------|
G|--------|-------------------------------------|--------|-------------------------------------|
D|-0------|-5-------------5---5------------5----|-0------|-5-------------5---5------------5----|
A|-0------|-5----5--5--5--5---5---5--5--5--5----|-0------|-5----5--5--5--5---5---5--5--5--5----|
D|-0------|-5----5--5--5--5---5---5--5--5--5----|-0------|-5----5--5--5--5---5---5--5--5--5----|


E|--------|-----------------------------------------|--------|-------------------------------------|
B|--------|-----------------------------------------|--------|-------------------------------------|
G|-4------|-----------------------------------------|--------|-------------------------------------|
D|-4------|-5-------------5---5---------5---5---5---|-0------|-5-------------5---5------------5----|
A|-2------|-5----5--5--5--5---5---5--5--5---5---5---|-0------|-5----5--5--5--5---5---5--5--5--5----|
D|--------|-5----5--5--5--5---5---5--5--5---5---5---|-0------|-5----5--5--5--5---5---5--5--5--5----|


E|--------|-------------------------------------|--------|-------------------------------------|
B|--------|-------------------------------------|--------|-------------------------------------|
G|--------|-------------------------------------|--------|-------------------------------------|
D|-0------|-5-------------5---5------------5----|-0------|-5-------------5---5------------5----|
A|-0------|-5----5--5--5--5---5---5--5--5--5----|-0------|-5----5--5--5--5---5---5--5--5--5----|
D|-0------|-5----5--5--5--5---5---5--5--5--5----|-0------|-5----5--5--5--5---5---5--5--5--5----|


E|--------|-----------------------------------------|---------------------------------|
B|--------|-----------------------------------------|---------------------------------|
G|-4------|-----------------------------------------|---------------------------------|
D|-4------|-5---------5---------5---------5---------|-5---4---2---5-------4-------2---|
A|-2------|-5---5--5--5---5--5--5---5--5--5---5--5--|-5---4---2---5-------4-------2---|
D|--------|-5---5--5--5---5--5--5---5--5--5---5--5--|-5---4---2---5-------4-------2---|


E|---------------------|-----------------------------------------|-------------------------|
B|---------------------|-----------------------------------------|-------------------------|
G|---------------------|----------------------5---5--5--5--5--5--|-5------4------7---7-----|
D|-2---0---5-----3-----|-0------3------5------5---5--5--5--5--5--|-5------4------7---7-----|
A|-2---0---5-----3-----|-0------3------5------3---3--3--3--3--3--|-3---3--2---2--5---5-----|
D|-2---0---5-----3-----|-0---0--3---0--5---0---------------------|---------------0---0-----|


E|-----------------------------------------|-------------------------|-----------------------------------------|
B|-----------------------------------------|-------------------------|-----------------------------------------|
G|----------------------5---5--5--5--5--5--|-5------4------7---7-----|----------------------5---5--5--5--5--5--|
D|-0------3------5------5---5--5--5--5--5--|-5------4------7---7-----|-0------3------5------5---5--5--5--5--5--|
A|-0------3------5------3---3--3--3--3--3--|-3---3--2---2--5---5-----|-0------3------5------3---3--3--3--3--3--|
D|-0---0--3---0--5---0---------------------|---------------0---0-----|-0---0--3---0--5---0---------------------|


E|-------------------------|-----------------------------------------|-------------------------|
B|-------------------------|-----------------------------------------|-------------------------|
G|-5------4------7---7-----|----------------------5---5--5--5--5--5--|-5------4------7---7-----|
D|-5------4------7---7-----|-0------3------5------5---5--5--5--5--5--|-5------4------7---7-----|
A|-3---3--2---2--5---5-----|-0------3------5------3---3--3--3--3--3--|-3---3--2---2--5---5-----|
D|---------------0---0-----|-0---0--3---0--5---0---------------------|---------------0---0-----|


E|-----------------------------------------|-------------------------|-----------------------------------------|
B|-----------------------------------------|-------------------------|-----------------------------------------|
G|----------------------5---5--5--5--5--5--|-5------4------7---7-----|----------------------5---5--5--5--5--5--|
D|-0------3------5------5---5--5--5--5--5--|-5------4------7---7-----|-0------3------5------5---5--5--5--5--5--|
A|-0------3------5------3---3--3--3--3--3--|-3---3--2---2--5---5-----|-0------3------5------3---3--3--3--3--3--|
D|-0---0--3---0--5---0---------------------|---------------0---0-----|-0---0--3---0--5---0---------------------|


E|-------------------------|-----------------------------------------|-------------------------|
B|-------------------------|-----------------------------------------|-------------------------|
G|-5------4------7---7-----|----------------------5---5--5--5--5--5--|-5------4------7---7-----|
D|-5------4------7---7-----|-0------3------5------5---5--5--5--5--5--|-5------4------7---7-----|
A|-3---3--2---2--5---5-----|-0------3------5------3---3--3--3--3--3--|-3---3--2---2--5---5-----|
D|---------------0---0-----|-0---0--3---0--5---0---------------------|---------------0---0-----|


E|-----------------------------------------|-------------------------|
B|-----------------------------------------|-------------------------|
G|----------------------5---5--5--5--5--5--|-5------4------7---7-----|
D|-0------3------5------5---5--5--5--5--5--|-5------4------7---7-----|
A|-0------3------5------3---3--3--3--3--3--|-3---3--2---2--5---5-----|
D|-0---0--3---0--5---0---------------------|---------------0---0-----|





Track 2: Acoustic

E|--------|--------|--------|--------|--------|--------|--------|--------|--------|
B|--------|--------|--------|--------|--------|--------|--------|--------|--------|
G|--------|--------|--------|--------|--------|--------|--------|--------|--------|
D|--------|--------|--------|--------|--------|--------|--------|--------|--------|
A|--------|--------|--------|--------|--------|--------|--------|--------|--------|
D|--------|--------|--------|--------|--------|--------|--------|--------|--------|


E|--------|-2-----------2-----------2-------|-3-----------3-----------3-------|-2-----------2-----------2-------|
B|--------|-3-----------3-----------3-------|-3-----------3-----------3-------|-3-----------3-----------3-------|
G|--------|-2----2--2---2----2--2---2---2---|-0----0--0---0----0--0---0---0---|-2----2--2---2----2--2---2---2---|
D|--------|-0----0--0---0----0--0---0---0---|-0----0--0---0----0--0---0---0---|-0----0--0---0----0--0---0---0---|
A|--------|---------------------------------|---------------------------------|---------------------------------|
D|--------|---------------------------------|---------------------------------|---------------------------------|


E|-3-----------3-----------3-------|-2-----------2-----------2-------|-3-----------3-----------3-------|
B|-3-----------3-----------3-------|-3-----------3-----------3-------|-3-----------3-----------3-------|
G|-0----0--0---0----0--0---0---0---|-4-----------4-----------4-------|-0----0--0---0----0--0---0---0---|
D|-0----0--0---0----0--0---0---0---|-4----4--4---4----4--4---4---4---|-0----0--0---0----0--0---0---0---|
A|---------------------------------|-2----2--2---2----2--2---2---2---|---------------------------------|
D|---------------------------------|---------------------------------|---------------------------------|


E|-3-----------3-----------3-------|-3-----------3-----------3-------|-2-----------2-----------2-------|
B|-3-----------3-----------3-------|-3-----------3-----------3-------|-3-----------3-----------3-------|
G|-0----0--0---0----0--0---0---0---|-0----0--0---0----0--0---0---0---|-2----2--2---2----2--2---2---2---|
D|-0----0--0---0----0--0---0---0---|-0----0--0---0----0--0---0---0---|-0----0--0---0----0--0---0---0---|
A|---------------------------------|---------------------------------|---------------------------------|
D|---------------------------------|---------------------------------|---------------------------------|


E|-3-----------3-----------3-------|-2-----------2-----------2-------|-3-----------3-----------3-------|
B|-3-----------3-----------3-------|-3-----------3-----------3-------|-3-----------3-----------3-------|
G|-0----0--0---0----0--0---0---0---|-2----2--2---2----2--2---2---2---|-0----0--0---0----0--0---0---0---|
D|-0----0--0---0----0--0---0---0---|-0----0--0---0----0--0---0---0---|-0----0--0---0----0--0---0---0---|
A|---------------------------------|---------------------------------|---------------------------------|
D|---------------------------------|---------------------------------|---------------------------------|


E|-2-----------2-----------2-------|-3-----------3-----------3-------|-3---------3---------3---------3---------|
B|-3-----------3-----------3-------|-3-----------3-----------3-------|-3---------3---------3---------3---------|
G|-4-----------4-----------4-------|-0----0--0---0----0--0---0---0---|-0---0--0--0---0--0--0---0--0--0---0--0--|
D|-4----4--4---4----4--4---4---4---|-0----0--0---0----0--0---0---0---|-0---0--0--0---0--0--0---0--0--0---0--0--|
A|-2----2--2---2----2--2---2---2---|---------------------------------|-----------------------------------------|
D|---------------------------------|---------------------------------|-----------------------------------------|


E|-0---------0---------0---------0--0--0--0--|-2-----------2-----------2-------|-3-----------3-----------3-------|
B|-2---------2---------2---------2--2--2--2--|-3-----------3-----------3-------|-3-----------3-----------3-------|
G|-2---2--2--2---2--2--2---2--2--2--2--2--2--|-2----2--2---2----2--2---2---2---|-0----0--0---0----0--0---0---0---|
D|-2---2--2--2---2--2--2---2--2--2--2--2--2--|-0----0--0---0----0--0---0---0---|-0----0--0---0----0--0---0---0---|
A|-------------------------------------------|---------------------------------|---------------------------------|
D|-------------------------------------------|---------------------------------|---------------------------------|


E|-2-----------2-----------2-------|-3-----------3-----------3-------|-2-----------2-----------2-------|
B|-3-----------3-----------3-------|-3-----------3-----------3-------|-3-----------3-----------3-------|
G|-2----2--2---2----2--2---2---2---|-0----0--0---0----0--0---0---0---|-2----2--2---2----2--2---2---2---|
D|-0----0--0---0----0--0---0---0---|-0----0--0---0----0--0---0---0---|-0----0--0---0----0--0---0---0---|
A|---------------------------------|---------------------------------|---------------------------------|
D|---------------------------------|---------------------------------|---------------------------------|


E|-3-----------3-----------3-------|-2-----------2-----------2-------|-3-----------3-----------3-------|
B|-3-----------3-----------3-------|-3-----------3-----------3-------|-3-----------3-----------3-------|
G|-0----0--0---0----0--0---0---0---|-4-----------4-----------4-------|-0----0--0---0----0--0---0---0---|
D|-0----0--0---0----0--0---0---0---|-4----4--4---4----4--4---4---4---|-0----0--0---0----0--0---0---0---|
A|---------------------------------|-2----2--2---2----2--2---2---2---|---------------------------------|
D|---------------------------------|---------------------------------|---------------------------------|


E|---------------------------------|----------------|--------|--------|--------|--------|
B|---------------------------------|----------------|--------|--------|--------|--------|
G|---------------------------------|----------------|--------|--------|--------|--------|
D|-5---4---2---5-------4-------2---|-2---0---3------|--------|--------|--------|--------|
A|-5---4---2---5-------4-------2---|-2---0---3------|--------|--------|--------|--------|
D|-5---4---2---5-------4-------2---|-2---0---3------|--------|--------|--------|--------|


E|-2-----------2-----------2-------|-3-----------3-----------3-------|-2-----------2-----------2-------|
B|-3-----------3-----------3-------|-3-----------3-----------3-------|-3-----------3-----------3-------|
G|-2----2--2---2----2--2---2---2---|-0----0--0---0----0--0---0---0---|-2----2--2---2----2--2---2---2---|
D|-0----0--0---0----0--0---0---0---|-0----0--0---0----0--0---0---0---|-0----0--0---0----0--0---0---0---|
A|---------------------------------|---------------------------------|---------------------------------|
D|---------------------------------|---------------------------------|---------------------------------|


E|-3-----------3-----------3-------|-2-----------2-----------2-------|-3-----------3-----------3-------|
B|-3-----------3-----------3-------|-3-----------3-----------3-------|-3-----------3-----------3-------|
G|-0----0--0---0----0--0---0---0---|-4-----------4-----------4-------|-0----0--0---0----0--0---0---0---|
D|-0----0--0---0----0--0---0---0---|-4----4--4---4----4--4---4---4---|-0----0--0---0----0--0---0---0---|
A|---------------------------------|-2----2--2---2----2--2---2---2---|---------------------------------|
D|---------------------------------|---------------------------------|---------------------------------|


E|-3---------3---------3---------3---------|-0---------0---------0---------0--0--0--0--|
B|-3---------3---------3---------3---------|-2---------2---------2---------2--2--2--2--|
G|-0---0--0--0---0--0--0---0--0--0---0--0--|-2---2--2--2---2--2--2---2--2--2--2--2--2--|
D|-0---0--0--0---0--0--0---0--0--0---0--0--|-2---2--2--2---2--2--2---2--2--2--2--2--2--|
A|-----------------------------------------|-------------------------------------------|
D|-----------------------------------------|-------------------------------------------|


E|-2-----------2-----------2-------|-3-----------3-----------3-------|-2-----------2-----------2-------|
B|-3-----------3-----------3-------|-3-----------3-----------3-------|-3-----------3-----------3-------|
G|-2----2--2---2----2--2---2---2---|-0----0--0---0----0--0---0---0---|-2----2--2---2----2--2---2---2---|
D|-0----0--0---0----0--0---0---0---|-0----0--0---0----0--0---0---0---|-0----0--0---0----0--0---0---0---|
A|---------------------------------|---------------------------------|---------------------------------|
D|---------------------------------|---------------------------------|---------------------------------|


E|-3-----------3-----------3-------|-2-----------2-----------2-------|-3-----------3-----------3-------|
B|-3-----------3-----------3-------|-3-----------3-----------3-------|-3-----------3-----------3-------|
G|-0----0--0---0----0--0---0---0---|-2----2--2---2----2--2---2---2---|-0----0--0---0----0--0---0---0---|
D|-0----0--0---0----0--0---0---0---|-0----0--0---0----0--0---0---0---|-0----0--0---0----0--0---0---0---|
A|---------------------------------|---------------------------------|---------------------------------|
D|---------------------------------|---------------------------------|---------------------------------|


E|-2-----------2-----------2-------|-3-----------3-----------3-------|--------|--------|
B|-3-----------3-----------3-------|-3-----------3-----------3-------|--------|--------|
G|-4-----------4-----------4-------|-0----0--0---0----0--0---0---0---|--------|--------|
D|-4----4--4---4----4--4---4---4---|-0----0--0---0----0--0---0---0---|--------|--------|
A|-2----2--2---2----2--2---2---2---|---------------------------------|--------|--------|
D|---------------------------------|---------------------------------|--------|--------|


E|--------|--------|--------|--------|--------|--------|--------|--------|--------|
B|--------|--------|--------|--------|--------|--------|--------|--------|--------|
G|--------|--------|--------|--------|--------|--------|--------|--------|--------|
D|--------|--------|--------|--------|--------|--------|--------|--------|--------|
A|--------|--------|--------|--------|--------|--------|--------|--------|--------|
D|--------|--------|--------|--------|--------|--------|--------|--------|--------|


E|--------|--------|--------|-2-----------2-----------2-------|-3-----------3-----------3-------|
B|--------|--------|--------|-3-----------3-----------3-------|-3-----------3-----------3-------|
G|--------|--------|--------|-2----2--2---2----2--2---2---2---|-0----0--0---0----0--0---0---0---|
D|--------|--------|--------|-0----0--0---0----0--0---0---0---|-0----0--0---0----0--0---0---0---|
A|--------|--------|--------|---------------------------------|---------------------------------|
D|--------|--------|--------|---------------------------------|---------------------------------|


E|-2-----------2-----------2-------|-3-----------3-----------3-------|-2-----------2-----------2-------|
B|-3-----------3-----------3-------|-3-----------3-----------3-------|-3-----------3-----------3-------|
G|-2----2--2---2----2--2---2---2---|-0----0--0---0----0--0---0---0---|-2----2--2---2----2--2---2---2---|
D|-0----0--0---0----0--0---0---0---|-0----0--0---0----0--0---0---0---|-0----0--0---0----0--0---0---0---|
A|---------------------------------|---------------------------------|---------------------------------|
D|---------------------------------|---------------------------------|---------------------------------|


E|-3-----------3-----------3-------|-2-----------2-----------2-------|-3-----------3-----------3---3---3---|
B|-3-----------3-----------3-------|-3-----------3-----------3-------|-3-----------3-----------3---3---3---|
G|-0----0--0---0----0--0---0---0---|-4-----------4-----------4-------|-0----0--0---0----0--0---0---0---0---|
D|-0----0--0---0----0--0---0---0---|-4----4--4---4----4--4---4---4---|-0----0--0---0----0--0---0---0---0---|
A|---------------------------------|-2----2--2---2----2--2---2---2---|-------------------------------------|
D|---------------------------------|---------------------------------|-------------------------------------|


E|-2-----------2-----------2-------|-3-----------3-----------3-------|-2-----------2-----------2-------|
B|-3-----------3-----------3-------|-3-----------3-----------3-------|-3-----------3-----------3-------|
G|-2----2--2---2----2--2---2---2---|-0----0--0---0----0--0---0---0---|-2----2--2---2----2--2---2---2---|
D|-0----0--0---0----0--0---0---0---|-0----0--0---0----0--0---0---0---|-0----0--0---0----0--0---0---0---|
A|---------------------------------|---------------------------------|---------------------------------|
D|---------------------------------|---------------------------------|---------------------------------|


E|-3-----------3-----------3-------|-2-----------2-----------2-------|-3-----------3-----------3-------|
B|-3-----------3-----------3-------|-3-----------3-----------3-------|-3-----------3-----------3-------|
G|-0----0--0---0----0--0---0---0---|-2----2--2---2----2--2---2---2---|-0----0--0---0----0--0---0---0---|
D|-0----0--0---0----0--0---0---0---|-0----0--0---0----0--0---0---0---|-0----0--0---0----0--0---0---0---|
A|---------------------------------|---------------------------------|---------------------------------|
D|---------------------------------|---------------------------------|---------------------------------|


E|-2-----------2-----------2-------|-3-----------3-----------3-------|---------------------------------|
B|-3-----------3-----------3-------|-3-----------3-----------3-------|---------------------------------|
G|-4-----------4-----------4-------|-0----0--0---0----0--0---0---0---|---------------------------------|
D|-4----4--4---4----4--4---4---4---|-0----0--0---0----0--0---0---0---|-5---4---2---5-------4-------2---|
A|-2----2--2---2----2--2---2---2---|---------------------------------|-5---4---2---5-------4-------2---|
D|---------------------------------|---------------------------------|-5---4---2---5-------4-------2---|


E|---------------------|--------|--------|--------|--------|--------|--------|--------|
B|---------------------|--------|--------|--------|--------|--------|--------|--------|
G|---------------------|--------|--------|--------|--------|--------|--------|--------|
D|-2---0---5-----3-----|--------|--------|--------|--------|--------|--------|--------|
A|-2---0---5-----3-----|--------|--------|--------|--------|--------|--------|--------|
D|-2---0---5-----3-----|--------|--------|--------|--------|--------|--------|--------|


E|--------|--------|--------|--------|--------|--------|--------|--------|--------|
B|--------|--------|--------|--------|--------|--------|--------|--------|--------|
G|--------|--------|--------|--------|--------|--------|--------|--------|--------|
D|--------|--------|--------|--------|--------|--------|--------|--------|--------|
A|--------|--------|--------|--------|--------|--------|--------|--------|--------|
D|--------|--------|--------|--------|--------|--------|--------|--------|--------|





Track 3: Keyboards

E|--------|--------|--------|--------|--------|--------|--------|--------|--------|
B|--------|--------|--------|--------|--------|--------|--------|--------|--------|
G|--------|--------|--------|--------|--------|--------|--------|--------|--------|
D|--------|--------|--------|--------|--------|--------|--------|--------|--------|
A|--------|--------|--------|--------|--------|--------|--------|--------|--------|
D|--------|--------|--------|--------|--------|--------|--------|--------|--------|


E|--------|--------|--------|--------|--------|--------|--------|--------|--------|
B|--------|--------|--------|--------|--------|--------|--------|--------|--------|
G|--------|--------|--------|--------|--------|--------|--------|--------|--------|
D|--------|--------|--------|--------|--------|--------|--------|--------|--------|
A|--------|--------|--------|--------|--------|--------|--------|--------|--------|
D|--------|--------|--------|--------|--------|--------|--------|--------|--------|


E|-14--------14--------14------|-7---------7---------7-------|-14--------14--------14------|
B|------15--------15-------15--|------8---------8--------8---|------15--------15-------15--|
G|-11--------11--------11------|-4---------4---------4-------|-11--------11--------11------|
D|------12--------12-------12--|------5---------5--------5---|------12--------12-------12--|
A|-----------------------------|-----------------------------|-----------------------------|
D|-----------------------------|-----------------------------|-----------------------------|


E|-7---------7---------7-------|-7---------7---------7-------|-3---------3---------3-------|
B|------8---------8--------8---|------7---------7--------7---|------3---------3--------3---|
G|-4---------4---------4-------|-4---------4---------4-------|-0---------0---------0-------|
D|------5---------5--------5---|------4---------4--------4---|------0---------0--------0---|
A|-----------------------------|-----------------------------|-----------------------------|
D|-----------------------------|-----------------------------|-----------------------------|


E|--------|--------|--------|--------|--------|--------|--------|--------|--------|
B|--------|--------|--------|--------|--------|--------|--------|--------|--------|
G|--------|--------|--------|--------|--------|--------|--------|--------|--------|
D|--------|--------|--------|--------|--------|--------|--------|--------|--------|
A|--------|--------|--------|--------|--------|--------|--------|--------|--------|
D|--------|--------|--------|--------|--------|--------|--------|--------|--------|


E|--------|--------|--------|--------|--------|--------|--------|-14--------14--------14------|
B|--------|--------|--------|--------|--------|--------|--------|------15--------15-------15--|
G|--------|--------|--------|--------|--------|--------|--------|-11--------11--------11------|
D|--------|--------|--------|--------|--------|--------|--------|------12--------12-------12--|
A|--------|--------|--------|--------|--------|--------|--------|-----------------------------|
D|--------|--------|--------|--------|--------|--------|--------|-----------------------------|


E|-7---------7---------7-------|-14--------14--------14------|-7---------7---------7-------|
B|------8---------8--------8---|------15--------15-------15--|------8---------8--------8---|
G|-4---------4---------4-------|-11--------11--------11------|-4---------4---------4-------|
D|------5---------5--------5---|------12--------12-------12--|------5---------5--------5---|
A|-----------------------------|-----------------------------|-----------------------------|
D|-----------------------------|-----------------------------|-----------------------------|


E|-7---------7---------7-------|-3---------3---------3-------|--------|--------|--------|
B|------7---------7--------7---|------3---------3--------3---|--------|--------|--------|
G|-4---------4---------4-------|-0---------0---------0-------|--------|--------|--------|
D|------4---------4--------4---|------0---------0--------0---|--------|--------|--------|
A|-----------------------------|-----------------------------|--------|--------|--------|
D|-----------------------------|-----------------------------|--------|--------|--------|


E|--------|--------|--------|--------|--------|--------|--------|--------|--------|
B|--------|--------|--------|--------|--------|--------|--------|--------|--------|
G|--------|--------|--------|--------|--------|--------|--------|--------|--------|
D|--------|--------|--------|--------|--------|--------|--------|--------|--------|
A|--------|--------|--------|--------|--------|--------|--------|--------|--------|
D|--------|--------|--------|--------|--------|--------|--------|--------|--------|


E|--------|--------|--------|--------|--------|--------|--------|--------|--------|
B|--------|--------|--------|--------|--------|--------|--------|--------|--------|
G|--------|--------|--------|--------|--------|--------|--------|--------|--------|
D|--------|--------|--------|--------|--------|--------|--------|--------|--------|
A|--------|--------|--------|--------|--------|--------|--------|--------|--------|
D|--------|--------|--------|--------|--------|--------|--------|--------|--------|


E|--------|--------|--------|--------|--------|--------|--------|--------|--------|
B|--------|--------|--------|--------|--------|--------|--------|--------|--------|
G|--------|--------|--------|--------|--------|--------|--------|--------|--------|
D|--------|--------|--------|--------|--------|--------|--------|--------|--------|
A|--------|--------|--------|--------|--------|--------|--------|--------|--------|
D|--------|--------|--------|--------|--------|--------|--------|--------|--------|


E|--------|--------|--------|--------|--------|--------|--------|--------|--------|
B|--------|--------|--------|--------|--------|--------|--------|--------|--------|
G|--------|--------|--------|--------|--------|--------|--------|--------|--------|
D|--------|--------|--------|--------|--------|--------|--------|--------|--------|
A|--------|--------|--------|--------|--------|--------|--------|--------|--------|
D|--------|--------|--------|--------|--------|--------|--------|--------|--------|


E|--------|--------|--------|--------|--------|--------|--------|--------|--------|
B|--------|--------|--------|--------|--------|--------|--------|--------|--------|
G|--------|--------|--------|--------|--------|--------|--------|--------|--------|
D|--------|--------|--------|--------|--------|--------|--------|--------|--------|
A|--------|--------|--------|--------|--------|--------|--------|--------|--------|
D|--------|--------|--------|--------|--------|--------|--------|--------|--------|


E|--------|--------|--------|--------|--------|--------|--------|--------|--------|
B|--------|--------|--------|--------|--------|--------|--------|--------|--------|
G|--------|--------|--------|--------|--------|--------|--------|--------|--------|
D|--------|--------|--------|--------|--------|--------|--------|--------|--------|
A|--------|--------|--------|--------|--------|--------|--------|--------|--------|
D|--------|--------|--------|--------|--------|--------|--------|--------|--------|


E|--------|
B|--------|
G|--------|
D|--------|
A|--------|
D|--------|





Track 4: Distortion

E|--------|--------|--------|--------|--------|--------|--------|--------|--------|
B|--------|--------|--------|--------|--------|--------|--------|--------|--------|
G|--------|--------|--------|--------|--------|--------|--------|--------|--------|
D|--------|--------|--------|--------|--------|--------|--------|--------|--------|
A|--------|--------|--------|--------|--------|--------|--------|--------|--------|
D|--------|--------|--------|--------|--------|--------|--------|--------|--------|


E|--------|--------|--------|--------|--------|--------|--------|--------|--------|
B|--------|--------|--------|--------|--------|--------|--------|--------|--------|
G|--------|--------|--------|--------|--------|--------|--------|--------|--------|
D|--------|--------|--------|--------|--------|--------|--------|--------|--------|
A|--------|--------|--------|--------|--------|--------|--------|--------|--------|
D|--------|--------|--------|--------|--------|--------|--------|--------|--------|


E|--------|--------|--------|--------|--------|--------|--------|--------|--------|
B|--------|--------|--------|--------|--------|--------|--------|--------|--------|
G|--------|--------|--------|--------|--------|--------|--------|--------|--------|
D|--------|--------|--------|--------|--------|--------|--------|--------|--------|
A|--------|--------|--------|--------|--------|--------|--------|--------|--------|
D|--------|--------|--------|--------|--------|--------|--------|--------|--------|


E|--------|--------|--------|--------|--------|--------|--------|--------|--------|
B|--------|--------|--------|--------|--------|--------|--------|--------|--------|
G|--------|--------|--------|--------|--------|--------|--------|--------|--------|
D|--------|--------|--------|--------|--------|--------|--------|--------|--------|
A|--------|--------|--------|--------|--------|--------|--------|--------|--------|
D|--------|--------|--------|--------|--------|--------|--------|--------|--------|


E|--------|--------|--------|--------|--------|--------|--------|--------|--------|
B|--------|--------|--------|--------|--------|--------|--------|--------|--------|
G|--------|--------|--------|--------|--------|--------|--------|--------|--------|
D|--------|--------|--------|--------|--------|--------|--------|--------|--------|
A|--------|--------|--------|--------|--------|--------|--------|--------|--------|
D|--------|--------|--------|--------|--------|--------|--------|--------|--------|


E|--------|--------|--------|--------|--------|--------|--------|--------|--------|
B|--------|--------|--------|--------|--------|--------|--------|--------|--------|
G|--------|--------|--------|--------|--------|--------|--------|--------|--------|
D|--------|--------|--------|--------|--------|--------|--------|--------|--------|
A|--------|--------|--------|--------|--------|--------|--------|--------|--------|
D|--------|--------|--------|--------|--------|--------|--------|--------|--------|


E|--------|--------|--------|--------|--------|--------|--------|--------|--------|
B|--------|--------|--------|--------|--------|--------|--------|--------|--------|
G|--------|--------|--------|--------|--------|--------|--------|--------|--------|
D|--------|--------|--------|--------|--------|--------|--------|--------|--------|
A|--------|--------|--------|--------|--------|--------|--------|--------|--------|
D|--------|--------|--------|--------|--------|--------|--------|--------|--------|


E|--------|--------|--------|--------|--------|--------|--------|--------|--------|
B|--------|--------|--------|--------|--------|--------|--------|--------|--------|
G|--------|--------|--------|--------|--------|--------|--------|--------|--------|
D|--------|--------|--------|--------|--------|--------|--------|--------|--------|
A|--------|--------|--------|--------|--------|--------|--------|--------|--------|
D|--------|--------|--------|--------|--------|--------|--------|--------|--------|


E|--------|--------|--------|--------|--------|--------|--------|--------|--------|
B|--------|--------|--------|--------|--------|--------|--------|--------|--------|
G|--------|--------|--------|--------|--------|--------|--------|--------|--------|
D|--------|--------|--------|--------|--------|--------|--------|--------|--------|
A|--------|--------|--------|--------|--------|--------|--------|--------|--------|
D|--------|--------|--------|--------|--------|--------|--------|--------|--------|


E|--------|--------|--------|--------|--------|--------|--------|--------|--------|
B|--------|--------|--------|--------|--------|--------|--------|--------|--------|
G|--------|--------|--------|--------|--------|--------|--------|--------|--------|
D|--------|--------|--------|--------|--------|--------|--------|--------|--------|
A|--------|--------|--------|--------|--------|--------|--------|--------|--------|
D|--------|--------|--------|--------|--------|--------|--------|--------|--------|


E|--------|--------|--------|--------|--------|--------|--------|--------|--------|
B|--------|--------|--------|--------|--------|--------|--------|--------|--------|
G|--------|--------|--------|--------|--------|--------|--------|--------|--------|
D|--------|--------|--------|--------|--------|--------|--------|--------|--------|
A|--------|--------|--------|--------|--------|--------|--------|--------|--------|
D|--------|--------|--------|--------|--------|--------|--------|--------|--------|


E|--------|--------|--------|--------|--------|
B|--------|--------|--------|--------|--------|
G|--------|--------|--------|--------|--------|
D|--------|--------|--------|--------|--------|
A|--------|--------|--------|--------|--------|
D|--------|--------|--------|--------|--------|





Track 5: Distortion

E|--------|--------|--------|--------|--------|--------|--------|--------|--------|
B|--------|--------|--------|--------|--------|--------|--------|--------|--------|
G|--------|--------|--------|--------|--------|--------|--------|--------|--------|
D|--------|--------|--------|--------|--------|--------|--------|--------|--------|
A|--------|--------|--------|--------|--------|--------|--------|--------|--------|
D|--------|--------|--------|--------|--------|--------|--------|--------|--------|


E|--------|--------|--------|--------|--------|--------|--------|--------|--------|
B|--------|--------|--------|--------|--------|--------|--------|--------|--------|
G|--------|--------|--------|--------|--------|--------|--------|--------|--------|
D|--------|--------|--------|--------|--------|--------|--------|--------|--------|
A|--------|--------|--------|--------|--------|--------|--------|--------|--------|
D|--------|--------|--------|--------|--------|--------|--------|--------|--------|


E|--------|--------|--------|--------|--------|--------|--------|--------|--------|
B|--------|--------|--------|--------|--------|--------|--------|--------|--------|
G|--------|--------|--------|--------|--------|--------|--------|--------|--------|
D|--------|--------|--------|--------|--------|--------|--------|--------|--------|
A|--------|--------|--------|--------|--------|--------|--------|--------|--------|
D|--------|--------|--------|--------|--------|--------|--------|--------|--------|


E|--------|--------|--------|--------|--------|--------|--------|--------|--------|
B|--------|--------|--------|--------|--------|--------|--------|--------|--------|
G|--------|--------|--------|--------|--------|--------|--------|--------|--------|
D|--------|--------|--------|--------|--------|--------|--------|--------|--------|
A|--------|--------|--------|--------|--------|--------|--------|--------|--------|
D|--------|--------|--------|--------|--------|--------|--------|--------|--------|


E|--------|--------|--------|--------|--------|--------|--------|--------|--------|
B|--------|--------|--------|--------|--------|--------|--------|--------|--------|
G|--------|--------|--------|--------|--------|--------|--------|--------|--------|
D|--------|--------|--------|--------|--------|--------|--------|--------|--------|
A|--------|--------|--------|--------|--------|--------|--------|--------|--------|
D|--------|--------|--------|--------|--------|--------|--------|--------|--------|


E|--------|--------|--------|--------|--------|--------|--------|--------|--------|
B|--------|--------|--------|--------|--------|--------|--------|--------|--------|
G|--------|--------|--------|--------|--------|--------|--------|--------|--------|
D|--------|--------|--------|--------|--------|--------|--------|--------|--------|
A|--------|--------|--------|--------|--------|--------|--------|--------|--------|
D|--------|--------|--------|--------|--------|--------|--------|--------|--------|


E|--------|--------|--------|--------|--------|--------|--------|--------|--------|
B|--------|--------|--------|--------|--------|--------|--------|--------|--------|
G|--------|--------|--------|--------|--------|--------|--------|--------|--------|
D|--------|--------|--------|--------|--------|--------|--------|--------|--------|
A|--------|--------|--------|--------|--------|--------|--------|--------|--------|
D|--------|--------|--------|--------|--------|--------|--------|--------|--------|


E|--------|--------|--------|--------|--------|--------|-------------------------------------------------|
B|--------|--------|--------|--------|--------|--------|-------------------------------------------------|
G|--------|--------|--------|--------|--------|--------|-------------------------------------------------|
D|--------|--------|--------|--------|--------|--------|-------------------------------------------------|
A|--------|--------|--------|--------|--------|--------|-0--0--0--0--0--0--0--0--0--0--0--0--0--0--0--0--|
D|--------|--------|--------|--------|--------|--------|-0--0--0--0--0--0--0--0--0--0--0--0--0--0--0--0--|


E|--------|--------|--------|--------|--------|--------|--------|--------|--------|
B|--------|--------|--------|--------|--------|--------|--------|--------|--------|
G|--------|--------|--------|--------|--------|--------|--------|--------|--------|
D|--------|--------|--------|--------|--------|--------|--------|--------|--------|
A|--------|--------|--------|--------|--------|--------|--------|--------|--------|
D|--------|--------|--------|--------|--------|--------|--------|--------|--------|


E|--------|--------|--------|--------|--------|--------|--------|--------|--------|
B|--------|--------|--------|--------|--------|--------|--------|--------|--------|
G|--------|--------|--------|--------|--------|--------|--------|--------|--------|
D|--------|--------|--------|--------|--------|--------|--------|--------|--------|
A|--------|--------|--------|--------|--------|--------|--------|--------|--------|
D|--------|--------|--------|--------|--------|--------|--------|--------|--------|


E|--------|--------|--------|--------|--------|--------|--------|--------|--------|
B|--------|--------|--------|--------|--------|--------|--------|--------|--------|
G|--------|--------|--------|--------|--------|--------|--------|--------|--------|
D|--------|--------|--------|--------|--------|--------|--------|--------|--------|
A|--------|--------|--------|--------|--------|--------|--------|--------|--------|
D|--------|--------|--------|--------|--------|--------|--------|--------|--------|


E|--------|--------|--------|--------|--------|--------|--------|
B|--------|--------|--------|--------|--------|--------|--------|
G|--------|--------|--------|--------|--------|--------|--------|
D|--------|--------|--------|--------|--------|--------|--------|
A|--------|--------|--------|--------|--------|--------|--------|
D|--------|--------|--------|--------|--------|--------|--------|





Track 6: Bass

G|-------------------------------------------------|------------------------------------------|
D|-------------------------------------------------|------------------------------------------|
A|-------------------------------------------------|------------------------------------------|
D|-0--0--0--0--0--0--0--0--0--0--0--0--0--0--0--0--|-0--0--0--0--0--0--0--0--0--0--0--0--12---|


G|----------------------------------|----------------------------------|-------------------------------------------|
D|----------------------------------|----------------------------------|-------------------------------------------|
A|----------------------------------|------------------------------0---|-2---2--2--2---2--2--2--2--2--2--2---2--0--|
D|-0----0---0--0--0--0--0---0---2---|-5----5---5--5--5--5--5---5-------|-------------------------------------------|


G|--------------------|----------------------------------|----------------------------------|
D|--------------------|----------------------------------|----------------------------------|
A|--------------------|----------------------------------|------------------------------0---|
D|-5------5---5---5---|-0----0---0--0--0--0--0---0---2---|-5----5---5--5--5--5--5---5-------|


G|-------------------------------------------|--------|---------------------------------|
D|-------------------------------------------|--------|---------------------------------|
A|-2---2--2--2---2--2--2--2--2--2--2---2--0--|--------|-5----5--5---5---5---5---5---5---|
D|-------------------------------------------|-5------|---------------------------------|


G|---------------------------------|---------------------------------|---------------------------------|
D|---------------------------------|---------------------------------|---------------------------------|
A|---------------------------------|-5----5--5---5---5---5---5---5---|---------------------------------|
D|-5----5--5---5---5---5---5---5---|---------------------------------|-5----5--5---5---5---5---5---5---|


G|---------------------------------|---------------------------------|---------------------------------|
D|---------------------------------|---------------------------------|---------------------------------|
A|-2----2--2---2---2---2---2---2---|---------------------------------|---------------------------------|
D|---------------------------------|-5----5--5---5---5---5---5---5---|-5----5--5---5---5---5---5---5---|


G|---------------------------------|---------------------------------|---------------------------------|
D|---------------------------------|---------------------------------|---------------------------------|
A|---------------------------------|-5----5--5---5---5---5---5---5---|---------------------------------|
D|-5----5--5---5---5---5---5---5---|---------------------------------|-5----5--5---5---5---5---5---5---|


G|---------------------------------|---------------------------------|---------------------------------|
D|---------------------------------|---------------------------------|---------------------------------|
A|-5----5--5---5---5---5---5---5---|---------------------------------|-2----2--2---2---2---2---2---2---|
D|---------------------------------|-5----5--5---5---5---5---5---5---|---------------------------------|


G|---------------------------------|-----------------------------------------|-------------------------------------------|
D|---------------------------------|-----------------------------------------|-------------------------------------------|
A|---------------------------------|-----------------------------------------|-0---0--0--0---0--0--0---0--0--0--0--0--0--|
D|-5----5--5---5---5---5---5---5---|-5---5--5--5---5--5--5---5--5--5---5--5--|-------------------------------------------|


G|-----------------|-------------------------------------|-----------------|-------------------------------------|
D|-----------------|-------------------------------------|-----------------|-------------------------------------|
A|-----------------|--------------------------------0----|-----------------|--------------------------------0----|
D|-0-----0-----2---|-5----5--5--5--5---5---5--5--5-------|-0-----0-----2---|-5----5--5--5--5---5---5--5--5-------|


G|-----------------|-------------------------------------|-----------------|-------------------------------------|
D|-----------------|-------------------------------------|-----------------|-------------------------------------|
A|-----------------|--------------------------------0----|-2-----2-----0---|-------------------------------------|
D|-0-----0-----2---|-5----5--5--5--5---5---5--5--5-------|-----------------|-5----5--5--5--5---5---5--5--5--5----|


G|---------------------------------|----------------|----------------------------------|
D|---------------------------------|----------------|----------------------------------|
A|---------------------------------|----------------|----------------------------------|
D|-5---4---2---5-------4-------2---|-2---0---3------|-0----0---0--0--0--0--0---0---2---|


G|----------------------------------|-------------------------------------------|--------|
D|----------------------------------|-------------------------------------------|--------|
A|------------------------------0---|-2---2--2--2---2--2--2--2--2--2--2---2--0--|--------|
D|-5----5---5--5--5--5--5---5-------|-------------------------------------------|-5------|


G|---------------------------------|---------------------------------|---------------------------------|
D|---------------------------------|---------------------------------|---------------------------------|
A|-5----5--5---5---5---5---5---5---|---------------------------------|-5----5--5---5---5---5---5---5---|
D|---------------------------------|-5----5--5---5---5---5---5---5---|---------------------------------|


G|---------------------------------|---------------------------------|---------------------------------|
D|---------------------------------|---------------------------------|---------------------------------|
A|---------------------------------|-2----2--2---2---2---2---2---2---|---------------------------------|
D|-5----5--5---5---5---5---5---5---|---------------------------------|-5----5--5---5---5---5---5---5---|


G|-----------------------------------------|-------------------------------------------|
D|-----------------------------------------|-------------------------------------------|
A|-----------------------------------------|-0---0--0--0---0--0--0---0--0--0--0--0--0--|
D|-5---5--5--5---5--5--5---5--5--5---5--5--|-------------------------------------------|


G|-----------------|-------------------------------------|-----------------|-------------------------------------|
D|-----------------|-------------------------------------|-----------------|-------------------------------------|
A|-----------------|--------------------------------0----|-----------------|--------------------------------0----|
D|-0-----0-----2---|-5----5--5--5--5---5---5--5--5-------|-0-----0-----2---|-5----5--5--5--5---5---5--5--5-------|


G|-----------------|-------------------------------------|-----------------|-------------------------------------|
D|-----------------|-------------------------------------|-----------------|-------------------------------------|
A|-----------------|--------------------------------0----|-2-----2-----0---|-------------------------------------|
D|-0-----0-----2---|-5----5--5--5--5---5---5--5--5-------|-----------------|-5----5--5--5--5---5---5--5--5--5----|


G|---------------------------------|----------------|-----------------------------------------|
D|---------------------------------|----------------|-----------------------------------------|
A|---------------------------------|----------------|----------------------3---3--3--3--3--3--|
D|-5---4---2---5-------4-------2---|-2---0---5------|-0---0--3---0--5---0---------------------|


G|-------------------------|-----------------------------------------|-------------------------|
D|-------------------------|-----------------------------------------|-------------------------|
A|-3---3--2---2------------|----------------------3---3--3--3--3--3--|-3---3--2---2------------|
D|---------------0---0-----|-0---0--3---0--5---0---------------------|---------------0---0-----|


G|-----------------------------------------|-------------------------|-----------------------------------------|
D|-----------------------------------------|-------------------------|-----------------------------------------|
A|----------------------3---3--3--3--3--3--|-3---3--2---2------------|----------------------3---3--3--3--3--3--|
D|-0---0--3---0--5---0---------------------|---------------0---0-----|-0---0--3---0--5---0---------------------|


G|-------------------------|-----------------------------------------|-------------------------|
D|-------------------------|-----------------------------------------|-------------------------|
A|-3---3--2---2------------|----------------------3---3--3--3--3--3--|-3---3--2---2------------|
D|---------------0---0-----|-0---0--3---0--5---0---------------------|---------------0---0-----|


G|-----------------------------------------|------------------------------------------|
D|-----------------------------------------|------------------------------------------|
A|----------------------3---3--3--3--3--3--|------------------------------------------|
D|-0---0--3---0--5---0---------------------|-0--0--0--0--0--0--0--0--0--0--0--0--12---|


G|-----------------|-------------------------------------|-----------------|-------------------------------------|
D|-----------------|-------------------------------------|-----------------|-------------------------------------|
A|-----------------|--------------------------------0----|-----------------|--------------------------------0----|
D|-0-----0-----2---|-5----5--5--5--5---5---5--5--5-------|-0-----0-----2---|-5----5--5--5--5---5---5--5--5-------|


G|-----------------|-------------------------------------|-----------------|-----------------------------------------|
D|-----------------|-------------------------------------|-----------------|-----------------------------------------|
A|-----------------|--------------------------------0----|-2-----2-----0---|-----------------------------------------|
D|-0-----0-----2---|-5----5--5--5--5---5---5--5--5-------|-----------------|-5----5--5--5--5---5---5--5--5---5---5---|


G|-----------------|-------------------------------------|-----------------|-------------------------------------|
D|-----------------|-------------------------------------|-----------------|-------------------------------------|
A|-----------------|--------------------------------0----|-----------------|--------------------------------0----|
D|-0-----0-----2---|-5----5--5--5--5---5---5--5--5-------|-0-----0-----2---|-5----5--5--5--5---5---5--5--5-------|


G|-----------------|-------------------------------------|-----------------|-----------------------------------------|
D|-----------------|-------------------------------------|-----------------|-----------------------------------------|
A|-----------------|--------------------------------0----|-2-----2-----0---|-----------------------------------------|
D|-0-----0-----2---|-5----5--5--5--5---5---5--5--5-------|-----------------|-5---5--5--5---5--5--5---5--5--5---5--5--|


G|---------------------------------|---------------------|-----------------------------------------|
D|---------------------------------|---------------------|-----------------------------------------|
A|---------------------------------|---------------------|----------------------3---3--3--3--3--3--|
D|-5---4---2---5-------4-------2---|-2---0---5-----3-----|-0---0--3---0--5---0---------------------|


G|-------------------------|-----------------------------------------|-------------------------|
D|-------------------------|-----------------------------------------|-------------------------|
A|-3---3--2---2------------|----------------------3---3--3--3--3--3--|-3---3--2---2------------|
D|---------------0---0-----|-0---0--3---0--5---0---------------------|---------------0---0-----|


G|-----------------------------------------|-------------------------|-----------------------------------------|
D|-----------------------------------------|-------------------------|-----------------------------------------|
A|----------------------3---3--3--3--3--3--|-3---3--2---2------------|----------------------3---3--3--3--3--3--|
D|-0---0--3---0--5---0---------------------|---------------0---0-----|-0---0--3---0--5---0---------------------|


G|-------------------------|-----------------------------------------|-------------------------|
D|-------------------------|-----------------------------------------|-------------------------|
A|-3---3--2---2------------|----------------------3---3--3--3--3--3--|-3---3--2---2------------|
D|---------------0---0-----|-0---0--3---0--5---0---------------------|---------------0---0-----|


G|-----------------------------------------|-------------------------|-----------------------------------------|
D|-----------------------------------------|-------------------------|-----------------------------------------|
A|----------------------3---3--3--3--3--3--|-3---3--2---2------------|----------------------3---3--3--3--3--3--|
D|-0---0--3---0--5---0---------------------|---------------0---0-----|-0---0--3---0--5---0---------------------|


G|-------------------------|-----------------------------------------|-------------------------|
D|-------------------------|-----------------------------------------|-------------------------|
A|-3---3--2---2------------|----------------------3---3--3--3--3--3--|-3---3--2---2------------|
D|---------------0---0-----|-0---0--3---0--5---0---------------------|---------------0---0-----|





Track 7: Strings

E|--------|--------|--------|--------|--------|--------|--------|--------|-7-------7--------7-----7--7---------|
B|--------|--------|--------|--------|--------|--------|--------|--------|-------------------------------------|
G|--------|--------|--------|--------|-4------|--------|--------|--------|-4-------4--------4-----4--4---4--2--|
D|--------|--------|-0------|-5------|--------|-5------|-0------|-5------|-------------------------------------|
A|--------|--------|--------|--------|-2------|--------|--------|--------|-------------------------------------|
D|--------|--------|-0------|-5------|--------|-5------|-0------|-5------|-------------------------------------|


E|--------|--------|--------|--------|--------|--------|--------|--------|--------|
B|-8------|-8------|--------|--------|--------|--------|--------|--------|--------|
G|--------|--------|--------|--------|--------|--------|--------|--------|--------|
D|-5------|-5------|--------|--------|--------|--------|--------|--------|--------|
A|--------|--------|--------|--------|--------|--------|--------|--------|--------|
D|--------|--------|--------|--------|--------|--------|--------|--------|--------|


E|--------|--------|--------|--------|--------|--------|-----------------5--9--10-12-12---|
B|--------|--------|--------|--------|--------|--------|-8-------8------------------------|
G|-6------|-7------|-6------|-7------|-4------|--------|-----------------2--6--7--9--9----|
D|--------|--------|--------|--------|--------|-5------|-5-------5------------------------|
A|-4------|-5------|-4------|-5------|-2------|--------|----------------------------------|
D|--------|--------|--------|--------|--------|-5------|----------------------------------|


E|-----------------9--10-12-10-12---|-9-----10--10---9----|-5----5-----------5----3----|
B|-10------10-----------------------|---------------------|----------------------------|
G|-----------------6--7--9--7--9----|-6-----7---7----6----|-2----2--2--2--2--2----0----|
D|-7-------7------------------------|---------------------|----------------------------|
A|----------------------------------|---------------------|----------------------------|
D|----------------------------------|---------------------|----------------------------|


E|-9-----10--10---9----|-5----5--5--5--5--5----------15-22-|-22-----17---|---------------------15-22-|
B|---------------------|-----------------------------------|-------------|-20----20--20--------------|
G|-6-----7---7----6----|-2----2--2--2--2--2----12-14-12-19-|-19-----14---|---------------12-14-12-19-|
D|---------------------|-----------------------------------|-------------|-17----17--17--------------|
A|---------------------|-----------------------10-12-------|-------------|---------------10-12-------|
D|---------------------|-----------------------------------|-------------|---------------------------|


E|-22----21--21----|-19----19--17--15------|---------------------------------|----------------|
B|-----------------|-------------------15--|---------------------------------|----------------|
G|-19----18--18----|-16----16--14--12------|-12--11--9---12------11------9---|-9---7---10-----|
D|-----------------|-------------------12--|---------------------------------|----------------|
A|-----------------|-----------------------|-10--9---7---10------9-------7---|-7---5---8------|
D|-----------------|-----------------------|---------------------------------|----------------|


E|--------|--------|-7-------7--------7-----7--7---------|--------|--------|--------|
B|-3------|-8------|-------------------------------------|-8------|--------|--------|
G|--------|--------|-4-------4--------4-----4--4---4--2--|--------|--------|--------|
D|-0------|-5------|-------------------------------------|-5------|--------|--------|
A|--------|--------|-------------------------------------|--------|--------|--------|
D|--------|--------|-------------------------------------|--------|--------|--------|


E|--------|--------|-7------|-3-----------|-------------------------------------|-12------12------12------12------|
B|--------|--------|--------|--------5----|-----------------15-14-12------------|---------------------------------|
G|--------|--------|-4------|-0-----------|-12------12------------------12------|-9-------9-------9-------9-------|
D|--------|--------|--------|--------2----|-----------------12-11-9-------------|---------------------------------|
A|--------|--------|--------|-------------|-10------10------------------10------|---------------------------------|
D|--------|--------|--------|-------------|-------------------------------------|---------------------------------|


E|-9-----10--10---9----|-5----5-----------5----3----|-9-----10--10---9----|-5----5--5--5--5--5----------15-22-|
B|---------------------|----------------------------|---------------------|-----------------------------------|
G|-6-----7---7----6----|-2----2--2--2--2--2----0----|-6-----7---7----6----|-2----2--2--2--2--2----12-14-12-19-|
D|---------------------|----------------------------|---------------------|-----------------------------------|
A|---------------------|----------------------------|---------------------|-----------------------10-12-------|
D|---------------------|----------------------------|---------------------|-----------------------------------|


E|-22-----17---|---------------------15-22-|-22----21--21----|-19----19--17--15------|
B|-------------|-20----20--20--------------|-----------------|-------------------15--|
G|-19-----14---|---------------12-14-12-19-|-19----18--18----|-16----16--14--12------|
D|-------------|-17----17--17--------------|-----------------|-------------------12--|
A|-------------|---------------10-12-------|-----------------|-----------------------|
D|-------------|---------------------------|-----------------|-----------------------|


E|-----------------|--------|--------|--------|--------|--------|--------|--------|
B|-----------------|--------|--------|--------|--------|--------|--------|--------|
G|-7---------------|--------|--------|--------|--------|--------|--------|--------|
D|-------7---7-----|--------|--------|--------|--------|--------|--------|--------|
A|-----------------|-10-----|--------|--------|--------|--------|--------|--------|
D|-----------------|--------|--------|--------|--------|--------|--------|--------|


E|--------|--------|--------|--------|--------|--------|-9-----10--10----|-5-----5---------------|
B|--------|--------|--------|--------|--------|--------|-----------------|-----------------------|
G|--------|--------|--------|--------|--------|--------|-6-----7---7-----|-2-----2---2---2---2---|
D|--------|--------|--------|--------|--------|--------|-----------------|-----------------------|
A|--------|--------|--------|--------|--------|--------|-----------------|-----------0---0---0---|
D|--------|--------|--------|--------|--------|--------|-----------------|-----------------------|


E|-9-----10--10----|-5----3----5----3----------15-22-|-22-----17---|---------------------15-22-|
B|-----------------|---------------------------------|-------------|-20----20--20--------------|
G|-6-----7---7-----|-2----0----2----0----14-12-12-19-|-19-----14---|---------------12-14-12-19-|
D|-----------------|---------------------------------|-------------|-17----17--17--------------|
A|-----------------|---------------------12-10-------|-------------|---------------10-12-------|
D|-----------------|---------------------------------|-------------|---------------------------|


E|-22----21--21----|-19----19--------|-9-----10--10----|-5-----5---------------|-9-----10--10----|
B|-----------------|------------15---|-----------------|-----------------------|-----------------|
G|-19----18--18----|-16----16--------|-6-----7---7-----|-2-----2---2---2---2---|-6-----7---7-----|
D|-----------------|------------12---|-----------------|-----------------------|-----------------|
A|-----------------|-----------------|-----------------|-----------0---0---0---|-----------------|
D|-----------------|-----------------|-----------------|-----------------------|-----------------|


E|-5----3----5----3----------15-22-|-22-----17---|---------------------15-22-|-22----21--21----|
B|---------------------------------|-------------|-20----20--20--------------|-----------------|
G|-2----0----2----0----14-12-12-19-|-19-----14---|---------------12-14-12-19-|-19----18--18----|
D|---------------------------------|-------------|-17----17--17--------------|-----------------|
A|---------------------12-10-------|-------------|---------------10-12-------|-----------------|
D|---------------------------------|-------------|---------------------------|-----------------|


E|-19----19--------|---------------------------------|---------------------|--------|
B|------------15---|---------------------------------|---------------------|--------|
G|-16----16--------|-12--11--9---12------11------9---|-9---7---12----10----|--------|
D|------------12---|---------------------------------|---------------------|--------|
A|-----------------|-10--9---7---10------9-------7---|-7---5---10----8-----|--------|
D|-----------------|---------------------------------|---------------------|--------|


E|--------|--------|--------|-----------------------------------------|-------------------------|
B|--------|--------|--------|-----------------------------------------|-------------------------|
G|--------|--------|--------|-7------10-----19-----17-----17-17-17-17-|-17-----16-----14--14----|
D|--------|--------|--------|-----------------------------------------|-------------------------|
A|--------|--------|--------|-5------8------17-----15-----15-15-15-15-|-15-----14-----12--12----|
D|--------|--------|--------|-----------------------------------------|-------------------------|


E|-----------------------------------------|-------------------------|-10-----13-----22-----20-----20-20-20-20-|
B|-----------------------------------------|-------------------------|-----------------------------------------|
G|-7------10-----19-----17-----17-17-17-17-|-17-----16-----14--14----|-7------10-----19-----17-----17-17-17-17-|
D|-----------------------------------------|-------------------------|-----------------------------------------|
A|-5------8------17-----15-----15-15-15-15-|-15-----14-----12--12----|-5------8------17-----15-----15-15-15-15-|
D|-----------------------------------------|-------------------------|-----------------------------------------|


E|-20-----19-----17--17----|-10-----13-----22-----20-----20-20-20-20-|-20-----19-----17--17----|
B|-------------------------|-----------------------------------------|-------------------------|
G|-17-----16-----14--14----|-7------10-----19-----17-----17-17-17-17-|-17-----16-----14--14----|
D|-------------------------|-----------------------------------------|-------------------------|
A|-15-----14-----12--12----|-5------8------17-----15-----15-15-15-15-|-15-----14-----12--12----|
D|-------------------------|-----------------------------------------|-------------------------|


E|-10-----13-----22-----20-----20-20-20-20-|-20-----19-----17--17----|-10-----13-----22-----20-----20-20-20-20-|
B|-----------------------------------------|-------------------------|-----------------------------------------|
G|-7------10-----19-----17-----17-17-17-17-|-17-----16-----14--14----|-7------10-----19-----17-----17-17-17-17-|
D|-----------------------------------------|-------------------------|-----------------------------------------|
A|-5------8------17-----15-----15-15-15-15-|-15-----14-----12--12----|-5------8------17-----15-----15-15-15-15-|
D|-----------------------------------------|-------------------------|-----------------------------------------|


E|-20-----19-----17--17----|
B|-------------------------|
G|-17-----16-----14--14----|
D|-------------------------|
A|-15-----14-----12--12----|
D|-------------------------|