Menu:

 

Search:

 

bon jovi - blood on blood:

 



Title: Blood On Blood
Artist: 
Album: New Jersey
Author: Jon Bon Jovi, Ritchie Sambora & Desmond Child


Track 1: Distortion

E|--------|--------|--------|-------------|--------|--------|--------|-------------|
B|--------|--------|--------|-------------|--------|--------|--------|-------------|
G|--------|--------|--------|-------------|-7------|-7------|-12-----|-------------|
D|--------|--------|--------|-12----12----|-7------|-7------|-12-----|-12----12----|
A|--------|--------|--------|-10----10----|-5------|-5------|-10-----|-10----10----|
D|--------|--------|--------|-------------|--------|--------|--------|-------------|


E|--------|--------|--------|--------|--------|--------|--------|--------|-2------|
B|--------|--------|--------|--------|--------|--------|--------|--------|-3------|
G|-7------|-7------|-12-----|--------|-7------|-7------|-12-----|-12-----|-4------|
D|-7------|-7------|-12-----|-12-----|-7------|-7------|-12-----|-12-----|-4------|
A|-5------|-5------|-10-----|-10-----|-5------|-5------|-10-----|-10-----|-2------|
D|--------|--------|--------|--------|--------|--------|--------|--------|--------|


E|-2------|--------|---------------------|--------|--------|--------|--------|--------|
B|-3------|--------|---------------------|--------|--------|--------|--------|--------|
G|-4------|-2------|---------------------|-7------|-7------|-7------|-7------|--------|
D|-4------|-2------|---------------------|-7------|-7------|-7------|-7------|--------|
A|-2------|-0------|---------------------|-5------|-5------|-5------|-5------|--------|
D|--------|--------|-5-----4---4----2----|--------|--------|--------|--------|--------|


E|--------|--------|--------|--------|--------|--------|-------------|--------|--------|
B|--------|--------|--------|--------|--------|--------|-------------|--------|--------|
G|--------|--------|--------|--------|--------|--------|-------------|-7------|-7------|
D|--------|--------|--------|--------|--------|--------|-------12----|-7------|-7------|
A|--------|--------|--------|--------|--------|--------|-------10----|-5------|-5------|
D|--------|--------|--------|--------|--------|--------|-------------|--------|--------|


E|--------|--------|-2------|-2------|--------|-------------|--------|-2-----------|
B|--------|--------|-3------|-3------|--------|-------------|--------|-3-----------|
G|-12-----|-12-----|-4------|-4------|-2------|-2-----------|-2------|-4-----------|
D|-12-----|-12-----|-4------|-4------|-2------|-2-----12----|-2------|-4-----5-----|
A|-10-----|-10-----|-2------|-2------|-0------|-0-----10----|-0------|-2-----5-----|
D|--------|--------|--------|--------|--------|-------------|--------|-------5-----|


E|--------|-2-----------|--------|-2-----------|--------|--------|--------|--------|
B|--------|-3-----------|--------|-3-----------|--------|--------|--------|--------|
G|-2------|-4-----------|-2------|-4-----------|-2------|--------|-7------|-7------|
D|-2------|-4-----5-----|-2------|-4-----5-----|-2------|-5------|-7------|-7------|
A|-0------|-2-----5-----|-0------|-2-----5-----|-0------|-5------|-5------|-5------|
D|--------|-------5-----|--------|-------5-----|--------|-5------|--------|--------|


E|--------|--------|-2------|-2------|--------|---------------------|--------|--------|
B|--------|--------|-3------|-3------|--------|---------------------|--------|--------|
G|--------|--------|-4------|-4------|-2------|---------------------|-7------|-7------|
D|-5------|-5------|-4------|-4------|-2------|---------------------|-7------|-7------|
A|-5------|-5------|-2------|-2------|-0------|---------------------|-5------|-5------|
D|-5------|-5------|--------|--------|--------|-5-----4---4----2----|--------|--------|


E|--------|--------|-2------|-2------|--------|---------------------|--------|--------|
B|--------|--------|-3------|-3------|--------|---------------------|--------|--------|
G|--------|--------|-4------|-4------|-2------|---------------------|-7------|-7------|
D|-5------|-5------|-4------|-4------|-2------|---------------------|-7------|-7------|
A|-5------|-5------|-2------|-2------|-0------|---------------------|-5------|-5------|
D|-5------|-5------|--------|--------|--------|-5-----4---4----2----|--------|--------|


E|--------|--------|--------|--------|--------|--------|--------|--------|--------|
B|--------|--------|--------|--------|--------|--------|--------|--------|--------|
G|-7------|-7------|--------|--------|--------|--------|--------|--------|--------|
D|-7------|-7------|--------|--------|--------|--------|--------|--------|--------|
A|-5------|-5------|--------|--------|--------|--------|--------|--------|--------|
D|--------|--------|--------|--------|--------|--------|--------|--------|--------|


E|-------------|--------|--------|--------|--------|-2------|-2------|--------|-------------|
B|-------------|--------|--------|--------|--------|-3------|-3------|--------|-------------|
G|-------------|-7------|-7------|-12-----|-12-----|-4------|-4------|-2------|-2-----------|
D|-------12----|-7------|-7------|-12-----|-12-----|-4------|-4------|-2------|-2-----12----|
A|-------10----|-5------|-5------|-10-----|-10-----|-2------|-2------|-0------|-0-----10----|
D|-------------|--------|--------|--------|--------|--------|--------|--------|-------------|


E|--------|-2-----------|--------|-2-----------|--------|-2-----------|--------|--------|
B|--------|-3-----------|--------|-3-----------|--------|-3-----------|--------|--------|
G|-2------|-4-----------|-2------|-4-----------|-2------|-4-----------|-2------|--------|
D|-2------|-4-----5-----|-2------|-4-----5-----|-2------|-4-----5-----|-2------|-5------|
A|-0------|-2-----5-----|-0------|-2-----5-----|-0------|-2-----5-----|-0------|-5------|
D|--------|-------5-----|--------|-------5-----|--------|-------5-----|--------|-5------|


E|--------|--------|--------|--------|-2------|-2------|--------|---------------------|
B|--------|--------|--------|--------|-3------|-3------|--------|---------------------|
G|-7------|-7------|--------|--------|-4------|-4------|-2------|---------------------|
D|-7------|-7------|-5------|-5------|-4------|-4------|-2------|---------------------|
A|-5------|-5------|-5------|-5------|-2------|-2------|-0------|---------------------|
D|--------|--------|-5------|-5------|--------|--------|--------|-5-----4---4----2----|


E|--------|--------|--------|--------|-2------|-2------|--------|---------------------|
B|--------|--------|--------|--------|-3------|-3------|--------|---------------------|
G|-7------|-7------|--------|--------|-4------|-4------|-2------|---------------------|
D|-7------|-7------|-5------|-5------|-4------|-4------|-2------|---------------------|
A|-5------|-5------|-5------|-5------|-2------|-2------|-0------|---------------------|
D|--------|--------|-5------|-5------|--------|--------|--------|-5-----4---4----2----|


E|--------|--------|--------|--------|--------|--------|--------|--------|--------|
B|--------|--------|--------|--------|--------|--------|--------|--------|--------|
G|--------|--------|--------|--------|--------|--------|--------|--------|--------|
D|--------|--------|--------|--------|--------|--------|--------|--------|--------|
A|--------|--------|--------|--------|--------|--------|--------|--------|--------|
D|--------|--------|--------|--------|--------|--------|--------|--------|--------|


E|--------|--------|--------|--------|--------|--------|--------|--------|--------|
B|--------|--------|--------|--------|--------|--------|--------|--------|--------|
G|--------|--------|--------|--------|--------|--------|--------|--------|--------|
D|--------|--------|--------|--------|--------|--------|--------|--------|--------|
A|--------|--------|--------|--------|--------|--------|--------|--------|--------|
D|--------|--------|--------|--------|--------|--------|--------|--------|--------|


E|--------|--------|--------|--------|--------|--------|--------|--------|--------|
B|--------|--------|--------|--------|--------|--------|--------|--------|--------|
G|--------|--------|--------|--------|--------|--------|--------|--------|--------|
D|--------|--------|--------|--------|--------|--------|--------|--------|--------|
A|--------|--------|--------|--------|--------|--------|--------|--------|--------|
D|--------|--------|--------|--------|--------|--------|--------|--------|--------|


E|--------|--------|--------|--------|--------|--------|--------|--------|--------|
B|--------|--------|--------|--------|--------|--------|--------|--------|--------|
G|--------|--------|--------|--------|--------|--------|--------|--------|--------|
D|--------|--------|--------|--------|--------|--------|--------|--------|--------|
A|--------|--------|--------|--------|--------|--------|--------|--------|--------|
D|--------|--------|--------|--------|--------|--------|--------|--------|--------|


E|--------|--------|--------|--------|--------|--------|--------|--------|-2------|
B|--------|--------|--------|--------|--------|--------|--------|--------|-3------|
G|--------|--------|--------|--------|-7------|-7------|-12-----|-12-----|-4------|
D|--------|--------|--------|--------|--------|--------|-12-----|-12-----|-4------|
A|--------|--------|--------|--------|-5------|-5------|-10-----|-10-----|-2------|
D|--------|--------|--------|--------|--------|--------|--------|--------|--------|


E|-2------|--------|---------------------------------|--------|--------|--------|--------|
B|-3------|--------|---------------------------------|--------|--------|--------|--------|
G|-4------|-2------|-2---2---2---2---2---2---2---2---|-7------|-7------|--------|--------|
D|-4------|-2------|-2---2---2---2---2---2---2---2---|-7------|-7------|--------|--------|
A|-2------|-0------|-0---0---0---0---0---0---0---0---|-5------|-5------|--------|--------|
D|--------|--------|---------------------------------|--------|--------|--------|--------|


E|--------|--------|--------|--------|--------|--------|--------|--------|--------|
B|--------|--------|--------|--------|--------|--------|--------|--------|--------|
G|--------|--------|--------|--------|--------|--------|--------|--------|--------|
D|--------|--------|--------|--------|--------|--------|--------|--------|--------|
A|--------|--------|--------|--------|--------|--------|--------|--------|--------|
D|--------|--------|--------|--------|--------|--------|--------|--------|--------|


E|--------|-------------|-------------|--------|--------|--------|--------|-2------|
B|--------|-------------|-------------|--------|--------|--------|--------|-3------|
G|--------|-------------|-------------|-7------|-7------|--------|--------|-4------|
D|--------|-12----12----|-12----12----|-7------|-7------|-5------|-5------|-4------|
A|--------|-10----10----|-10----10----|-5------|-5------|-5------|-5------|-2------|
D|--------|-------------|-------------|--------|--------|-5------|-5------|--------|


E|-2------|--------|---------------------|--------|--------|--------|--------|-2------|
B|-3------|--------|---------------------|--------|--------|--------|--------|-3------|
G|-4------|-2------|---------------------|-7------|-7------|--------|--------|-4------|
D|-4------|-2------|---------------------|-7------|-7------|-5------|-5------|-4------|
A|-2------|-0------|---------------------|-5------|-5------|-5------|-5------|-2------|
D|--------|--------|-5-----4---4----2----|--------|--------|-5------|-5------|--------|


E|-2------|--------|---------------------|---------------------|---------------------|
B|-3------|--------|---------------------|---------------------|---------------------|
G|-4------|-2------|---------------------|-7-----7---7----7----|-7-----7---7----7----|
D|-4------|-2------|---------------------|-7-----7---7----7----|-7-----7---7----7----|
A|-2------|-0------|---------------------|-5-----5---5----5----|-5-----5---5----5----|
D|--------|--------|-5-----4---4----2----|---------------------|---------------------|


E|---------------------|---------------------|--------|--------|--------|---------------------|
B|---------------------|---------------------|--------|--------|--------|---------------------|
G|-12----12--12---12---|---------------------|-7------|-7------|--------|---------------------|
D|-12----12--12---12---|---------------------|-7------|-7------|-5------|-5-------------------|
A|-10----10--10---10---|---------------------|-5------|-5------|-5------|-5-------------------|
D|---------------------|-5-----4---4----2----|--------|--------|-5------|-5-----4---4----2----|


E|--------|--------|--------|---------------------|--------|--------|--------|---------------------|
B|--------|--------|--------|---------------------|--------|--------|--------|---------------------|
G|-7------|-7------|--------|---------------------|-7------|-7------|--------|---------------------|
D|-7------|-7------|-5------|-5-------------------|-7------|-7------|-5------|-5-------------------|
A|-5------|-5------|-5------|-5-------------------|-5------|-5------|-5------|-5-------------------|
D|--------|--------|-5------|-5-----4---4----2----|--------|--------|-5------|-5-----4---4----2----|


E|--------|--------|--------|---------------------|--------|-10-----|-10-----|
B|--------|--------|--------|---------------------|-3------|-3------|-3------|
G|-7------|-7------|--------|---------------------|-2------|-2------|-2------|
D|-7------|-7------|-5------|---------------------|-0------|-0------|-0------|
A|-5------|-5------|-5------|---------------------|--------|--------|--------|
D|--------|--------|-5------|-5-----4---4----2----|--------|--------|--------|





Track 2: Distortion II

E|--------|--------|--------|--------|--------|--------|--------|--------|--------|
B|--------|--------|--------|--------|--------|--------|--------|--------|--------|
G|--------|--------|--------|--------|--------|--------|--------|--------|--------|
D|--------|--------|--------|--------|--------|--------|--------|--------|--------|
A|--------|--------|--------|--------|--------|--------|--------|--------|--------|
D|--------|--------|--------|--------|--------|--------|--------|--------|--------|


E|--------|--------|--------|--------|--------|--------|--------|--------|--------|
B|--------|--------|--------|--------|--------|--------|--------|--------|--------|
G|--------|--------|--------|--------|--------|--------|--------|--------|--------|
D|--------|--------|--------|--------|--------|--------|--------|--------|--------|
A|--------|--------|--------|--------|--------|--------|--------|--------|--------|
D|--------|--------|--------|--------|--------|--------|--------|--------|--------|


E|--------|--------|--------|--------|--------|--------|--------|--------|--------|
B|--------|--------|--------|--------|--------|--------|--------|--------|--------|
G|--------|--------|--------|--------|--------|--------|--------|--------|--------|
D|--------|--------|--------|--------|--------|--------|--------|--------|--------|
A|--------|--------|--------|--------|--------|--------|--------|--------|--------|
D|--------|--------|--------|--------|--------|--------|--------|--------|--------|


E|--------|--------|--------|--------|--------|--------|--------|--------|--------|
B|--------|--------|--------|--------|--------|--------|--------|--------|--------|
G|--------|--------|--------|--------|--------|--------|--------|--------|--------|
D|--------|--------|--------|--------|--------|--------|--------|--------|--------|
A|--------|--------|--------|--------|--------|--------|--------|--------|--------|
D|--------|--------|--------|--------|--------|--------|--------|--------|--------|


E|--------|--------|--------|--------|--------|--------|--------|--------|--------|
B|--------|--------|--------|--------|--------|--------|--------|--------|--------|
G|--------|--------|--------|--------|--------|--------|--------|--------|--------|
D|--------|--------|--------|--------|--------|--------|--------|--------|--------|
A|--------|--------|--------|--------|--------|--------|--------|--------|--------|
D|--------|--------|--------|--------|--------|--------|--------|--------|--------|


E|--------|--------|--------|--------|--------|--------|--------|--------|--------|
B|--------|--------|--------|--------|--------|--------|--------|--------|--------|
G|--------|--------|--------|--------|--------|--------|--------|--------|--------|
D|--------|--------|--------|--------|--------|--------|--------|--------|--------|
A|--------|--------|--------|--------|--------|--------|--------|--------|--------|
D|--------|--------|--------|--------|--------|--------|--------|--------|--------|


E|--------|--------|--------|--------|--------|--------|--------|--------|--------|
B|--------|--------|--------|--------|--------|--------|--------|--------|--------|
G|--------|--------|--------|--------|--------|--------|--------|--------|--------|
D|--------|--------|--------|--------|--------|--------|--------|--------|--------|
A|--------|--------|--------|--------|--------|--------|--------|--------|--------|
D|--------|--------|--------|--------|--------|--------|--------|--------|--------|


E|--------|--------|--------|--------|--------|--------|--------|--------|--------|
B|--------|--------|--------|--------|--------|--------|--------|--------|--------|
G|--------|--------|--------|--------|--------|--------|--------|--------|--------|
D|--------|--------|--------|--------|--------|--------|--------|--------|--------|
A|--------|--------|--------|--------|--------|--------|--------|--------|--------|
D|--------|--------|--------|--------|--------|--------|--------|--------|--------|


E|--------|--------|--------|--------|--------|--------|--------|--------|--------|
B|--------|--------|--------|--------|--------|--------|--------|--------|--------|
G|--------|--------|--------|--------|--------|--------|--------|--------|--------|
D|--------|--------|--------|--------|--------|--------|--------|--------|--------|
A|--------|--------|--------|--------|--------|--------|--------|--------|--------|
D|--------|--------|--------|--------|--------|--------|--------|--------|--------|


E|--------|--------|--------|--------|--------|--------|--------|--------|--------|
B|--------|--------|--------|--------|--------|--------|--------|--------|--------|
G|--------|--------|--------|--------|--------|--------|--------|--------|--------|
D|--------|--------|--------|--------|--------|--------|--------|--------|--------|
A|--------|--------|--------|--------|--------|--------|--------|--------|--------|
D|--------|--------|--------|--------|--------|--------|--------|--------|--------|


E|--------|--------|--------|--------|--------|--------|--------|--------|--------|
B|--------|--------|--------|--------|--------|--------|--------|--------|--------|
G|--------|--------|--------|--------|--------|--------|--------|--------|--------|
D|--------|--------|--------|--------|--------|--------|--------|--------|--------|
A|--------|--------|--------|--------|--------|--------|--------|--------|--------|
D|--------|--------|--------|--------|--------|--------|--------|--------|--------|


E|--------|--------|--------|--------|--------|--------|--------|--------|--------|
B|--------|--------|--------|--------|--------|--------|--------|--------|--------|
G|--------|--------|--------|--------|--------|--------|--------|--------|--------|
D|--------|--------|--------|--------|--------|--------|--------|--------|--------|
A|--------|--------|--------|--------|--------|--------|--------|--------|--------|
D|--------|--------|--------|--------|--------|--------|--------|--------|--------|


E|---------------------|---------------------|------------------------|-------------------------|
B|---------------------|---------------------|------------------------|-------------------------|
G|---------------------|---------------------|------------------------|-------------------------|
D|---------------------|---------------------|------------------------|-------------------------|
A|---------------------|-----7-----7----7----|-7---7---7----7-----7---|-7--7--------------------|
D|-2-----5---5----7----|-7-------------------|------------------------|-------7---7---7---7-----|


E|-------------------------------|---------------------------|--------------------|
B|-5----5----5----5----5----5----|-7--5----5----5----2---5---|-2------------------|
G|-------------------------------|---------------------------|-----2--------------|
D|-------------------------------|---------------------------|---------2----2-----|
A|-------------------------------|---------------------------|--------------------|
D|-------------------------------|---------------------------|--------------------|


E|------------------------|------------------|-------------------------------------------------|
B|------------------------|------------------|-------------------------------------------------|
G|------------------------|------------------|-------------------------------------9--11-9-----|
D|------------------------|------------------|-------------------------------9--12----------12-|
A|-7----7--7----7----5----|-7--7--7---7------|-------5-----5--7-----5--7--9--------------------|
D|------------------------|------------------|-5--7-----7--------------------------------------|


E|--------------------------------------------10-|-12----12--12--12--10---|-----------------------------|
B|--------------------------------------10-12----|------------------------|-12------------------17--19--|
G|--------------9--------------9--11-11----------|------------------------|-------0---16-16-19----------|
D|-9---12-9--12----12-9--9--12-------------------|------------------------|-----------------------------|
A|-----------------------------------------------|------------------------|-----------------------------|
D|-----------------------------------------------|------------------------|-----------------------------|


E|-17-----|-17--17--17--17----17----17--|-22---22---22---22----|-22-----|-22-----|
B|--------|----------------19-----------|----------------------|--------|--------|
G|--------|-----------------------------|----------------------|--------|--------|
D|--------|-----------------------------|----------------------|--------|--------|
A|--------|-----------------------------|----------------------|--------|--------|
D|--------|-----------------------------|----------------------|--------|--------|


E|-22-----|---------------------|--------|--------|--------|--------|--------|--------|
B|--------|---------------------|--------|--------|--------|--------|--------|--------|
G|--------|---------------------|-7------|-7------|-7------|-7------|--------|--------|
D|--------|---------------------|-7------|-7------|-7------|-7------|--------|--------|
A|--------|---------------------|-5------|-5------|-5------|-5------|--------|--------|
D|--------|-5-----4---4----2----|--------|--------|--------|--------|--------|--------|


E|--------|--------|--------|--------|--------|--------|--------|--------|--------|
B|--------|--------|--------|--------|--------|--------|--------|--------|--------|
G|--------|--------|--------|--------|--------|--------|--------|--------|--------|
D|--------|--------|--------|--------|--------|--------|--------|--------|--------|
A|--------|--------|--------|--------|--------|--------|--------|--------|--------|
D|--------|--------|--------|--------|--------|--------|--------|--------|--------|


E|--------|--------|--------|--------|--------|--------|--------|--------|--------|
B|--------|--------|--------|--------|--------|--------|--------|--------|--------|
G|--------|--------|--------|--------|--------|--------|--------|--------|--------|
D|--------|--------|--------|--------|--------|--------|--------|--------|--------|
A|--------|--------|--------|--------|--------|--------|--------|--------|--------|
D|--------|--------|--------|--------|--------|--------|--------|--------|--------|


E|--------|--------|--------|--------|--------|--------|--------|--------|--------|
B|--------|--------|--------|--------|--------|--------|--------|--------|--------|
G|--------|--------|--------|--------|--------|--------|--------|--------|--------|
D|--------|--------|--------|--------|--------|--------|--------|--------|--------|
A|--------|--------|--------|--------|--------|--------|--------|--------|--------|
D|--------|--------|--------|--------|--------|--------|--------|--------|--------|


E|--------|--------|--------|--------|--------|--------|--------|--------|--------|
B|--------|--------|--------|--------|--------|--------|--------|--------|--------|
G|--------|--------|--------|--------|--------|--------|--------|--------|--------|
D|--------|--------|--------|--------|--------|--------|--------|--------|--------|
A|--------|--------|--------|--------|--------|--------|--------|--------|--------|
D|--------|--------|--------|--------|--------|--------|--------|--------|--------|


E|--------|--------|--------|--------|--------|--------|--------|--------|--------|
B|--------|--------|--------|--------|--------|--------|--------|--------|--------|
G|--------|--------|--------|--------|--------|--------|--------|--------|--------|
D|--------|--------|--------|--------|--------|--------|--------|--------|--------|
A|--------|--------|--------|--------|--------|--------|--------|--------|--------|
D|--------|--------|--------|--------|--------|--------|--------|--------|--------|


E|--------|--------|--------|--------|--------|--------|--------|--------|--------|
B|--------|--------|--------|--------|--------|--------|--------|--------|--------|
G|--------|--------|--------|--------|--------|--------|--------|--------|--------|
D|--------|--------|--------|--------|--------|--------|--------|--------|--------|
A|--------|--------|--------|--------|--------|--------|--------|--------|--------|
D|--------|--------|--------|--------|--------|--------|--------|--------|--------|


E|--------|--------|--------|--------|--------|--------|--------|--------|--------|
B|--------|--------|--------|--------|--------|--------|--------|--------|--------|
G|--------|--------|--------|--------|--------|--------|--------|--------|--------|
D|--------|--------|--------|--------|--------|--------|--------|--------|--------|
A|--------|--------|--------|--------|--------|--------|--------|--------|--------|
D|--------|--------|--------|--------|--------|--------|--------|--------|--------|


E|--------|--------|--------|--------|--------|--------|--------|--------|--------|
B|--------|--------|--------|--------|--------|--------|--------|--------|--------|
G|--------|--------|--------|--------|--------|--------|--------|--------|--------|
D|--------|--------|--------|--------|--------|--------|--------|--------|--------|
A|--------|--------|--------|--------|--------|--------|--------|--------|--------|
D|--------|--------|--------|--------|--------|--------|--------|--------|--------|


E|--------|--------|--------|--------|--------|
B|--------|--------|--------|--------|--------|
G|--------|--------|--------|--------|--------|
D|--------|--------|--------|--------|--------|
A|--------|--------|--------|--------|--------|
D|--------|--------|--------|--------|--------|





Track 3: Acoustic

E|--------|--------|--------|--------|--------|--------|--------|--------|--------|
B|--------|--------|--------|--------|--------|--------|--------|--------|--------|
G|--------|--------|--------|--------|--------|--------|--------|--------|--------|
D|--------|--------|--------|--------|--------|--------|--------|--------|--------|
A|--------|--------|--------|--------|--------|--------|--------|--------|--------|
E|--------|--------|--------|--------|--------|--------|--------|--------|--------|


E|--------|--------|--------|--------|--------|--------|--------|--------|--------|
B|--------|--------|--------|--------|--------|--------|--------|--------|--------|
G|--------|--------|--------|--------|--------|--------|--------|--------|--------|
D|--------|--------|--------|--------|--------|--------|--------|--------|--------|
A|--------|--------|--------|--------|--------|--------|--------|--------|--------|
E|--------|--------|--------|--------|--------|--------|--------|--------|--------|


E|--------|--------|--------|--------|--------|--------|--------|--------|--------|
B|--------|--------|--------|--------|--------|--------|--------|--------|--------|
G|--------|--------|--------|--------|--------|--------|--------|--------|--------|
D|--------|--------|--------|--------|--------|--------|--------|--------|--------|
A|--------|--------|--------|--------|--------|--------|--------|--------|--------|
E|--------|--------|--------|--------|--------|--------|--------|--------|--------|


E|--------|--------|--------|--------|--------|--------|--------|--------|--------|
B|--------|--------|--------|--------|--------|--------|--------|--------|--------|
G|--------|--------|--------|--------|--------|--------|--------|--------|--------|
D|--------|--------|--------|--------|--------|--------|--------|--------|--------|
A|--------|--------|--------|--------|--------|--------|--------|--------|--------|
E|--------|--------|--------|--------|--------|--------|--------|--------|--------|


E|--------|--------|--------|--------|--------|--------|--------|--------|--------|
B|--------|--------|--------|--------|--------|--------|--------|--------|--------|
G|--------|--------|--------|--------|--------|--------|--------|--------|--------|
D|--------|--------|--------|--------|--------|--------|--------|--------|--------|
A|--------|--------|--------|--------|--------|--------|--------|--------|--------|
E|--------|--------|--------|--------|--------|--------|--------|--------|--------|


E|--------|--------|--------|--------|--------|--------|--------|--------|--------|
B|--------|--------|--------|--------|--------|--------|--------|--------|--------|
G|--------|--------|--------|--------|--------|--------|--------|--------|--------|
D|--------|--------|--------|--------|--------|--------|--------|--------|--------|
A|--------|--------|--------|--------|--------|--------|--------|--------|--------|
E|--------|--------|--------|--------|--------|--------|--------|--------|--------|


E|--------|--------|--------|--------|--------|--------|--------|--------|--------|
B|--------|--------|--------|--------|--------|--------|--------|--------|--------|
G|--------|--------|--------|--------|--------|--------|--------|--------|--------|
D|--------|--------|--------|--------|--------|--------|--------|--------|--------|
A|--------|--------|--------|--------|--------|--------|--------|--------|--------|
E|--------|--------|--------|--------|--------|--------|--------|--------|--------|


E|--------|--------|--------|--------|--------|--------|--------|--------|--------|
B|--------|--------|--------|--------|--------|--------|--------|--------|--------|
G|--------|--------|--------|--------|--------|--------|--------|--------|--------|
D|--------|--------|--------|--------|--------|--------|--------|--------|--------|
A|--------|--------|--------|--------|--------|--------|--------|--------|--------|
E|--------|--------|--------|--------|--------|--------|--------|--------|--------|


E|--------|--------|--------|--------|--------|--------|--------|--------|--------|
B|--------|--------|--------|--------|--------|--------|--------|--------|--------|
G|--------|--------|--------|--------|--------|--------|--------|--------|--------|
D|--------|--------|--------|--------|--------|--------|--------|--------|--------|
A|--------|--------|--------|--------|--------|--------|--------|--------|--------|
E|--------|--------|--------|--------|--------|--------|--------|--------|--------|


E|--------|--------|--------|--------|--------|--------|--------|--------|--------|
B|--------|--------|--------|--------|--------|--------|--------|--------|--------|
G|--------|--------|--------|--------|--------|--------|--------|--------|--------|
D|--------|--------|--------|--------|--------|--------|--------|--------|--------|
A|--------|--------|--------|--------|--------|--------|--------|--------|--------|
E|--------|--------|--------|--------|--------|--------|--------|--------|--------|


E|--------|--------|--------|--------|--------|--------|--------|--------|--------|
B|--------|--------|--------|--------|--------|--------|--------|--------|--------|
G|--------|--------|--------|--------|--------|--------|--------|--------|--------|
D|--------|--------|--------|--------|--------|--------|--------|--------|--------|
A|--------|--------|--------|--------|--------|--------|--------|--------|--------|
E|--------|--------|--------|--------|--------|--------|--------|--------|--------|


E|--------|--------|--------|--------|--------|--------|--------|--------|--------|
B|--------|--------|--------|--------|--------|--------|--------|--------|--------|
G|--------|--------|--------|--------|--------|--------|--------|--------|--------|
D|--------|--------|--------|--------|--------|--------|--------|--------|--------|
A|--------|--------|--------|--------|--------|--------|--------|--------|--------|
E|--------|--------|--------|--------|--------|--------|--------|--------|--------|


E|--------|--------|--------|--------|--------|--------|--------|--------|--------|
B|--------|--------|--------|--------|--------|--------|--------|--------|--------|
G|--------|--------|--------|--------|--------|--------|--------|--------|--------|
D|--------|--------|--------|--------|--------|--------|--------|--------|--------|
A|--------|--------|--------|--------|--------|--------|--------|--------|--------|
E|--------|--------|--------|--------|--------|--------|--------|--------|--------|


E|--------|--------|--------|--------|--------|--------|--------|--------|--------|
B|--------|--------|--------|--------|--------|--------|--------|--------|--------|
G|--------|--------|--------|--------|--------|--------|--------|--------|--------|
D|--------|--------|--------|--------|--------|--------|--------|--------|--------|
A|--------|--------|--------|--------|--------|--------|--------|--------|--------|
E|--------|--------|--------|--------|--------|--------|--------|--------|--------|


E|--------|--------|--------|--------|--------|--------|--------|--------|--------|
B|--------|--------|--------|--------|--------|--------|--------|--------|--------|
G|--------|--------|--------|--------|--------|--------|--------|--------|--------|
D|--------|--------|--------|--------|--------|--------|--------|--------|--------|
A|--------|--------|--------|--------|--------|--------|--------|--------|--------|
E|--------|--------|--------|--------|--------|--------|--------|--------|--------|


E|------------------|-14-----|-14----14--14---14---|-------------|--------|--------|
B|---------------15-|--------|---------------------|-15----------|--------|--------|
G|------------14----|--------|---------------------|-------------|--------|--------|
D|------------------|--------|---------------------|-------------|--------|--------|
A|------------------|--------|---------------------|-------------|--------|--------|
E|------------------|--------|---------------------|-------------|--------|--------|


E|--------|--------|--------|--------|--------|--------|--------|--------|--------|
B|--------|--------|--------|--------|--------|-3------|--------|--------|--------|
G|--------|--------|--------|--------|--------|-4------|--------|--------|--------|
D|--------|--------|--------|--------|--------|-5------|--------|--------|--------|
A|--------|--------|--------|--------|--------|-5------|--------|--------|--------|
E|--------|--------|--------|--------|--------|-3------|--------|--------|--------|


E|--------|--------|--------|--------|--------|--------|--------|--------|--------|
B|--------|--------|--------|--------|--------|--------|--------|--------|--------|
G|--------|--------|--------|--------|--------|--------|--------|--------|--------|
D|--------|--------|--------|--------|--------|--------|--------|--------|--------|
A|--------|--------|--------|--------|--------|--------|--------|--------|--------|
E|--------|--------|--------|--------|--------|--------|--------|--------|--------|


E|--------|--------|--------|--------|--------|--------|--------|--------|--------|
B|--------|--------|--------|--------|--------|--------|--------|--------|--------|
G|--------|--------|--------|--------|--------|--------|--------|--------|--------|
D|--------|--------|--------|--------|--------|--------|--------|--------|--------|
A|--------|--------|--------|--------|--------|--------|--------|--------|--------|
E|--------|--------|--------|--------|--------|--------|--------|--------|--------|


E|--------|--------|--------|--------|--------|--------|--------|--------|--------|
B|--------|--------|--------|--------|--------|--------|--------|--------|--------|
G|--------|--------|--------|--------|--------|--------|--------|--------|--------|
D|--------|--------|--------|--------|--------|--------|--------|--------|--------|
A|--------|--------|--------|--------|--------|--------|--------|--------|--------|
E|--------|--------|--------|--------|--------|--------|--------|--------|--------|


E|--------|--------|--------|--------|--------|--------|--------|--------|--------|
B|--------|--------|--------|--------|--------|--------|--------|--------|--------|
G|--------|--------|--------|--------|--------|--------|--------|--------|--------|
D|--------|--------|--------|--------|--------|--------|--------|--------|--------|
A|--------|--------|--------|--------|--------|--------|--------|--------|--------|
E|--------|--------|--------|--------|--------|--------|--------|--------|--------|


E|--------|--------|--------|--------|--------|--------|--------|--------|--------|
B|--------|--------|--------|--------|--------|--------|--------|--------|--------|
G|--------|--------|--------|--------|--------|--------|--------|--------|--------|
D|--------|--------|--------|--------|--------|--------|--------|--------|--------|
A|--------|--------|--------|--------|--------|--------|--------|--------|--------|
E|--------|--------|--------|--------|--------|--------|--------|--------|--------|


E|--------|--------|--------|--------|--------|--------|--------|--------|--------|
B|--------|--------|--------|--------|--------|--------|--------|--------|--------|
G|--------|--------|--------|--------|--------|--------|--------|--------|--------|
D|--------|--------|--------|--------|--------|--------|--------|--------|--------|
A|--------|--------|--------|--------|--------|--------|--------|--------|--------|
E|--------|--------|--------|--------|--------|--------|--------|--------|--------|


E|--------|--------|--------|--------|--------|--------|--------|
B|--------|--------|--------|--------|--------|--------|--------|
G|--------|--------|--------|--------|--------|--------|--------|
D|--------|--------|--------|--------|--------|--------|--------|
A|--------|--------|--------|--------|--------|--------|--------|
E|--------|--------|--------|--------|--------|--------|--------|





Track 4: Keyboard Patch I

E|----------10----------------10----------------10-|----------------10----------------10-------------|
B|-10----------------10----------------10----------|-------10----------------10----------------10----|
G|-7--7--7--7--7--7--7--7--7--7--7--7--7--7--7--7--|-7--7--7--7--7--7--7--7--7--7--7--7--7--7--7--7--|
D|-------------------------------------------------|-------------------------------------------------|
A|-------------------------------------------------|-------------------------------------------------|
E|-------------------------------------------------|-------------------------------------------------|


E|----------10----------------10----------------10-|----------------10----------------10-------------|
B|-10----------------10----------------10----------|-------10----------------10----------------10----|
G|-7--7--7--7--7--7--7--7--7--7--7--7--7--7--7--7--|-7--7--7--7--7--7--7--7--7--7--7--7--7--7--7--7--|
D|-------------------------------------------------|-------------------------------------------------|
A|-------------------------------------------------|-------------------------------------------------|
E|-------------------------------------------------|-------------------------------------------------|


E|-17------------------|---------------------|-15-----|-15-----|-17------------------|
B|-------15--15---15---|-15--15----15---15---|-15-----|-15-----|-------15--15---15---|
G|-14------------------|---------------------|-12-----|-12-----|-14------------------|
D|-------12--12---12---|-12--12----12---12---|--------|--------|-------12--12---12---|
A|---------------------|---------------------|--------|--------|---------------------|
E|---------------------|---------------------|--------|--------|---------------------|


E|-15----14----|-15-----|-15-----|-17---17--------------17---|-17---17--------------17---|
B|-15----------|-15-----|-15-----|----------15--15--15-------|----------15--15--15-------|
G|-12----11----|-12-----|-12-----|---------------------------|---------------------------|
D|-------------|--------|--------|---------------------------|---------------------------|
A|-------------|--------|--------|---------------------------|---------------------------|
E|-------------|--------|--------|---------------------------|---------------------------|


E|-17---17--15--15--15--14---|------------------------|-17---17--------------17---|
B|---------------------------|-17---17--15--15---17---|----------15--15--15-------|
G|---------------------------|------------------------|---------------------------|
D|---------------------------|------------------------|---------------------------|
A|---------------------------|------------------------|---------------------------|
E|---------------------------|------------------------|---------------------------|


E|-17---17--15--15--15--14---|---------------------------|-15----14--14---12---|-10-----|
B|---------------------------|-17---17--17--17--17--17---|-15----14--14---12---|-10-----|
G|---------------------------|---------------------------|-12----11--11---9----|-7------|
D|---------------------------|---------------------------|---------------------|--------|
A|---------------------------|---------------------------|---------------------|--------|
E|---------------------------|---------------------------|---------------------|--------|


E|-10----15----|-14-----|-14-----|--------|--------|--------|-------------|--------|
B|-10----15----|-14-----|-14-----|--------|--------|-3------|-3------3----|--------|
G|-7-----12----|-11-----|-11-----|-2------|-2------|-0------|-0------0----|-2------|
D|-------------|--------|--------|-0------|-0------|--------|-------------|-0------|
A|-------------|--------|--------|--------|--------|--------|-------------|--------|
E|-------------|--------|--------|--------|--------|--------|-------------|--------|


E|------------------------|-------3---3-----|-3------|--------|----------14--14---12------|
B|----------------3-------|-3-----3---3-----|-3------|-3------|-3--------15--15---12--15--|
G|-2-----2---2----0---2---|-0---------------|--------|-2------|-2----2----------------14--|
D|-0-----0---0--------0---|-----------------|--------|-0------|-0----0--------------------|
A|------------------------|-----------------|--------|--------|---------------------------|
E|------------------------|-----------------|--------|--------|---------------------------|


E|-12-----|-12-----|-19-----|------------------------|---------------------|-17-----|
B|-12-----|-12-----|-19-----|-------19--19---17------|-17-------------17---|-17-----|
G|--------|--------|-16-----|-16----16--16-------19--|-16----19--19--------|--------|
D|--------|--------|--------|-16---------------------|---------------------|--------|
A|--------|--------|--------|------------------------|---------------------|--------|
E|--------|--------|--------|------------------------|---------------------|--------|


E|--------|------12--14--15--14--12---|--------|------12--14--15--14--12---|--------|
B|-17-----|-19------------------------|-17-----|-19------------------------|-17-----|
G|-14-----|-16---9---11--12--11--9----|-14-----|-16---9---11--12--11--9----|-14-----|
D|--------|---------------------------|--------|---------------------------|--------|
A|--------|---------------------------|--------|---------------------------|--------|
E|--------|---------------------------|--------|---------------------------|--------|


E|------12--14--15--14--12---|-17-------------17---|-17-------------17---|-17---17--------------17---|
B|-19------------------------|-------15--15--------|-------15--15--------|----------15--15--15-------|
G|-16---9---11--12--11--9----|-14-------------14---|-14-------------14---|-14---14--------------14---|
D|---------------------------|-------12--12--------|-------12--12--------|----------12--12--12-------|
A|---------------------------|---------------------|---------------------|---------------------------|
E|---------------------------|---------------------|---------------------|---------------------------|


E|-17---17--------------17---|-17---17--15--15--15--14---|------------------------|
B|----------15--15--15-------|---------------------------|-17---17--15--15---17---|
G|-14---14--------------14---|-14---14--12--12--12--11---|------------------------|
D|----------12--12--12-------|---------------------------|-14---14--12--12---14---|
A|---------------------------|---------------------------|------------------------|
E|---------------------------|---------------------------|------------------------|


E|-17---17--------------17---|-17---17--15--15--15--14---|---------------------------|
B|----------15--15--15-------|---------------------------|-17---17--17--17--17--17---|
G|-14---14--------------14---|-14---14--12--12--12--11---|---------------------------|
D|----------12--12--12-------|---------------------------|-14---14--14--14--14--14---|
A|---------------------------|---------------------------|---------------------------|
E|---------------------------|---------------------------|---------------------------|


E|-15----14--14---12---|-17---17--------------17---|-17---17--------------17---|-17---17--15--15--15--14---|
B|-15----14--14---12---|----------15--15--15-------|----------15--15--15-------|---------------------------|
G|-12----11--11---9----|-14---14--------------14---|-14---14--------------14---|-14---14--12--12--12--11---|
D|---------------------|----------12--12--12-------|----------12--12--12-------|---------------------------|
A|---------------------|---------------------------|---------------------------|---------------------------|
E|---------------------|---------------------------|---------------------------|---------------------------|


E|------------------------|-17---17--------------17---|-17---17--15--15--15--14---|
B|-17---17--15--15---17---|----------15--15--15-------|---------------------------|
G|------------------------|-14---14--------------14---|-14---14--12--12--12--11---|
D|-14---14--12--12---14---|----------12--12--12-------|---------------------------|
A|------------------------|---------------------------|---------------------------|
E|------------------------|---------------------------|---------------------------|


E|---------------------------|-15----14--14---12---|-10----10--10---10---|-10----10--10---10---|
B|-17---17--17--17--17--17---|-15----14--14---12---|-10----10--10---10---|-10----10--10---10---|
G|---------------------------|-12----11--11---9----|-7-----7---7----7----|-7-----7---7----7----|
D|-14---14--14--14--14--14---|---------------------|---------------------|---------------------|
A|---------------------------|---------------------|---------------------|---------------------|
E|---------------------------|---------------------|---------------------|---------------------|


E|-10----10--10---10---|-27-26-22-21-------------------|--------|--------|--------|
B|-10----10--10---10---|-------------20-19-------22----|--------|--------|-3------|
G|-7-----7---7----7----|-------------------19-18-19----|-2------|-2------|-0------|
D|---------------------|-------------------------------|-0------|-0------|--------|
A|---------------------|-------------------------------|--------|--------|--------|
E|---------------------|-------------------------------|--------|--------|--------|


E|-------------|--------|------------------------|-------3---3-----|-3------|--------|
B|-3------3----|--------|----------------3-------|-3-----3---3-----|-3------|-3------|
G|-0------0----|-2------|-2-----2---2----0---2---|-0---------------|--------|-2------|
D|-------------|-0------|-0-----0---0--------0---|-----------------|--------|-0------|
A|-------------|--------|------------------------|-----------------|--------|--------|
E|-------------|--------|------------------------|-----------------|--------|--------|


E|----------14--14---12------|-12-----|-12-----|-19-----|------------------------|
B|-3--------15--15---12--15--|-12-----|-12-----|-19-----|-------19--19---17------|
G|-2----2----------------14--|--------|--------|-16-----|-16----16--16-------19--|
D|-0----0--------------------|--------|--------|--------|-16---------------------|
A|---------------------------|--------|--------|--------|------------------------|
E|---------------------------|--------|--------|--------|------------------------|


E|---------------------|-17-----|--------|------12--14--15--14--12---|--------|------12--14--15--14--12---|
B|-17-------------17---|-17-----|-17-----|-19------------------------|-17-----|-19------------------------|
G|-16----19--19--------|--------|-14-----|-16---9---11--12--11--9----|-14-----|-16---9---11--12--11--9----|
D|---------------------|--------|--------|---------------------------|--------|---------------------------|
A|---------------------|--------|--------|---------------------------|--------|---------------------------|
E|---------------------|--------|--------|---------------------------|--------|---------------------------|


E|--------|------12--14--15--14--12---|-17-------------17---|-17-------------17---|
B|-17-----|-19------------------------|-------15--15--------|-------15--15--------|
G|-14-----|-16---9---11--12--11--9----|-14-------------14---|-14-------------14---|
D|--------|---------------------------|-------12--12--------|-------12--12--------|
A|--------|---------------------------|---------------------|---------------------|
E|--------|---------------------------|---------------------|---------------------|


E|-17---17--------------17---|-17---17--------------17---|-17---17--15--15--15--14---|
B|----------15--15--15-------|----------15--15--15-------|---------------------------|
G|-14---14--------------14---|-14---14--------------14---|-14---14--12--12--12--11---|
D|----------12--12--12-------|----------12--12--12-------|---------------------------|
A|---------------------------|---------------------------|---------------------------|
E|---------------------------|---------------------------|---------------------------|


E|------------------------|-17---17--------------17---|-17---17--15--15--15--14---|
B|-17---17--15--15---17---|----------15--15--15-------|---------------------------|
G|------------------------|-14---14--------------14---|-14---14--12--12--12--11---|
D|-14---14--12--12---14---|----------12--12--12-------|---------------------------|
A|------------------------|---------------------------|---------------------------|
E|------------------------|---------------------------|---------------------------|


E|---------------------------|-15----14--14---12---|-17---17--------------17---|-17---17--------------17---|
B|-17---17--17--17--17--17---|-15----14--14---12---|----------15--15--15-------|----------15--15--15-------|
G|---------------------------|-12----11--11---9----|-14---14--------------14---|-14---14--------------14---|
D|-14---14--14--14--14--14---|---------------------|----------12--12--12-------|----------12--12--12-------|
A|---------------------------|---------------------|---------------------------|---------------------------|
E|---------------------------|---------------------|---------------------------|---------------------------|


E|-17---17--15--15--15--14---|------------------------|-17---17--------------17---|
B|---------------------------|-17---17--15--15---17---|----------15--15--15-------|
G|-14---14--12--12--12--11---|------------------------|-14---14--------------14---|
D|---------------------------|-14---14--12--12---14---|----------12--12--12-------|
A|---------------------------|------------------------|---------------------------|
E|---------------------------|------------------------|---------------------------|


E|-17---17--15--15--15--14---|---------------------------|-15----14--14---12---|--------|
B|---------------------------|-17---17--17--17--17--17---|-15----14--14---12---|--------|
G|-14---14--12--12--12--11---|---------------------------|-12----11--11---9----|--------|
D|---------------------------|-14---14--14--14--14--14---|---------------------|--------|
A|---------------------------|---------------------------|---------------------|--------|
E|---------------------------|---------------------------|---------------------|--------|


E|--------|--------|--------|--------|--------|--------|--------|--------|--------|
B|--------|--------|--------|--------|--------|--------|--------|--------|--------|
G|--------|--------|--------|--------|--------|--------|--------|--------|--------|
D|--------|--------|--------|--------|--------|--------|--------|--------|--------|
A|--------|--------|--------|--------|--------|--------|--------|--------|--------|
E|--------|--------|--------|--------|--------|--------|--------|--------|--------|


E|--------|--------|--------|--------|--------|--------|-10----10--10---10---|-10----10--10---10---|
B|--------|--------|--------|--------|--------|--------|-10----10--10---10---|-10----10--10---10---|
G|--------|--------|--------|--------|--------|--------|-7-----7---7----7----|-7-----7---7----7----|
D|--------|--------|--------|--------|--------|--------|---------------------|---------------------|
A|--------|--------|--------|--------|--------|--------|---------------------|---------------------|
E|--------|--------|--------|--------|--------|--------|---------------------|---------------------|


E|-15----15--15---15---|-15----14--14---12---|-10-----|-10-----|-10-----|-10-----|
B|-15----15--15---15---|-15----14--14---12---|-10-----|-10-----|-10-----|-10-----|
G|-12----12--12---12---|-12----11--11---9----|-7------|-7------|-7------|-7------|
D|---------------------|---------------------|--------|--------|--------|--------|
A|---------------------|---------------------|--------|--------|--------|--------|
E|---------------------|---------------------|--------|--------|--------|--------|


E|--------|--------|--------|-15----14--14---12---|-15-----|-14-----|-15----14--14----|
B|--------|--------|--------|---------------------|--------|--------|-----------------|
G|--------|--------|--------|---------------------|--------|--------|-----------------|
D|--------|--------|--------|---------------------|--------|--------|-----------------|
A|--------|--------|--------|---------------------|--------|--------|-----------------|
E|--------|--------|--------|---------------------|--------|--------|-----------------|


E|-15----14--14---12---|-15-----|-14-----|-15----14--14----|-15----14--14---12---|
B|---------------------|--------|--------|-----------------|---------------------|
G|---------------------|--------|--------|-----------------|---------------------|
D|---------------------|--------|--------|-----------------|---------------------|
A|---------------------|--------|--------|-----------------|---------------------|
E|---------------------|--------|--------|-----------------|---------------------|


E|-15-----|-14-----|-15-----|--------|-10--------10--------10------|-----10--------10--------10--|
B|--------|--------|--------|--------|------10--------10--------10-|-10-------10--------10-------|
G|--------|--------|--------|--------|-----------------------------|-----------------------------|
D|--------|--------|--------|--------|-----------------------------|-----------------------------|
A|--------|--------|--------|--------|-----------------------------|-----------------------------|
E|--------|--------|--------|--------|-----------------------------|-----------------------------|


E|-10--------10--------10------|-----10--------10--------10--|-10--------10--------10------|
B|------10--------10--------10-|-10-------10--------10-------|------10--------10--------10-|
G|-----------------------------|-----------------------------|-----------------------------|
D|-----------------------------|-----------------------------|-----------------------------|
A|-----------------------------|-----------------------------|-----------------------------|
E|-----------------------------|-----------------------------|-----------------------------|


E|-----10--------10--------10--|---------------------------------|---------------------------------|
B|-10-------10--------10-------|-17--17--17--17--17--17--17--17--|-17--17--17--17--17--17--17--17--|
G|-----------------------------|-14--14--14--14--14--14--14--14--|-14--14--14--14--14--14--14--14--|
D|-----------------------------|---------------------------------|---------------------------------|
A|-----------------------------|---------------------------------|---------------------------------|
E|-----------------------------|---------------------------------|---------------------------------|


E|--------|--------|-3------|-3------|--------|-3-------------------|--------|-17----15--15---14---|
B|-3------|-3------|-3------|-3------|-3------|-------7---7----3----|--------|---------------------|
G|-2------|-2------|-0------|-0------|-2------|-0-------------------|-0------|-14----12--12---11---|
D|-0------|-0------|--------|--------|-0------|-------4---4----0----|--------|---------------------|
A|--------|--------|--------|--------|--------|---------------------|--------|---------------------|
E|--------|--------|--------|--------|--------|---------------------|-3------|---------------------|


E|---------------------|-3-------------------|---------------------|-17----15--15---14---|
B|-3-----3---3----3----|-------7---7----3----|---------------------|---------------------|
G|-2-----2---2----2----|-0-------------------|-0-----0---0----0----|-14----12--12---11---|
D|-0-----0---0----0----|-------4---4----0----|---------------------|---------------------|
A|---------------------|---------------------|---------------------|---------------------|
E|---------------------|---------------------|-3-----3---3----3----|---------------------|


E|---------------------|-3-------------------|---------------------------------|-----------------14--15--17--21--|
B|-3-----3---3----3----|-------7---7----3----|-------------------------2---3---|-------------17------------------|
G|-2-----2---2----2----|-0-------------------|-------------0---2---4-----------|-11--12--18----------------------|
D|-0-----0---0----0----|-------4---4----0----|-0---2---4-----------------------|---------------------------------|
A|---------------------|---------------------|---------------------------------|---------------------------------|
E|---------------------|---------------------|---------------------------------|---------------------------------|


E|-17---17--------------17---|-17---17--------------17---|-17---17--15--15--15--14---|
B|----------15--15--15-------|----------15--15--15-------|---------------------------|
G|-14---14--------------14---|-14---14--------------14---|-14---14--12--12--12--11---|
D|----------12--12--12-------|----------12--12--12-------|---------------------------|
A|---------------------------|---------------------------|---------------------------|
E|---------------------------|---------------------------|---------------------------|


E|------------------------|-17---17--------------17---|-17---17--15--15--15--14---|
B|-17---17--15--15---17---|----------15--15--15-------|---------------------------|
G|------------------------|-14---14--------------14---|-14---14--12--12--12--11---|
D|-14---14--12--12---14---|----------12--12--12-------|---------------------------|
A|------------------------|---------------------------|---------------------------|
E|------------------------|---------------------------|---------------------------|


E|---------------------------|-15----14--14---12---|-17---17--------------17---|-17---17--------------17---|
B|-17---17--17--17--17--17---|-15----14--14---12---|----------15--15--15-------|----------15--15--15-------|
G|---------------------------|-12----11--11---9----|-14---14--------------14---|-14---14--------------14---|
D|-14---14--14--14--14--14---|---------------------|----------12--12--12-------|----------12--12--12-------|
A|---------------------------|---------------------|---------------------------|---------------------------|
E|---------------------------|---------------------|---------------------------|---------------------------|


E|-17---17--15--15--15--14---|------------------------|-17---17--------------17---|
B|---------------------------|-17---17--15--15---17---|----------15--15--15-------|
G|-14---14--12--12--12--11---|------------------------|-14---14--------------14---|
D|---------------------------|-14---14--12--12---14---|----------12--12--12-------|
A|---------------------------|------------------------|---------------------------|
E|---------------------------|------------------------|---------------------------|


E|-17---17--15--15--15--14---|---------------------------|-15----14--14---12---|-10----10--10---10---|
B|---------------------------|-17---17--17--17--17--17---|-15----14--14---12---|-10----10--10---10---|
G|-14---14--12--12--12--11---|---------------------------|-12----11--11---9----|-7-----7---7----7----|
D|---------------------------|-14---14--14--14--14--14---|---------------------|---------------------|
A|---------------------------|---------------------------|---------------------|---------------------|
E|---------------------------|---------------------------|---------------------|---------------------|


E|-10----10--10---10---|-15----15--15---15---|-15----14--14---12---|-17---17--------------17---|
B|-10----10--10---10---|-15----15--15---15---|-15----14--14---12---|----------15--15--15-------|
G|-7-----7---7----7----|-12----12--12---12---|-12----11--11---9----|-14---14--------------14---|
D|---------------------|---------------------|---------------------|----------12--12--12-------|
A|---------------------|---------------------|---------------------|---------------------------|
E|---------------------|---------------------|---------------------|---------------------------|


E|-17---17--------------17---|-17---17--15--15--15--14---|-15----14--14---12---|-17---17--------------17---|
B|----------15--15--15-------|---------------------------|-15----14--14---12---|----------15--15--15-------|
G|-14---14--------------14---|-14---14--12--12--12--11---|-12----11--11---9----|-14---14--------------14---|
D|----------12--12--12-------|---------------------------|---------------------|----------12--12--12-------|
A|---------------------------|---------------------------|---------------------|---------------------------|
E|---------------------------|---------------------------|---------------------|---------------------------|


E|-17---17--------------17---|-17---17--15--15--15--14---|-19----17--17---15---|-17---17--------------17---|
B|----------15--15--15-------|---------------------------|---------------------|----------15--15--15-------|
G|-14---14--------------14---|-14---14--12--12--12--11---|-16----14--14---12---|-14---14--------------14---|
D|----------12--12--12-------|---------------------------|---------------------|----------12--12--12-------|
A|---------------------------|---------------------------|---------------------|---------------------------|
E|---------------------------|---------------------------|---------------------|---------------------------|


E|-17---17--------------17---|-17---17--15--15--15--14---|-19----17--17---15---|-17---17--------------17---|
B|----------15--15--15-------|---------------------------|---------------------|----------15--15--15-------|
G|-14---14--------------14---|-14---14--12--12--12--11---|-16----14--14---12---|-14---14--------------14---|
D|----------12--12--12-------|---------------------------|---------------------|----------12--12--12-------|
A|---------------------------|---------------------------|---------------------|---------------------------|
E|---------------------------|---------------------------|---------------------|---------------------------|


E|-17---17--------------17---|-17---17-----------17---|-15----14--14---12---|-10-----|
B|----------15--15--15-------|----------15--15--------|-15----14--14---12---|-10-----|
G|-14---14--------------14---|-14---14-----------14---|-12----11--11---9----|-7------|
D|----------12--12--12-------|----------12--12--------|---------------------|--------|
A|---------------------------|------------------------|---------------------|--------|
E|---------------------------|------------------------|---------------------|--------|


E|-10-----|-10-----|
B|-10-----|-10-----|
G|-7------|-7------|
D|--------|--------|
A|--------|--------|
E|--------|--------|





Track 5: Bass

G|--------|--------|--------|--------|--------|--------|--------|-------------|--------|
D|--------|--------|--------|--------|--------|--------|--------|-------------|--------|
A|--------|--------|--------|--------|-5------|-5------|--------|-------------|-5------|
D|--------|--------|--------|--------|--------|--------|-5------|-5-----5-----|--------|


G|--------|--------|---------------------|---------------------------|----------------------4---2---|
D|--------|--------|---------------------|-0----0------0---0---------|-0----0------0---0------------|
A|-5------|--------|------0----2----4----|---------0------------0----|---------0--------------------|
D|--------|-5------|-5-------------------|---------------------------|------------------------------|


G|-0----0------0---0------------|-0----0------0---0------------|------------------------------|
D|---------0------------0---2---|---------0------------0-------|------------------------------|
A|------------------------------|--------------------------0---|-2----2------2---2--------0---|
D|------------------------------|------------------------------|---------4------------4-------|


G|------------------------------|------------------------------|---------------------|
D|------------------------------|------------------------------|-5-----4---4----2----|
A|-2----2------2---2--------2---|-0----0------0---0--------0---|---------------------|
D|---------4------------4-------|---------2------------2-------|---------------------|


G|---------------------------|------------------------------|---------------------------|
D|-0----0------0---0----0----|-0----0------0---0----0-------|-0----0------0---0----0----|
A|---------------------------|--------------------------0---|---------------------------|
D|---------------------------|------------------------------|---------------------------|


G|------------------------|---------------------------|---------------------------|
D|------------------------|-0----0------0---0----0----|-0----0------0---0----0----|
A|---------0----2----4----|---------------------------|---------------------------|
D|-5----5-----------------|---------------------------|---------------------------|


G|---------------------------|------------------------------|---------------------------|
D|---------------------------|--------------------------5---|-0----0------0---0----0----|
A|---------------------------|----------------------5-------|---------------------------|
D|-5----5------5---5----5----|-5----5------5---5------------|---------------------------|


G|---------------------------|---------------------------|------------------------------|
D|-0----0------0---0----0----|---------------------------|------------------------------|
A|---------------------------|---------------------------|---------0----0--2----2--4----|
D|---------------------------|-5----5------5---5----5----|-5----5-----------------------|


G|------------------------------|------------------------------|-0----0------0---0----0-------|
D|-0----0------0---0----0-------|-0----0------0---0--------0---|---------0----------------0---|
A|---------0----------------0---|---------0------------0-------|------------------------------|
D|------------------------------|------------------------------|------------------------------|


G|-0----0------0---0------------|------------------------------|------------------------------|
D|---------0--------------------|------------------------------|------------------------------|
A|----------------------0---1---|-2----2------2---2--------0---|-2----2------2---2--------2---|
D|------------------------------|---------4------------4-------|---------4------------4-------|


G|---------------------------|---------------------|---------------------------------|
D|---------------------------|---------------------|---------------------------------|
A|-0----0------0---0---------|-0----0----0----0----|-0-----------0---0---0---0---1---|
D|---------2------------2----|---------------------|------2--5-----------------------|


G|---------------------|---------------------------------|---------------------|---------------------------------|
D|---------------------|---------------------------------|---------------------|---------------------------------|
A|-2-----2--------2----|-0-----------0---0---0---0---1---|-2-----2--------2----|-0-----------0---0---0---0---1---|
D|-----------5---------|------2--5-----------------------|-----------5---------|------2--5-----------------------|


G|---------------------|---------------------------------|------------------------|
D|---------------------|---------------------------------|------------------------|
A|-2-----2--------2----|-0-----------0---0---0---0---0---|---------0----2----4----|
D|-----------5---------|------2--5-----------------------|-5----5-----------------|


G|---------------------------|----------------------4---2---|-0----0------0---0------------|
D|-0----0------0---0---------|-0----0------0---0------------|---------0------------0---2---|
A|---------0------------0----|---------0--------------------|------------------------------|
D|---------------------------|------------------------------|------------------------------|


G|-0----0------0---0------------|------------------------------|------------------------------|
D|---------0------------0-------|------------------------------|------------------------------|
A|--------------------------0---|-2----2------2---2--------0---|-2----2------2---2--------2---|
D|------------------------------|---------4------------4-------|---------4------------4-------|


G|------------------------------|---------------------|---------------------------|
D|------------------------------|-5-----4---4----2----|-0----0------0---0---------|
A|-0----0------0---0--------0---|---------------------|---------0------------0----|
D|---------2------------2-------|---------------------|---------------------------|


G|----------------------4---2---|-0----0------0---0------------|-0----0------0---0------------|
D|-0----0------0---0------------|---------0------------0---2---|---------0------------0-------|
A|---------0--------------------|------------------------------|--------------------------0---|
D|------------------------------|------------------------------|------------------------------|


G|------------------------------|------------------------------|------------------------------|
D|------------------------------|------------------------------|------------------------------|
A|-2----2------2---2--------0---|-2----2------2---2--------2---|-0----0------0---0--------0---|
D|---------4------------4-------|---------4------------4-------|---------2------------2-------|


G|---------------------|---------------------------|------------------------------|
D|-5-----4---4----2----|-0----0------0---0----0----|-0----0------0---0----0-------|
A|---------------------|---------------------------|--------------------------0---|
D|---------------------|---------------------------|------------------------------|


G|---------------------------|-12-12-12-12-12--12--11--11----------|---------------------------|
D|-0----0------0---0----0----|-----------------------------14--14--|-0----0------0---0----0----|
A|---------------------------|-------------------------------------|---------------------------|
D|---------------------------|-------------------------------------|---------------------------|


G|---------------------------|---------------------------|------------------------------|
D|-0----0------0---0----0----|---------------------------|--------------------------5---|
A|---------------------------|---------------------------|----------------------5-------|
D|---------------------------|-5----5------5---5----5----|-5----5------5---5------------|


G|---------------------------|---------------------------|---------------------------|
D|-0----0------0---0----0----|-0----0------0---0----0----|---------------------------|
A|---------------------------|---------------------------|---------------------------|
D|---------------------------|---------------------------|-5----5------5---5----5----|


G|------------------------------|------------------------------|------------------------------|
D|------------------------------|-0----0------0---0----0-------|-0----0------0---0--------0---|
A|---------0----0--2----2--4----|---------0----------------0---|---------0------------0-------|
D|-5----5-----------------------|------------------------------|------------------------------|


G|-0----0------0---0----0-------|-0----0------0---0------------|------------------------------|
D|---------0----------------0---|---------0--------------------|------------------------------|
A|------------------------------|----------------------0---1---|-2----2------2---2--------0---|
D|------------------------------|------------------------------|---------4------------4-------|


G|------------------------------|---------------------------|---------------------|
D|------------------------------|---------------------------|---------------------|
A|-2----2------2---2--------2---|-0----0------0---0---------|-0----0----0----0----|
D|---------4------------4-------|---------2------------2----|---------------------|


G|---------------------------------|---------------------|---------------------------------|
D|---------------------------------|---------------------|---------------------------------|
A|-0-----------0---0---0---0---1---|-2-----2--------2----|-0-----------0---0---0---0---1---|
D|------2--5-----------------------|-----------5---------|------2--5-----------------------|


G|---------------------|---------------------------------|---------------------|---------------------------------|
D|---------------------|---------------------------------|---------------------|---------------------------------|
A|-2-----2--------2----|-0-----------0---0---0---0---1---|-2-----2--------2----|-0-----------0---0---0---0---0---|
D|-----------5---------|------2--5-----------------------|-----------5---------|------2--5-----------------------|


G|------------------------|---------------------------|----------------------4---2---|
D|------------------------|-0----0------0---0---------|-0----0------0---0------------|
A|---------0----2----4----|---------0------------0----|---------0--------------------|
D|-5----5-----------------|---------------------------|------------------------------|


G|-0----0------0---0------------|-0----0------0---0------------|------------------------------|
D|---------0------------0---2---|---------0------------0-------|------------------------------|
A|------------------------------|--------------------------0---|-2----2------2---2--------0---|
D|------------------------------|------------------------------|---------4------------4-------|


G|------------------------------|------------------------------|---------------------|
D|------------------------------|------------------------------|-5-----4---4----2----|
A|-2----2------2---2--------2---|-0----0------0---0--------0---|---------------------|
D|---------4------------4-------|---------2------------2-------|---------------------|


G|---------------------------|----------------------4---2---|-0----0------0---0------------|
D|-0----0------0---0---------|-0----0------0---0------------|---------0------------0---2---|
A|---------0------------0----|---------0--------------------|------------------------------|
D|---------------------------|------------------------------|------------------------------|


G|-0----0------0---0------------|------------------------------|------------------------------|
D|---------0------------0-------|------------------------------|------------------------------|
A|--------------------------0---|-2----2------2---2--------0---|-2----2------2---2--------2---|
D|------------------------------|---------4------------4-------|---------4------------4-------|


G|------------------------------|---------------------|---------------------------|
D|------------------------------|-5-----4---4----2----|-0----0------0---0---------|
A|-0----0------0---0--------0---|---------------------|---------0------------0----|
D|---------2------------2-------|---------------------|---------------------------|


G|----------------------4---2---|-0----0------0---0------------|-0----0------0---0------------|
D|-0----0------0---0------------|---------0------------0---2---|---------0------------0-------|
A|---------0--------------------|------------------------------|--------------------------0---|
D|------------------------------|------------------------------|------------------------------|


G|------------------------------|------------------------------|------------------------------|
D|------------------------------|------------------------------|------------------------------|
A|-2----2------2---2--------0---|-2----2------2---2--------2---|-0----0------0---0--------0---|
D|---------4------------4-------|---------4------------4-------|---------2------------2-------|


G|---------------------|---------------------------|----------------------4---2---|
D|-5-----4---4----2----|-0----0------0---0---------|-0----0------0---0------------|
A|---------------------|---------0------------0----|---------0--------------------|
D|---------------------|---------------------------|------------------------------|


G|-0----0------0---0------------|-0----0------0---0------------|------------------------------|
D|---------0------------0---2---|---------0------------0-------|------------------------------|
A|------------------------------|--------------------------0---|-2----2------2---2--------0---|
D|------------------------------|------------------------------|---------4------------4-------|


G|------------------------------|------------------------------|---------------------|
D|------------------------------|------------------------------|-5-----4---4----2----|
A|-2----2------2---2--------2---|-0----0------0---0--------0---|---------------------|
D|---------4------------4-------|---------2------------2-------|---------------------|


G|---------------------|---------------------|-0-----0---0----0----|---------------------|
D|-0-----0---0----0----|-0-----0---0----0----|---------------------|-5-----4---4----2----|
A|---------------------|---------------------|---------------------|---------------------|
D|---------------------|---------------------|---------------------|---------------------|


G|--------|--------|--------|-------12----|-11-----|-12----11--11--------|--------|
D|-0------|-0------|-0------|-0-----------|--------|----------------12---|--------|
A|--------|--------|--------|-------------|--------|---------------------|-10-----|
D|--------|--------|--------|-------------|--------|---------------------|--------|


G|--------|-11-----|-12----11--11--------|--------|--------|-11-----|-12----11--11--------|
D|--------|--------|----------------12---|--------|--------|--------|----------------12---|
A|-10-----|--------|---------------------|-10-----|-10-----|--------|---------------------|
D|--------|--------|---------------------|--------|--------|--------|---------------------|


G|--------|--------|-11-----|-12----11--11--------|--------|--------|---------------------|
D|--------|--------|--------|----------------12---|--------|--------|-0----0----0----0----|
A|-10-----|-10-----|--------|---------------------|-10-----|-10-----|---------------------|
D|--------|--------|--------|---------------------|--------|--------|---------------------|


G|---------------------|-0----0----0----0----|-0----0----0------------|---------------------|
D|-0----0----0----0----|---------------------|------------------------|---------------------|
A|---------------------|---------------------|----------------0---1---|-2----2----2----2----|
D|---------------------|---------------------|------------------------|---------------------|


G|---------------------|---------------------|---------------------------------|--------|
D|---------------------|---------------------|---------------------------------|-0------|
A|-2----2----2----2----|-0----0----0----0----|-0---0---0---0---0---0---0---0---|--------|
D|---------------------|---------------------|---------------------------------|--------|


G|--------|-0------|-0------|--------|--------|---------------------|---------------------|
D|-0------|--------|--------|--------|--------|---------------------|---------------------|
A|--------|--------|--------|--------|--------|---------------------|---------------------|
D|--------|--------|--------|--------|--------|-5----5----5----5----|-5----5----5----5----|


G|---------------------|---------------------|---------------------|---------------------|
D|-0----0----0----0----|-0----0----0----0----|---------------------|---------------------|
A|---------------------|---------------------|---------------------|---------------------|
D|---------------------|---------------------|-5----5----5----5----|-5----5----5----5----|


G|---------------------|---------------------|---------------------|---------------------|
D|-0----0----0----0----|-0----0----0----0----|---------------------|---------------------|
A|---------------------|---------------------|---------------------|------0----2----4----|
D|---------------------|---------------------|-5----5----5----5----|-5-------------------|


G|---------------------------|----------------------4---2---|-0----0------0---0------------|
D|-0----0------0---0---------|-0----0------0---0------------|---------0------------0---2---|
A|---------0------------0----|---------0--------------------|------------------------------|
D|---------------------------|------------------------------|------------------------------|


G|-0----0------0---0------------|------------------------------|------------------------------|
D|---------0------------0-------|------------------------------|------------------------------|
A|--------------------------0---|-2----2------2---2--------0---|-2----2------2---2--------2---|
D|------------------------------|---------4------------4-------|---------4------------4-------|


G|------------------------------|---------------------|---------------------------|
D|------------------------------|-5-----4---4----2----|-0----0------0---0---------|
A|-0----0------0---0--------0---|---------------------|---------0------------0----|
D|---------2------------2-------|---------------------|---------------------------|


G|----------------------4---2---|-0----0------0---0------------|-0----0------0---0------------|
D|-0----0------0---0------------|---------0------------0---2---|---------0------------0-------|
A|---------0--------------------|------------------------------|--------------------------0---|
D|------------------------------|------------------------------|------------------------------|


G|------------------------------|------------------------------|------------------------------|
D|------------------------------|------------------------------|------------------------------|
A|-2----2------2---2--------0---|-2----2------2---2--------2---|-0----0------0---0--------0---|
D|---------4------------4-------|---------4------------4-------|---------2------------2-------|


G|---------------------|---------------------|---------------------|-0-----0---0----0----|
D|-5-----4---4----2----|-0-----0---0----0----|-0-----0---0----0----|---------------------|
A|---------------------|---------------------|---------------------|---------------------|
D|---------------------|---------------------|---------------------|---------------------|


G|---------------------|------------------------------|----------------------4---2---|
D|-5-----4---4----2----|-0----0------0---0------------|-0----0------0---0------------|
A|---------------------|---------0------------0---2---|---------0--------------------|
D|---------------------|------------------------------|------------------------------|


G|-0----0------0---0------------|-0----0--------------------|------------------------------|
D|---------0------------0---2---|---------0---4---4----2----|-0----0------0---0------------|
A|------------------------------|---------------------------|---------0------------0---2---|
D|------------------------------|---------------------------|------------------------------|


G|----------------------4---2---|-0----0------0---0------------|-0----0--------------------|
D|-0----0------0---0------------|---------0------------0---2---|---------0---4---4----2----|
A|---------0--------------------|------------------------------|---------------------------|
D|------------------------------|------------------------------|---------------------------|


G|------------------------------|----------------------4---2---|-0----0------0---0------------|
D|-0----0------0---0------------|-0----0------0---0------------|---------0------------0---2---|
A|---------0------------0---2---|---------0--------------------|------------------------------|
D|------------------------------|------------------------------|------------------------------|


G|-0----0--------------------|------------------------------|----------------------4---2---|
D|---------0---4---4----2----|-0----0------0---0------------|-0----0------0---0------------|
A|---------------------------|---------0------------0---2---|---------0--------------------|
D|---------------------------|------------------------------|------------------------------|


G|-0----0------0---0------------|---------------------|--------|--------|--------|
D|---------0------------0---2---|-5-----4---4----2----|-0------|-0------|-0------|
A|------------------------------|---------------------|--------|--------|--------|
D|------------------------------|---------------------|--------|--------|--------|