Menu:

 

Search:

 

blues saraceno - remember when:

 



Title: Remember When
Artist: 
Album: Never Look Back
Author: Blues Saraceno


Track 1: Blues Saraceno - Lead Guitar

E|-----------------|--------|--------|-------------------------------|-----------------|
B|-----------------|--------|--------|-------------------------------|-----------------|
G|-----------------|--------|--------|----------14-14-12-14----12-12-|-9-----9---------|
D|------------2----|-2------|-2------|-2--------------------14-------|-----------------|
A|-----------------|--------|--------|-------------------------------|-----------------|
E|------------0----|-0------|-0------|-0-----------------------------|-----------------|


E|---------------------------------------------|------------------12-12---|-------------7-----------------|
B|---------------------------------------------|---------------12---------|----------7-----------------5--|
G|----12-11-12----11----11----11----11---------|--------------------------|-------7-----------------5-----|
D|-------------14----12------------------------|--------------------------|----7-----------------5--------|
A|-------------------------14----12----10--9---|-7----7-------------------|-------------------------------|
E|---------------------------------------------|--------------------------|-------------------------------|


E|-5------|-5------|-------14-15-17---17-17--------|-------14-15-----14--------------|
B|--------|--------|----17-------------------------|----17-------17-----17-17---17---|
G|--------|--------|-16----------------------------|-16------------------------------|
D|--------|--------|-------------------------------|---------------------------------|
A|--------|--------|-------------------------------|---------------------------------|
E|--------|--------|-------------------------------|---------------------------------|


E|----15-14----------------------------------------|-----------------|------------------------------------------|
B|----------15-------15----12----------------------|-----------------|------------------------------------------|
G|-------------14-12----14----12-11-12----11----11-|-----------------|----14-14-12---------14-14-12-14----12-12-|
D|-------------------------------------14----12----|-9-----9---------|---------------------------------14-------|
A|-------------------------------------------------|-----------------|------------------------------------------|
E|-------------------------------------------------|-----------------|------------------------------------------|


E|-------------------------------|----------------------------|---------------------------|
B|----------15-15---15------17---|-18---18--13-13-13----------|---------------------------|
G|-------12----------------------|----------------------12-12-|-12--12-12-12--5--5--5-----|
D|-14-12-------------------------|----------------------------|---------------------------|
A|-------------------------------|----------------------------|---------------------------|
E|-------------------------------|----------------------------|---------------------------|


E|-----------14-15-17-15-17---|-15-14----------------------|-----------------------------------------|
B|-17---17--------------------|-------17----17-------------|-----------------------------------------|
G|----------------------------|----------------------12-11-|-12-11-12-14-14--12-11-11--12--------11--|
D|----------------------------|----------------------------|------------------------------12-12------|
A|----------------------------|----------------------------|-----------------------------------------|
E|----------------------------|----------------------------|-----------------------------------------|


E|----------------------|-------------------|-------------------------------------------------|
B|----------------------|-------------------|-------15----------15----------15----------15----|
G|-7-----5----5---------|----------------12-|-11-12----12-11-12----12-11-12----12-11-12----12-|
D|----------------------|-------------------|-------------------------------------------------|
A|----------------------|-------3-----------|-------------------------------------------------|
E|----------------3--2--|-0-----------------|-------------------------------------------------|


E|-------------------------------------------------|-------------------------------|
B|-------15----------15----------------------------|-------------------------------|
G|-11-12----12-11-12----12-11-12----11----11----11-|-9---9-------------------------|
D|-------------------------------14----12----------|----------7--5--2---2--17------|
A|-------------------------------------------14----|-10--10------------------------|
E|-------------------------------------------------|-----8--------------------19---|


E|----0---0-----------------0---0--------------|---------------------------------------------|
B|----5---3-----------------5---3--------------|---------------------------------------------|
G|-----------2--0------------------2--0--------|---------------------------------------------|
D|-----------------2--0------------------2--0--|-------------0--2----------------0--2--------|
A|---------------------------------------------|---------------------------------------------|
E|---------------------------------------------|-0--0--3--0-------------0--3--0--------5--3--|


E|---------------------------17---|-15------15--------------------|-----------------------------------------------|
B|--------------------------------|----17-------------------------|-----------------------------------------------|
G|--------------------------------|----------------------14-14-12-|-14----12-12-------12-------12--14-14-12-14-12-|
D|-----------0--2----2------------|-------------------------------|----14-------14-12----14-14--------------------|
A|-----------------------2--------|-------------------------------|-----------------------------------------------|
E|-0---3--0--------------2--------|-------------------------------|-----------------------------------------------|


E|----------------17---|-17--15--14-----------------------------|--------------------|
B|-15------------------|-------------15-------------------------|--------------17-17-|
G|---------------------|-----------------14--12--11---14--12-11-|-9---------16-------|
D|---------------------|----------------------------------------|--------------------|
A|---------------------|----------------------------------------|--------------------|
E|---------------------|----------------------------------------|--------------------|


E|-----15------1517151415--14-15-14-17----19-|-22---22--22----------20-19-20-|-20--20-19-20--20--20--19-----------|
B|-17----------------------------------------|-------------------------------|--------------------------20---20---|
G|-------------------------------------------|-------------------------------|------------------------------------|
D|-------------------------------------------|-------------------------------|------------------------------------|
A|-------------------------------------------|-------------------------------|------------------------------------|
E|-------------------------------------------|-------------------------------|------------------------------------|


E|-17----17-17-17------15-14-15-|----15-14-15----15-14-15----15-14-15----15-14-15-|
B|------------------------------|-17----------15----------------------------------|
G|------------------------------|-------------------------17----------16----------|
D|------------------------------|-------------------------------------------------|
A|------------------------------|-------------------------------------------------|
E|------------------------------|-------------------------------------------------|


E|----15-14-15----15-14-15----15-14-15------|------------12--------------|-----------------|
B|-17----------15---------------------------|---------12----17-17----17--|-17----17----17--|
G|-------------------------17----------16---|-12-------------------------|-----------------|
D|------------------------------------------|----------------------------|-----------------|
A|------------------------------------------|----------------------------|-----------------|
E|------------------------------------------|----------------------------|-----------------|


E|-----------------|--------------------|------------------------------------|-----15-----14---------------------------|
B|-17--------------|--------------------|------------------------------17-17-|-17----------------15--------------------|
G|-----------------|------------14-12---|------12-12-----12---------16-------|--------------------------14-------12-12-|
D|-----------------|--------------------|------------14----------------------|--------------------------------14-------|
A|-----------------|--------------------|------------------------------------|-----------------------------------------|
E|-----------------|--------------------|------------------------------------|-----------------------------------------|


E|-----------------------------17-17-15-|-17-17-17-15-17-17-17--17----|-----15-----14-----------------------|
B|--------------------------------------|-----------------------------|-------------------15----------------|
G|-------12-12-----12-------------------|-----------------------------|--------------------------14-----12--|
D|-14-12-------14-----------------------|-----------------------------|-------------------------------------|
A|--------------------------------------|-----------------------------|-------------------------------------|
E|--------------------------------------|-----------------------------|-------------------------------------|


E|-----15-----14-----------------------|--------|----------0----------------|-----------------|
B|-------------------15----------------|--------|----------5---3------------|-----------------|
G|--------------------------14-----12--|--------|-----------------2--0------|-----------------|
D|-------------------------------------|--------|-----------------------2---|-2---------------|
A|-------------------------------------|--------|---------------------------|-----------------|
E|-------------------------------------|--------|---------------------------|-----------------|


E|---------------------------|
B|---------------------------|
G|---------------------------|
D|---------------------------|
A|-2--2----------2--2--------|
E|-0--0----------0--0--------|





Track 2: Blues Saraceno - Rhythm Guitar

E|--------|--------|--------|--------|--------|--------|--------|------------------------------------|
B|--------|--------|--------|--------|--------|--------|--------|------------------------------------|
G|--------|--------|--------|--------|--------|--------|--------|------------------------------------|
D|--------|--------|--------|--------|--------|--------|--------|------------------------------------|
A|--------|--------|--------|--------|--------|--------|--------|-2--2----------2--2-----------------|
E|--------|--------|--------|--------|--------|--------|--------|-0--0----------0--0-----------3--2--|


E|-------------------------------------------------|-------------------------------------------------|
B|-------------------------------------------------|-------------------------------------------------|
G|----------------------------------0-----0-----0--|----------------------------------0--0--0-----0--|
D|----------2--------2--------4--5-----5-----4-----|----------2--------2--------4--5-----------4-----|
A|-2--2--2-----2--2-----3--3-----------------------|-2--2--2-----2--2-----3--3-----------------------|
E|-0--0--------------------------------------------|-0--0--------------------------------------------|


E|-------------------------------------------------|-------------------------------------------------|
B|-------------------------------------------------|-------------------------------------------------|
G|----------------------------------0-----0-----0--|----------------------------------0--0--0-----0--|
D|----------2--------2--------4--5-----5-----4-----|----------2--------2--------4--5-----------4-----|
A|-2--2--2-----2--2-----3--3-----------------------|-2--2--2-----2--2-----3--3-----------------------|
E|-0--0--------------------------------------------|-0--0--------------------------------------------|


E|-------------------------------------------------|-------------------------------------------------|
B|-------------------------------------------------|-------------------------------------------------|
G|----------------------------------0-----0-----0--|----------------------------------0--0--0-----0--|
D|----------2--------2--------4--5-----5-----4-----|----------2--------2--------4--5-----------4-----|
A|-2--2--2-----2--2-----3--3-----------------------|-2--2--2-----2--2-----3--3-----------------------|
E|-0--0--------------------------------------------|-0--0--------------------------------------------|


E|-------------------------------------------------|-------------------------------------------------|
B|-------------------------------------------------|-------------------------------------------------|
G|----------------------------------0-----0-----0--|----------------------------------0-----0--------|
D|----------2--------2--------4--5-----5-----4-----|----------2--------2--------4--5-----5-----4-----|
A|-2--2--2-----2--2-----3--3-----------------------|-2--2--2-----2--2-----3--3--------------------0--|
E|-0--0--------------------------------------------|-0--0--------------------------------------------|


E|-----------3-----3--3--------|-----------3-----3--3------|-----------------------------------------|
B|-----------3-----3--3--------|-----------3-----3--3------|-----------------------------------------|
G|-----------5-----5--5--------|-----------5-----5--5------|-----------2---2--2--2---2--2--4---4--4--|
D|-----------5-----5--5--------|-----------5-----5--5------|-4---4--4--2---2--2--4---4--4--5---5--5--|
A|-3---3--3-----------------2--|-3---3--3------------------|-2---2--2--------------------------------|
E|-----------------------------|---------------------------|-----------------------------------------|


E|-------------------------------------------------|-------------------------------------------------|
B|-------------------------------------------------|-------------------------------------------------|
G|----------------------------------0-----0-----0--|----------------------------------0--0--0-----0--|
D|----------2--------2--------4--5-----5-----4-----|----------2--------2--------4--5-----------4-----|
A|-2--2--2-----2--2-----3--3-----------------------|-2--2--2-----2--2-----3--3-----------------------|
E|-0--0--------------------------------------------|-0--0--------------------------------------------|


E|-------------------------------------------------|-------------------------------------------------|
B|-------------------------------------------------|-------------------------------------------------|
G|----------------------------------0-----0-----0--|----------------------------------0--0--0-----0--|
D|----------2--------2--------4--5-----5-----4-----|----------2--------2--------4--5-----------4-----|
A|-2--2--2-----2--2-----3--3-----------------------|-2--2--2-----2--2-----3--3-----------------------|
E|-0--0--------------------------------------------|-0--0--------------------------------------------|


E|---------------------------|------------------------------------|--------|--------|
B|---------------------------|------------------------------------|--------|--------|
G|---------------11-11-------|---------------11-11----------------|--------|--------|
D|---------------9--9--------|---------------9--9-----------------|--------|--------|
A|-2--2----------7--7--------|-2--2----------7--7-----------0--2--|--------|--------|
E|-0--0----------------------|-0--0-------------------------------|--------|--------|


E|--------|--------|--------|--------|-------------------------------------------------|
B|--------|--------|--------|--------|-------------------------------------------------|
G|--------|--------|--------|--------|----------------------------------0-----0-----0--|
D|--------|--------|--------|--------|----------2--------2--------4--5-----5-----4-----|
A|--------|--------|--------|--------|-2--2--2-----2--2-----3--3-----------------------|
E|--------|--------|--------|--------|-0--0--------------------------------------------|


E|-------------------------------------------------|-------------------------------------------------|
B|-------------------------------------------------|-------------------------------------------------|
G|----------------------------------0--0--0-----0--|----------------------------------0-----0-----0--|
D|----------2--------2--------4--5-----------4-----|----------2--------2--------4--5-----5-----4-----|
A|-2--2--2-----2--2-----3--3-----------------------|-2--2--2-----2--2-----3--3-----------------------|
E|-0--0--------------------------------------------|-0--0--------------------------------------------|


E|-------------------------------------------------|-----------3-----3--3--------|
B|-------------------------------------------------|-----------3-----3--3--------|
G|----------------------------------0-----0-----0--|-----------5-----5--5--------|
D|----------2--------2--------4--5-----5-----4-----|-----------5-----5--5--------|
A|-2--2--2-----2--2-----3--3-----------------------|-3---3--3-----------------2--|
E|-0--0--------------------------------------------|-----------------------------|


E|-----------3-----3--3------|-----------------------------------------|-------------------------------------------------|
B|-----------3-----3--3------|-----------------------------------------|-------------------------------------------------|
G|-----------5-----5--5------|-----------2---2--2--2---2--2--4---4--4--|----------------------------------0-----0-----0--|
D|-----------5-----5--5------|-4---4--4--2---2--2--4---4--4--5---5--5--|----------2--------2--------4--5-----5-----4-----|
A|-3---3--3------------------|-2---2--2--------------------------------|-2--2--2-----2--2-----3--3-----------------------|
E|---------------------------|-----------------------------------------|-0--0--------------------------------------------|


E|-------------------------------------------------|-------------------------------------------------|
B|-------------------------------------------------|-------------------------------------------------|
G|----------------------------------0--0--0-----0--|----------------------------------0-----0-----0--|
D|----------2--------2--------4--5-----------4-----|----------2--------2--------4--5-----5-----4-----|
A|-2--2--2-----2--2-----3--3-----------------------|-2--2--2-----2--2-----3--3-----------------------|
E|-0--0--------------------------------------------|-0--0--------------------------------------------|


E|-------------------------------------------------|-------------------------------------------------|
B|-------------------------------------------------|-------------------------------------------------|
G|----------------------------------0--0--0-----0--|----------------------------------0-----0-----0--|
D|----------2--------2--------4--5-----------4-----|----------2--------2--------4--5-----5-----4-----|
A|-2--2--2-----2--2-----3--3-----------------------|-2--2--2-----2--2-----3--3-----------------------|
E|-0--0--------------------------------------------|-0--0--------------------------------------------|


E|-------------------------------------------------|-------------------------------------------------|
B|-------------------------------------------------|-------------------------------------------------|
G|----------------------------------0--0--0-----0--|----------------------------------0-----0-----0--|
D|----------2--------2--------4--5-----------4-----|----------2--------2--------4--5-----5-----4-----|
A|-2--2--2-----2--2-----3--3-----------------------|-2--2--2-----2--2-----3--3-----------------------|
E|-0--0--------------------------------------------|-0--0--------------------------------------------|


E|-------------------------------------------------|-------------------------------------------------|
B|-------------------------------------------------|-------------------------------------------------|
G|----------------------------------0--0--0-----0--|----------------------------------0-----0-----0--|
D|----------2--------2--------4--5-----------4-----|----------2--------2--------4--5-----5-----4-----|
A|-2--2--2-----2--2-----3--3-----------------------|-2--2--2-----2--2-----3--3-----------------------|
E|-0--0--------------------------------------------|-0--0--------------------------------------------|


E|-------------------------------------------------|-------------------------------------------------|
B|-------------------------------------------------|-------------------------------------------------|
G|----------------------------------0--0--0-----0--|----------------------------------0-----0-----0--|
D|----------2--------2--------4--5-----------4-----|----------2--------2--------4--5-----5-----4-----|
A|-2--2--2-----2--2-----3--3-----------------------|-2--2--2-----2--2-----3--3-----------------------|
E|-0--0--------------------------------------------|-0--0--------------------------------------------|


E|-------------------------------------------------|---------------------------|---------------------------------------|
B|-------------------------------------------------|---------------------------|---------------------------------------|
G|----------------------------------0--0--0-----0--|---------------------------|---------------------------------------|
D|----------2--------2--------4--5-----------4-----|---------------------------|-----------------------------0---0--2--|
A|-2--2--2-----2--2-----3--3-----------------------|-2--2----------2--2--------|-2--2----------2--2-------0------------|
E|-0--0--------------------------------------------|-0--0----------0--0--------|-0--0----------0--0--------------------|


E|---------------------------|---------------------------|
B|---------------------------|---------------------------|
G|---------------------------|---------------------------|
D|---------------------------|---------------------------|
A|-2--2----------2--2--------|-2--2----------2--2--------|
E|-0--0----------0--0--------|-0--0----------0--0--------|





Track 3: Untitled

G|---------------------------|---------------------------|---------------------------|
D|---------------------------|---------------------------|---------------------------|
A|---------------------------|---------------------------|---------------------------|
E|-0--0----------0--0--------|-0--0----------0--0--------|-0--0----------0--0--------|


G|---------------------------|---------------------------|---------------------------|
D|---------------------------|---------------------------|---------------------------|
A|---------------------------|---------------------------|---------------------------|
E|-0--0----------0--0--------|-0--0----------0--0--------|-0--0----------0--0--------|


G|---------------------------|---------------------------------12----12--|--------------------------------------|
D|---------------------------|------------------------------12----12-----|-----------------2--------------------|
A|---------------------------|------------------------13-14--------------|--------------2-----3--3----2---------|
E|-0--0----------0--0--------|-0--0----------0--0------------------------|-0--0---------------------------3--2--|


G|---------------------------------------------|--------------------------------------|
D|-----------------2------------4--5--5--4--0--|-2--2------------2--------------------|
A|--------------2-----3--3---------------------|--------------2-----3--3----2---------|
E|-0--0----------------------------------------|--------------------------------3--2--|


G|---------------------------------------------|--------------------------------------|
D|-----------------2------------4--5--5--4--0--|-2--2------------2--------------------|
A|--------------2-----3--3---------------------|--------------2-----3--3----2---------|
E|-0--0----------------------------------------|--------------------------------3--2--|


G|---------------------------------------------|--------------------------------------|
D|-----------------2------------4--5--5--4--0--|-2--2------------2--------------------|
A|--------------2-----3--3---------------------|--------------2-----3--3----2---------|
E|-0--0----------------------------------------|--------------------------------3--2--|


G|---------------------------------------------|-----------5-------------------|-----------5------------------------|
D|-----------------2------------4--5--5--4--0--|-----------5----5------4--5----|-----------5---5--5--5----5---------|
A|--------------2-----3--3---------------------|-3---3--3----------------------|-3---3--3---------------------------|
E|-0--0----------------------------------------|-------------------------------|------------------------------0--0--|


G|-----------------------------------------|--------------------------------------|
D|---------------------4---4--4--5---5--5--|-----------------2--------------------|
A|-2---2--2--5---5--5----------------------|--------------2-----3--3----2---------|
E|-----------------------------------------|-0--0---------------------------3--2--|


G|---------------------------------------------|---------------------------7-------------|
D|-----------------2------------5--5--5--4--0--|-2--2------------2-----------------------|
A|--------------2-----3--3---------------------|--------------2-----3--3---5---2---------|
E|-0--0----------------------------------------|-----------------------------------3--2--|


G|-------------------------------------------|---------------------------|---------------------------|
D|-----------------2-------------------------|---------------2--2--------|---------------2--2--------|
A|--------------2-----3--3-------------------|---------------------------|---------------------------|
E|-0--0-------------------------2--3---3--2--|-0--0----------------------|-0--0----------------------|


G|------5---------------|------5-----------------------------|-------------------------------|
D|-5--------5--5--------|-5--------5--5----------------------|-------------------------------|
A|-3--------3--3--------|-3--------3--3----------------------|-------------------------------|
E|----------------------|-------------------0---0--3---3--2--|-0--0----------0--0-------15---|


G|---------------------------|------5---------------|------5------------------------|
D|---------------2--2--------|-5--------5--5--------|-5--------5--5-----------------|
A|---------------------------|-3--------3--3--------|-3--------3--3-----------------|
E|-0--0----------------------|----------------------|---------------------3---3--2--|


G|------------------------------------|---------------------------------------------|
D|-----------------2------------------|-----------------2------------4--5--5--4--0--|
A|--------------2-----3--3----2-------|--------------2-----3--3---------------------|
E|-0--0---------------------------3---|-0--0----------------------------------------|


G|--------------------------------------|-----------4-----------------------------------|
D|-2--2------------2--------------------|-----------------2--------4--5--2--------------|
A|--------------2-----3--3----2---------|--------------2-----3--3-----------5--5--3--2--|
E|--------------------------------3--2--|-0--0------------------------------------------|


G|-----------5---------------------------|-----------5---------------------------|
D|-----------5----4--4-4-4--4------------|-----------5---5--5--4--5--------------|
A|-3---3--3--------------------3------2--|-3---3--3--------------------9---------|
E|---------------------------------0-----|---------------------------------0--0--|


G|---------------------------------------|-------------------------------------------|
D|---------------------4---4--4--5---5---|-----------------2-------------------------|
A|-2---2--2--5---5--5--------------------|--------------2-----3--3--2--3---2---------|
E|---------------------------------------|-0--0--------------------------------3--2--|


G|-----------------------------------------------|--------------------------------------|
D|-----------------2--------------4--5--5--4--0--|-2--2------------2--------------------|
A|--------------2-----3--3--2--3-----------------|--------------2-----3--3----2---------|
E|-0--0------------------------------------------|--------------------------------3--2--|


G|-------------------------------------------|--------------------------------------|
D|-----------------2-------------------------|-2--2------------2--------------------|
A|--------------2-----3--3------3--2---------|--------------2-----3--3----2---------|
E|-0--0--------------------------------3--2--|--------------------------------3--2--|


G|---------------------------------|-------------------------------|------------------------------------|
D|-----------------2---------------|------------2------------------|-----------------2------------------|
A|--------------2-----3--3---------|---------2-----3--3----2-------|--------------2-----3--3------------|
E|-0--0----------------------------|---------------------------3---|-0--0-------------------------------|


G|----------------------------------------|--------------------------------------|
D|------------2------------4--5--5--4--4--|-2--2--------------2------------------|
A|---------2-----3--3---------------------|----------------2-----3--3----2-------|
E|----------------------------------------|----------0-----------------------3---|


G|--------------------------------------|---------------------------------|---------------------------|
D|-----------------2--------------------|-----------------2---------------|---------------------------|
A|--------------2-----3--3----2---------|--------------2-----3--3---------|---------------------------|
E|-0--0---------------------------3--2--|-0--0----------------------------|-0--0----------0--0--------|


G|---------------------------|---------------------------|---------------------------|
D|---------------------------|---------------------------|---------------------------|
A|---------------------------|---------------------------|---------------------------|
E|-0--0----------0--0--------|-0--0----------0--0--------|-0--0----------0--0--------|





Track 4: Untitled

G|--------|--------|--------|--------|--------|--------|--------|--------|--------|
D|--------|--------|--------|--------|--------|--------|--------|--------|--------|
A|--------|--------|--------|--------|--------|--------|--------|--------|--------|
E|--------|--------|--------|--------|--------|--------|--------|--------|--------|


G|--------|--------|--------|--------|--------|--------|--------|--------|--------|
D|--------|--------|--------|--------|--------|--------|--------|--------|--------|
A|--------|--------|--------|--------|--------|--------|--------|--------|--------|
E|--------|--------|--------|--------|--------|--------|--------|--------|--------|


G|--------|--------|--------|--------|--------|--------|--------|--------|--------|
D|--------|--------|--------|--------|--------|--------|--------|--------|--------|
A|--------|--------|--------|--------|--------|--------|--------|--------|--------|
E|--------|--------|--------|--------|--------|--------|--------|--------|--------|


G|--------|--------|--------|--------|--------|--------|--------|--------|--------|
D|--------|--------|--------|--------|--------|--------|--------|--------|--------|
A|--------|--------|--------|--------|--------|--------|--------|--------|--------|
E|--------|--------|--------|--------|--------|--------|--------|--------|--------|


G|--------|--------|--------|--------|--------|--------|--------|-----------------------------|
D|--------|--------|--------|--------|--------|--------|--------|--------------------5-----5--|
A|--------|--------|--------|--------|--------|--------|--------|-----------0--0--------------|
E|--------|--------|--------|--------|--------|--------|--------|-----------------3-----3-----|


G|-----------------------|----------------4--------|-----------------------|--------|
D|-----------------------|----------------------5--|-----------------------|--------|
A|-----------------------|----------3--3-----------|-----------------------|--------|
E|-0--0------------------|-------------------3-----|-0--0------------------|--------|


G|--------|--------------------4--------|--------|--------|--------|--------|
D|--------|-----------------------------|--------|--------|--------|--------|
A|--------|-----------2--2--2-----------|--------|--------|--------|--------|
E|--------|-----------------------3--2--|--------|--------|--------|--------|