Menu:

 

Search:

 

bloodhound gang - your only friends are make believe:

 



Title: Your Only Friends Are Make Believe
Artist: 
Album: One Fierce Beer Coaster
Author: Jimmy Pop, Spanky G, Lupus Thunder, Evil Jared Hasselhof and DJ Q-Ball


Track 1: Guitar One

E|--------|--------|--------|---------------------------------|---------------------------------|
B|--------|--------|--------|---------------------------------|---------------------------------|
G|--------|--------|--------|---------------------------------|-9---9---9---9---9---9---9---9---|
D|--------|--------|--------|-7---7---7---7---7---7---7---7---|-9---9---9---9---9---9---9---9---|
A|--------|--------|--------|-7---7---7---7---7---7---7---7---|-7---7---7---7---7---7---7---7---|
E|--------|--------|--------|-5---5---5---5---5---5---5---5---|---------------------------------|


E|---------------------------------|---------------------------------|---------------------------------|
B|---------------------------------|---------------------------------|---------------------------------|
G|---------------------------------|-9---9---9---9---9---9---9---9---|---------------------------------|
D|-7---7---7---7---7---7---7---7---|-9---9---9---9---9---9---9---9---|-7---7---7---7---7---7---7---7---|
A|-7---7---7---7---7---7---7---7---|-7---7---7---7---7---7---7---7---|-7---7---7---7---7---7---7---7---|
E|-5---5---5---5---5---5---5---5---|---------------------------------|-5---5---5---5---5---5---5---5---|


E|---------------------------------|---------------------------------|--------|---------------------------------|
B|---------------------------------|---------------------------------|--------|---------------------------------|
G|-9---9---9---9---9---9---9---9---|---------------------------------|-9------|---------------------------------|
D|-9---9---9---9---9---9---9---9---|-7---7---7---7---7---7---7---7---|-9------|-7---7---7---7---7---7---7---7---|
A|-7---7---7---7---7---7---7---7---|-7---7---7---7---7---7---7---7---|-7------|-7---7---7---7---7---7---7---7---|
E|---------------------------------|-5---5---5---5---5---5---5---5---|--------|-5---5---5---5---5---5---5---5---|


E|---------------------------------|---------------------------------|---------------------------------|
B|---------------------------------|---------------------------------|---------------------------------|
G|-9---9---9---9---9---9---9---9---|---------------------------------|-9---9---9---9---9---9---9---9---|
D|-9---9---9---9---9---9---9---9---|-7---7---7---7---7---7---7---7---|-9---9---9---9---9---9---9---9---|
A|-7---7---7---7---7---7---7---7---|-7---7---7---7---7---7---7---7---|-7---7---7---7---7---7---7---7---|
E|---------------------------------|-5---5---5---5---5---5---5---5---|---------------------------------|


E|---------------------------------|---------------------------------|---------------------------------|
B|---------------------------------|---------------------------------|---------------------------------|
G|---------------------------------|-9---9---9---9---9---9---9---9---|---------------------------------|
D|-7---7---7---7---7---7---7---7---|-9---9---9---9---9---9---9---9---|-7---7---7---7---7---7---7---7---|
A|-7---7---7---7---7---7---7---7---|-7---7---7---7---7---7---7---7---|-7---7---7---7---7---7---7---7---|
E|-5---5---5---5---5---5---5---5---|---------------------------------|-5---5---5---5---5---5---5---5---|


E|---------------------------------|---------------------------------|---------------------------------|
B|---------------------------------|---------------------------------|---------------------------------|
G|---------------------------------|---------------------------------|-9---9---9---9---9---9---9---9---|
D|-9---9---9---9---9---9---9---9---|-7---7---7---7---7---7---7---7---|-9---9---9---9---9---9---9---9---|
A|-9---9---9---9---9---9---9---9---|-7---7---7---7---7---7---7---7---|-7---7---7---7---7---7---7---7---|
E|-7---7---7---7---7---7---7---7---|-5---5---5---5---5---5---5---5---|---------------------------------|


E|---------------------------------|---------------------------------|---------------------------------|
B|---------------------------------|---------------------------------|---------------------------------|
G|---------------------------------|-9---9---9---9---9---9---9---9---|---------------------------------|
D|-7---7---7---7---7---7---7---7---|-9---9---9---9---9---9---9---9---|-7---7---7---7---7---7---7---7---|
A|-7---7---7---7---7---7---7---7---|-7---7---7---7---7---7---7---7---|-7---7---7---7---7---7---7---7---|
E|-5---5---5---5---5---5---5---5---|---------------------------------|-5---5---5---5---5---5---5---5---|


E|---------------------------------|---------------------------------|---------------------------------|
B|---------------------------------|---------------------------------|---------------------------------|
G|-9---9---9---9---9---9---9---9---|---------------------------------|---------------------------------|
D|-9---9---9---9---9---9---9---9---|-7---7---7---7---7---7---7---7---|-9---9---9---9---9---9---9---9---|
A|-7---7---7---7---7---7---7---7---|-7---7---7---7---7---7---7---7---|-9---9---9---9---9---9---9---9---|
E|---------------------------------|-5---5---5---5---5---5---5---5---|-7---7---7---7---7---7---7---7---|


E|---------------------------------|---------------------------------|---------------------------------|
B|---------------------------------|---------------------------------|---------------------------------|
G|---------------------------------|---------------------------------|---------------------------------|
D|-7---7---7---7---7---7---7---7---|-9---9---9---9---9---9---9---9---|-11--11--11--11--11--11--11--11--|
A|-7---7---7---7---7---7---7---7---|-9---9---9---9---9---9---9---9---|-11--11--11--11--11--11--11--11--|
E|-5---5---5---5---5---5---5---5---|-7---7---7---7---7---7---7---7---|-9---9---9---9---9---9---9---9---|


E|---------------------------------|---------------------------------|---------------------------------|
B|---------------------------------|---------------------------------|---------------------------------|
G|-9---9---9---9---9---9---9---9---|---------------------------------|---------------------------------|
D|-9---9---9---9---9---9---9---9---|-7---7---7---7---7---7---7---7---|-9---9---9---9---9---9---9---9---|
A|-7---7---7---7---7---7---7---7---|-7---7---7---7---7---7---7---7---|-9---9---9---9---9---9---9---9---|
E|---------------------------------|-5---5---5---5---5---5---5---5---|-7---7---7---7---7---7---7---7---|


E|---------------------------------|--------|--------|--------|--------|--------|--------|
B|---------------------------------|--------|--------|--------|--------|--------|--------|
G|-9---9---9---9---9---9---9---9---|--------|--------|--------|--------|--------|--------|
D|-9---9---9---9---9---9---9---9---|--------|--------|--------|--------|--------|--------|
A|-7---7---7---7---7---7---7---7---|--------|--------|--------|--------|--------|--------|
E|---------------------------------|--------|--------|--------|--------|--------|--------|


E|--------|--------|--------|---------------------------------|---------------------------------|
B|--------|--------|--------|---------------------------------|---------------------------------|
G|--------|--------|--------|---------------------------------|-9---9---9---9---9---9---9---9---|
D|--------|--------|--------|-7---7---7---7---7---7---7---7---|-9---9---9---9---9---9---9---9---|
A|--------|--------|--------|-7---7---7---7---7---7---7---7---|-7---7---7---7---7---7---7---7---|
E|--------|--------|--------|-5---5---5---5---5---5---5---5---|---------------------------------|


E|---------------------------------|---------------------------------|---------------------------------|
B|---------------------------------|---------------------------------|---------------------------------|
G|---------------------------------|-9---9---9---9---9---9---9---9---|---------------------------------|
D|-7---7---7---7---7---7---7---7---|-9---9---9---9---9---9---9---9---|-7---7---7---7---7---7---7---7---|
A|-7---7---7---7---7---7---7---7---|-7---7---7---7---7---7---7---7---|-7---7---7---7---7---7---7---7---|
E|-5---5---5---5---5---5---5---5---|---------------------------------|-5---5---5---5---5---5---5---5---|


E|---------------------------------|---------------------------------|--------|---------------------------------|
B|---------------------------------|---------------------------------|--------|---------------------------------|
G|-9---9---9---9---9---9---9---9---|---------------------------------|-9------|---------------------------------|
D|-9---9---9---9---9---9---9---9---|-7---7---7---7---7---7---7---7---|-9------|-7---7---7---7---7---7---7---7---|
A|-7---7---7---7---7---7---7---7---|-7---7---7---7---7---7---7---7---|-7------|-7---7---7---7---7---7---7---7---|
E|---------------------------------|-5---5---5---5---5---5---5---5---|--------|-5---5---5---5---5---5---5---5---|


E|---------------------------------|---------------------------------|---------------------------------|
B|---------------------------------|---------------------------------|---------------------------------|
G|-9---9---9---9---9---9---9---9---|---------------------------------|-9---9---9---9---9---9---9---9---|
D|-9---9---9---9---9---9---9---9---|-7---7---7---7---7---7---7---7---|-9---9---9---9---9---9---9---9---|
A|-7---7---7---7---7---7---7---7---|-7---7---7---7---7---7---7---7---|-7---7---7---7---7---7---7---7---|
E|---------------------------------|-5---5---5---5---5---5---5---5---|---------------------------------|


E|---------------------------------|---------------------------------|---------------------------------|
B|---------------------------------|---------------------------------|---------------------------------|
G|---------------------------------|-9---9---9---9---9---9---9---9---|---------------------------------|
D|-7---7---7---7---7---7---7---7---|-9---9---9---9---9---9---9---9---|-7---7---7---7---7---7---7---7---|
A|-7---7---7---7---7---7---7---7---|-7---7---7---7---7---7---7---7---|-7---7---7---7---7---7---7---7---|
E|-5---5---5---5---5---5---5---5---|---------------------------------|-5---5---5---5---5---5---5---5---|


E|---------------------------------|---------------------------------|---------------------------------|
B|---------------------------------|---------------------------------|---------------------------------|
G|---------------------------------|---------------------------------|-9---9---9---9---9---9---9---9---|
D|-9---9---9---9---9---9---9---9---|-7---7---7---7---7---7---7---7---|-9---9---9---9---9---9---9---9---|
A|-9---9---9---9---9---9---9---9---|-7---7---7---7---7---7---7---7---|-7---7---7---7---7---7---7---7---|
E|-7---7---7---7---7---7---7---7---|-5---5---5---5---5---5---5---5---|---------------------------------|


E|---------------------------------|---------------------------------|---------------------------------|
B|---------------------------------|---------------------------------|---------------------------------|
G|---------------------------------|-9---9---9---9---9---9---9---9---|---------------------------------|
D|-7---7---7---7---7---7---7---7---|-9---9---9---9---9---9---9---9---|-7---7---7---7---7---7---7---7---|
A|-7---7---7---7---7---7---7---7---|-7---7---7---7---7---7---7---7---|-7---7---7---7---7---7---7---7---|
E|-5---5---5---5---5---5---5---5---|---------------------------------|-5---5---5---5---5---5---5---5---|


E|---------------------------------|---------------------------------|---------------------------------|
B|---------------------------------|---------------------------------|---------------------------------|
G|-9---9---9---9---9---9---9---9---|---------------------------------|---------------------------------|
D|-9---9---9---9---9---9---9---9---|-7---7---7---7---7---7---7---7---|-9---9---9---9---9---9---9---9---|
A|-7---7---7---7---7---7---7---7---|-7---7---7---7---7---7---7---7---|-9---9---9---9---9---9---9---9---|
E|---------------------------------|-5---5---5---5---5---5---5---5---|-7---7---7---7---7---7---7---7---|


E|---------------------------------|---------------------------------|---------------------------------|
B|---------------------------------|---------------------------------|---------------------------------|
G|---------------------------------|---------------------------------|---------------------------------|
D|-7---7---7---7---7---7---7---7---|-9---9---9---9---9---9---9---9---|-11--11--11--11--11--11--11--11--|
A|-7---7---7---7---7---7---7---7---|-9---9---9---9---9---9---9---9---|-11--11--11--11--11--11--11--11--|
E|-5---5---5---5---5---5---5---5---|-7---7---7---7---7---7---7---7---|-9---9---9---9---9---9---9---9---|


E|---------------------------------|---------------------------------|---------------------------------|
B|---------------------------------|---------------------------------|---------------------------------|
G|-9---9---9---9---9---9---9---9---|---------------------------------|---------------------------------|
D|-9---9---9---9---9---9---9---9---|-7---7---7---7---7---7---7---7---|-9---9---9---9---9---9---9---9---|
A|-7---7---7---7---7---7---7---7---|-7---7---7---7---7---7---7---7---|-9---9---9---9---9---9---9---9---|
E|---------------------------------|-5---5---5---5---5---5---5---5---|-7---7---7---7---7---7---7---7---|


E|---------------------------------|--------|--------|--------|--------|--------|--------|
B|---------------------------------|--------|--------|--------|--------|--------|--------|
G|-9---9---9---9---9---9---9---9---|--------|--------|--------|--------|--------|--------|
D|-9---9---9---9---9---9---9---9---|--------|--------|--------|--------|--------|--------|
A|-7---7---7---7---7---7---7---7---|--------|--------|--------|--------|--------|--------|
E|---------------------------------|--------|--------|--------|--------|--------|--------|


E|--------|--------|--------|--------|--------|--------|--------|--------|--------|
B|--------|--------|--------|--------|--------|--------|--------|--------|--------|
G|--------|--------|--------|--------|--------|--------|--------|--------|--------|
D|--------|--------|--------|--------|--------|--------|--------|--------|--------|
A|--------|--------|--------|--------|--------|--------|--------|--------|--------|
E|--------|--------|--------|--------|--------|--------|--------|--------|--------|


E|--------|--------|--------|--------|--------|--------|--------|--------|--------|
B|--------|--------|--------|--------|--------|--------|--------|--------|--------|
G|--------|--------|--------|--------|--------|--------|--------|--------|--------|
D|--------|--------|--------|--------|--------|--------|--------|--------|--------|
A|--------|--------|--------|--------|--------|--------|--------|--------|--------|
E|--------|--------|--------|--------|--------|--------|--------|--------|--------|


E|--------|--------|--------|--------|--------|--------|--------|--------|--------|
B|--------|--------|--------|--------|--------|--------|--------|--------|--------|
G|--------|--------|--------|--------|--------|--------|--------|--------|--------|
D|--------|--------|--------|--------|--------|--------|--------|--------|--------|
A|--------|--------|--------|--------|--------|--------|--------|--------|--------|
E|--------|--------|--------|--------|--------|--------|--------|--------|--------|


E|--------|--------|--------|--------|--------|--------|--------|--------|---------------------------------|
B|--------|--------|--------|--------|--------|--------|--------|--------|---------------------------------|
G|--------|--------|--------|--------|--------|--------|--------|--------|---------------------------------|
D|--------|--------|--------|--------|--------|--------|--------|--------|-7---7---7---7---7---7---7---7---|
A|--------|--------|--------|--------|--------|--------|--------|--------|-7---7---7---7---7---7---7---7---|
E|--------|--------|--------|--------|--------|--------|--------|--------|-5---5---5---5---5---5---5---5---|


E|---------------------------------|---------------------------------|---------------------------------|
B|---------------------------------|---------------------------------|---------------------------------|
G|-9---9---9---9---9---9---9---9---|-7---7---7---7---7---7---7---7---|-7---7---7---7---7---7---7---7---|
D|-9---9---9---9---9---9---9---9---|-7---7---7---7---7---7---7---7---|-7---7---7---7---7---7---7---7---|
A|-7---7---7---7---7---7---7---7---|-5---5---5---5---5---5---5---5---|-5---5---5---5---5---5---5---5---|
E|---------------------------------|---------------------------------|---------------------------------|


E|---------------------------------|---------------------------------|---------------------------------|
B|---------------------------------|---------------------------------|---------------------------------|
G|---------------------------------|-9---9---9---9---9---9---9---9---|-7---7---7---7---7---7---7---7---|
D|-7---7---7---7---7---7---7---7---|-9---9---9---9---9---9---9---9---|-7---7---7---7---7---7---7---7---|
A|-7---7---7---7---7---7---7---7---|-7---7---7---7---7---7---7---7---|-5---5---5---5---5---5---5---5---|
E|-5---5---5---5---5---5---5---5---|---------------------------------|---------------------------------|


E|---------------------------------|---------------------------------|---------------------------------|
B|---------------------------------|---------------------------------|---------------------------------|
G|-7---7---7---7---7---7---7---7---|---------------------------------|-9---9---9---9---9---9---9---9---|
D|-7---7---7---7---7---7---7---7---|-7---7---7---7---7---7---7---7---|-9---9---9---9---9---9---9---9---|
A|-5---5---5---5---5---5---5---5---|-7---7---7---7---7---7---7---7---|-7---7---7---7---7---7---7---7---|
E|---------------------------------|-5---5---5---5---5---5---5---5---|---------------------------------|


E|---------------------------------|---------------------------------|---------------------------------|
B|---------------------------------|---------------------------------|---------------------------------|
G|-7---7---7---7---7---7---7---7---|-7---7---7---7---7---7---7---7---|---------------------------------|
D|-7---7---7---7---7---7---7---7---|-7---7---7---7---7---7---7---7---|-7---7---7---7---7---7---7---7---|
A|-5---5---5---5---5---5---5---5---|-5---5---5---5---5---5---5---5---|-7---7---7---7---7---7---7---7---|
E|---------------------------------|---------------------------------|-5---5---5---5---5---5---5---5---|


E|---------------------------------|---------------------------------|--------|--------|
B|---------------------------------|---------------------------------|--------|--------|
G|-9---9---9---9---9---9---9---9---|-7---7---7---7---7---7---7---7---|--------|--------|
D|-9---9---9---9---9---9---9---9---|-7---7---7---7---7---7---7---7---|--------|--------|
A|-7---7---7---7---7---7---7---7---|-5---5---5---5---5---5---5---5---|--------|--------|
E|---------------------------------|---------------------------------|--------|--------|


E|--------|--------|--------|--------|--------|--------|--------|--------|--------|
B|--------|--------|--------|--------|--------|--------|--------|--------|--------|
G|--------|--------|--------|--------|--------|--------|--------|--------|--------|
D|--------|--------|--------|--------|--------|--------|--------|--------|--------|
A|--------|--------|--------|--------|--------|--------|--------|--------|--------|
E|--------|--------|--------|--------|--------|--------|--------|--------|--------|


E|--------|--------|--------|--------|--------|--------|
B|--------|--------|--------|--------|--------|--------|
G|--------|--------|--------|--------|--------|--------|
D|--------|--------|--------|--------|--------|--------|
A|--------|--------|--------|--------|--------|--------|
E|--------|--------|--------|--------|--------|--------|





Track 2: Guitar Two

E|--------|--------|--------|--------|--------|--------|--------|--------|--------|
B|--------|--------|--------|--------|--------|--------|--------|--------|--------|
G|--------|--------|--------|--------|--------|--------|--------|--------|--------|
D|--------|--------|--------|--------|--------|--------|--------|--------|--------|
A|--------|--------|--------|--------|--------|--------|--------|--------|--------|
E|--------|--------|--------|--------|--------|--------|--------|--------|--------|


E|--------|--------|--------|--------|--------|--------|--------|--------|--------|
B|--------|--------|--------|--------|--------|--------|--------|--------|--------|
G|--------|--------|--------|--------|--------|--------|--------|--------|--------|
D|--------|--------|--------|--------|--------|--------|--------|--------|--------|
A|--------|--------|--------|--------|--------|--------|--------|--------|--------|
E|--------|--------|--------|--------|--------|--------|--------|--------|--------|


E|--------|--------|--------|--------|--------|--------|--------|--------|--------|
B|--------|--------|--------|--------|--------|--------|--------|--------|--------|
G|--------|--------|--------|--------|--------|--------|--------|--------|--------|
D|--------|--------|--------|--------|--------|--------|--------|--------|--------|
A|--------|--------|--------|--------|--------|--------|--------|--------|--------|
E|--------|--------|--------|--------|--------|--------|--------|--------|--------|


E|--------|--------|--------|--------|--------|--------|--------|---------------------------------|
B|--------|--------|--------|--------|--------|--------|--------|---------------------------------|
G|--------|--------|--------|--------|--------|--------|--------|---------------------------------|
D|--------|--------|--------|--------|--------|--------|--------|-9---9---9---9---9---9---9---9---|
A|--------|--------|--------|--------|--------|--------|--------|-9---9---9---9---9---9---9---9---|
E|--------|--------|--------|--------|--------|--------|--------|-7---7---7---7---7---7---7---7---|


E|---------------------------------|---------------------------------|---------------------------------|
B|---------------------------------|---------------------------------|---------------------------------|
G|---------------------------------|---------------------------------|-9---9---9---9---9---9---9---9---|
D|-7---7---7---7---7---7---7---7---|-7---7---7---7---7---7---7---7---|-9---9---9---9---9---9---9---9---|
A|-7---7---7---7---7---7---7---7---|-7---7---7---7---7---7---7---7---|-7---7---7---7---7---7---7---7---|
E|-5---5---5---5---5---5---5---5---|-5---5---5---5---5---5---5---5---|---------------------------------|


E|---------------------------------|---------------------------------|---------------------------------|
B|---------------------------------|---------------------------------|---------------------------------|
G|-9---9---9---9---9---9---9---9---|---------------------------------|---------------------------------|
D|-9---9---9---9---9---9---9---9---|-7---7---7---7---7---7---7---7---|-7---7---7---7---7---7---7---7---|
A|-7---7---7---7---7---7---7---7---|-7---7---7---7---7---7---7---7---|-7---7---7---7---7---7---7---7---|
E|---------------------------------|-5---5---5---5---5---5---5---5---|-5---5---5---5---5---5---5---5---|


E|---------------------------------|---------------------------------|--------|--------|
B|---------------------------------|---------------------------------|--------|--------|
G|-9---9---9---9---9---9---9---9---|-9---9---9---9---9---9---9---9---|--------|--------|
D|-9---9---9---9---9---9---9---9---|-9---9---9---9---9---9---9---9---|--------|--------|
A|-7---7---7---7---7---7---7---7---|-7---7---7---7---7---7---7---7---|--------|--------|
E|---------------------------------|---------------------------------|--------|--------|


E|--------|--------|--------|--------|--------|--------|--------|--------|--------|
B|--------|--------|--------|--------|--------|--------|--------|--------|--------|
G|--------|--------|--------|--------|--------|--------|--------|--------|--------|
D|--------|--------|--------|--------|--------|--------|--------|--------|--------|
A|--------|--------|--------|--------|--------|--------|--------|--------|--------|
E|--------|--------|--------|--------|--------|--------|--------|--------|--------|


E|--------|--------|--------|--------|--------|--------|--------|--------|--------|
B|--------|--------|--------|--------|--------|--------|--------|--------|--------|
G|--------|--------|--------|--------|--------|--------|--------|--------|--------|
D|--------|--------|--------|--------|--------|--------|--------|--------|--------|
A|--------|--------|--------|--------|--------|--------|--------|--------|--------|
E|--------|--------|--------|--------|--------|--------|--------|--------|--------|


E|--------|--------|--------|--------|--------|--------|--------|--------|--------|
B|--------|--------|--------|--------|--------|--------|--------|--------|--------|
G|--------|--------|--------|--------|--------|--------|--------|--------|--------|
D|--------|--------|--------|--------|--------|--------|--------|--------|--------|
A|--------|--------|--------|--------|--------|--------|--------|--------|--------|
E|--------|--------|--------|--------|--------|--------|--------|--------|--------|


E|--------|--------|---------------------------------|---------------------------------|
B|--------|--------|---------------------------------|---------------------------------|
G|--------|--------|---------------------------------|---------------------------------|
D|--------|--------|-9---9---9---9---9---9---9---9---|-7---7---7---7---7---7---7---7---|
A|--------|--------|-9---9---9---9---9---9---9---9---|-7---7---7---7---7---7---7---7---|
E|--------|--------|-7---7---7---7---7---7---7---7---|-5---5---5---5---5---5---5---5---|


E|---------------------------------|---------------------------------|---------------------------------|
B|---------------------------------|---------------------------------|---------------------------------|
G|---------------------------------|-9---9---9---9---9---9---9---9---|-9---9---9---9---9---9---9---9---|
D|-7---7---7---7---7---7---7---7---|-9---9---9---9---9---9---9---9---|-9---9---9---9---9---9---9---9---|
A|-7---7---7---7---7---7---7---7---|-7---7---7---7---7---7---7---7---|-7---7---7---7---7---7---7---7---|
E|-5---5---5---5---5---5---5---5---|---------------------------------|---------------------------------|


E|---------------------------------|---------------------------------|---------------------------------|
B|---------------------------------|---------------------------------|---------------------------------|
G|---------------------------------|---------------------------------|-9---9---9---9---9---9---9---9---|
D|-7---7---7---7---7---7---7---7---|-7---7---7---7---7---7---7---7---|-9---9---9---9---9---9---9---9---|
A|-7---7---7---7---7---7---7---7---|-7---7---7---7---7---7---7---7---|-7---7---7---7---7---7---7---7---|
E|-5---5---5---5---5---5---5---5---|-5---5---5---5---5---5---5---5---|---------------------------------|


E|---------------------------------|---------------------------------|---------------------------------|
B|---------------------------------|---------------------------------|---------------------------------|
G|-9---9---9---9---9---9---9---9---|---------------------------------|---------------------------------|
D|-9---9---9---9---9---9---9---9---|-7---7---7---7---7---7---7---7---|-7---7---7---7---7---7---7---7---|
A|-7---7---7---7---7---7---7---7---|-7---7---7---7---7---7---7---7---|-7---7---7---7---7---7---7---7---|
E|---------------------------------|-5---5---5---5---5---5---5---5---|-5---5---5---5---5---5---5---5---|


E|---------------------------------|---------------------------------|---------------------------------|
B|---------------------------------|---------------------------------|---------------------------------|
G|-9---9---9---9---9---9---9---9---|-9---9---9---9---9---9---9---9---|---------------------------------|
D|-9---9---9---9---9---9---9---9---|-9---9---9---9---9---9---9---9---|-7---7---7---7---7---7---7---7---|
A|-7---7---7---7---7---7---7---7---|-7---7---7---7---7---7---7---7---|-7---7---7---7---7---7---7---7---|
E|---------------------------------|---------------------------------|-5---5---5---5---5---5---5---5---|


E|---------------------------------|---------------------------------|---------------------------------|
B|---------------------------------|---------------------------------|---------------------------------|
G|---------------------------------|-9---9---9---9---9---9---9---9---|-9---9---9---9---9---9---9---9---|
D|-7---7---7---7---7---7---7---7---|-9---9---9---9---9---9---9---9---|-9---9---9---9---9---9---9---9---|
A|-7---7---7---7---7---7---7---7---|-7---7---7---7---7---7---7---7---|-7---7---7---7---7---7---7---7---|
E|-5---5---5---5---5---5---5---5---|---------------------------------|---------------------------------|


E|---------------------------------|---------------------------------|---------------------------------|
B|---------------------------------|---------------------------------|---------------------------------|
G|---------------------------------|---------------------------------|---------------------------------|
D|-7---7---7---7---7---7---7---7---|-9---9---9---9---9---9---9---9---|-11--11--11--11--11--11--11--11--|
A|-7---7---7---7---7---7---7---7---|-9---9---9---9---9---9---9---9---|-11--11--11--11--11--11--11--11--|
E|-5---5---5---5---5---5---5---5---|-7---7---7---7---7---7---7---7---|-9---9---9---9---9---9---9---9---|


E|---------------------------------|---------------------------------|---------------------------------|
B|---------------------------------|---------------------------------|---------------------------------|
G|-9---9---9---9---9---9---9---9---|---------------------------------|---------------------------------|
D|-9---9---9---9---9---9---9---9---|-7---7---7---7---7---7---7---7---|-9---9---9---9---9---9---9---9---|
A|-7---7---7---7---7---7---7---7---|-7---7---7---7---7---7---7---7---|-9---9---9---9---9---9---9---9---|
E|---------------------------------|-5---5---5---5---5---5---5---5---|-7---7---7---7---7---7---7---7---|


E|---------------------------------|---------------------------------|---------------------------------|
B|---------------------------------|---------------------------------|---------------------------------|
G|-9---9---9---9---9---9---9---9---|---------------------------------|---------------------------------|
D|-9---9---9---9---9---9---9---9---|-----9---9---9---9---9---9---9---|-7---7---7---7---7---7---7---7---|
A|-7---7---7---7---7---7---7---7---|-----9---9---9---9---9---9---9---|-7---7---7---7---7---7---7---7---|
E|---------------------------------|-----7---7---7---7---7---7---7---|-5---5---5---5---5---5---5---5---|


E|---------------------------------|---------------------------------|---------------------------------|
B|---------------------------------|---------------------------------|---------------------------------|
G|---------------------------------|---------------------------------|-9---9---9---9---9---9---9---9---|
D|-9---9---9---9---9---9---9---9---|-11--11--11--11--11--11--11--11--|-9---9---9---9---9---9---9---9---|
A|-9---9---9---9---9---9---9---9---|-11--11--11--11--11--11--11--11--|-7---7---7---7---7---7---7---7---|
E|-7---7---7---7---7---7---7---7---|-9---9---9---9---9---9---9---9---|---------------------------------|


E|---------------------------------|---------------------------------|---------------------------------|
B|---------------------------------|---------------------------------|---------------------------------|
G|---------------------------------|---------------------------------|-9---9---9---9---9---9---9---9---|
D|-7---7---7---7---7---7---7---7---|-9---9---9---9---9---9---9---9---|-9---9---9---9---9---9---9---9---|
A|-7---7---7---7---7---7---7---7---|-9---9---9---9---9---9---9---9---|-7---7---7---7---7---7---7---7---|
E|-5---5---5---5---5---5---5---5---|-7---7---7---7---7---7---7---7---|---------------------------------|


E|---------------------------------|---------------------------------|---------------------------------|
B|---------------------------------|---------------------------------|---------------------------------|
G|---------------------------------|---------------------------------|---------------------------------|
D|-----9---9---9---9---9---9---9---|-7---7---7---7---7---7---7---7---|-7---7---7---7---7---7---7---7---|
A|-----9---9---9---9---9---9---9---|-7---7---7---7---7---7---7---7---|-7---7---7---7---7---7---7---7---|
E|-----7---7---7---7---7---7---7---|-5---5---5---5---5---5---5---5---|-5---5---5---5---5---5---5---5---|


E|---------------------------------|---------------------------------|---------------------------------|
B|---------------------------------|---------------------------------|---------------------------------|
G|-9---9---9---9---9---9---9---9---|-9---9---9---9---9---9---9---9---|---------------------------------|
D|-9---9---9---9---9---9---9---9---|-9---9---9---9---9---9---9---9---|-7---7---7---7---7---7---7---7---|
A|-7---7---7---7---7---7---7---7---|-7---7---7---7---7---7---7---7---|-7---7---7---7---7---7---7---7---|
E|---------------------------------|---------------------------------|-5---5---5---5---5---5---5---5---|


E|---------------------------------|---------------------------------|---------------------------------|
B|---------------------------------|---------------------------------|---------------------------------|
G|---------------------------------|-9---9---9---9---9---9---9---9---|-9---9---9---9---9---9---9---9---|
D|-7---7---7---7---7---7---7---7---|-9---9---9---9---9---9---9---9---|-9---9---9---9---9---9---9---9---|
A|-7---7---7---7---7---7---7---7---|-7---7---7---7---7---7---7---7---|-7---7---7---7---7---7---7---7---|
E|-5---5---5---5---5---5---5---5---|---------------------------------|---------------------------------|


E|--------|--------|--------|--------|--------|--------|--------|--------|--------|
B|--------|--------|--------|--------|--------|--------|--------|--------|--------|
G|--------|--------|--------|--------|--------|--------|--------|--------|--------|
D|--------|--------|--------|--------|--------|--------|--------|--------|--------|
A|--------|--------|--------|--------|--------|--------|--------|--------|--------|
E|--------|--------|--------|--------|--------|--------|--------|--------|--------|


E|--------|--------|--------|--------|--------|--------|---------------------------------|
B|--------|--------|--------|--------|--------|--------|---------------------------------|
G|--------|--------|--------|--------|--------|--------|---------------------------------|
D|--------|--------|--------|--------|--------|--------|-7---7---7---7---7---7---7---7---|
A|--------|--------|--------|--------|--------|--------|-7---7---7---7---7---7---7---7---|
E|--------|--------|--------|--------|--------|--------|-5---5---5---5---5---5---5---5---|


E|---------------------------------|---------------------------------|---------------------------------|
B|---------------------------------|---------------------------------|---------------------------------|
G|---------------------------------|-9---9---9---9---9---9---9---9---|-7---7---7---7---7---7---7---7---|
D|-7---7---7---7---7---7---7---7---|-9---9---9---9---9---9---9---9---|-7---7---7---7---7---7---7---7---|
A|-7---7---7---7---7---7---7---7---|-7---7---7---7---7---7---7---7---|-5---5---5---5---5---5---5---5---|
E|-5---5---5---5---5---5---5---5---|---------------------------------|---------------------------------|


E|---------------------------------|---------------------------------|---------------------------------|
B|---------------------------------|---------------------------------|---------------------------------|
G|-7---7---7---7---7---7---7---7---|---------------------------------|-9---9---9---9---9---9---9---9---|
D|-7---7---7---7---7---7---7---7---|-7---7---7---7---7---7---7---7---|-9---9---9---9---9---9---9---9---|
A|-5---5---5---5---5---5---5---5---|-7---7---7---7---7---7---7---7---|-7---7---7---7---7---7---7---7---|
E|---------------------------------|-5---5---5---5---5---5---5---5---|---------------------------------|


E|---------------------------------|---------------------------------|---------------------------------|
B|---------------------------------|---------------------------------|---------------------------------|
G|-7---7---7---7---7---7---7---7---|-7---7---7---7---7---7---7---7---|---------------------------------|
D|-7---7---7---7---7---7---7---7---|-7---7---7---7---7---7---7---7---|-7---7---7---7---7---7---7---7---|
A|-5---5---5---5---5---5---5---5---|-5---5---5---5---5---5---5---5---|-7---7---7---7---7---7---7---7---|
E|---------------------------------|---------------------------------|-5---5---5---5---5---5---5---5---|


E|---------------------------------|---------------------------------|---------------------------------|
B|---------------------------------|---------------------------------|---------------------------------|
G|-9---9---9---9---9---9---9---9---|-7---7---7---7---7---7---7---7---|-7---7---7---7---7---7---7---7---|
D|-9---9---9---9---9---9---9---9---|-7---7---7---7---7---7---7---7---|-7---7---7---7---7---7---7---7---|
A|-7---7---7---7---7---7---7---7---|-5---5---5---5---5---5---5---5---|-5---5---5---5---5---5---5---5---|
E|---------------------------------|---------------------------------|---------------------------------|


E|---------------------------------|---------------------------------|---------------------------------|
B|---------------------------------|---------------------------------|---------------------------------|
G|---------------------------------|-9---9---9---9---9---9---9---9---|-7---7---7---7---7---7---7---7---|
D|-7---7---7---7---7---7---7---7---|-9---9---9---9---9---9---9---9---|-7---7---7---7---7---7---7---7---|
A|-7---7---7---7---7---7---7---7---|-7---7---7---7---7---7---7---7---|-5---5---5---5---5---5---5---5---|
E|-5---5---5---5---5---5---5---5---|---------------------------------|---------------------------------|


E|---------------------------------|
B|---------------------------------|
G|-7---7---7---7---7---7---7---7---|
D|-7---7---7---7---7---7---7---7---|
A|-5---5---5---5---5---5---5---5---|
E|---------------------------------|





Track 3: Untitled

G|--------|--------|--------|--------|--------|--------|--------|--------|--------|
D|--------|--------|--------|--------|--------|--------|--------|--------|--------|
A|--------|--------|--------|--------|--------|--------|--------|--------|--------|
E|--------|--------|--------|--------|--------|--------|--------|--------|--------|


G|--------|--------|--------|--------|--------|--------|--------|--------|--------|
D|--------|--------|--------|--------|--------|--------|--------|--------|--------|
A|--------|--------|--------|--------|--------|--------|--------|--------|--------|
E|--------|--------|--------|--------|--------|--------|--------|--------|--------|


G|--------|--------|--------|--------|--------|--------|--------|--------|--------|
D|--------|--------|--------|--------|--------|--------|--------|--------|--------|
A|--------|--------|--------|--------|--------|--------|--------|--------|--------|
E|--------|--------|--------|--------|--------|--------|--------|--------|--------|


G|--------|--------|--------|--------|--------|--------|--------|--------|--------|
D|--------|--------|--------|--------|--------|--------|--------|--------|--------|
A|--------|--------|--------|--------|--------|--------|--------|--------|--------|
E|--------|--------|--------|--------|--------|--------|--------|--------|--------|


G|--------|--------|--------|--------|--------|--------|--------|--------|--------|
D|--------|--------|--------|--------|--------|--------|--------|--------|--------|
A|--------|--------|--------|--------|--------|--------|--------|--------|--------|
E|--------|--------|--------|--------|--------|--------|--------|--------|--------|


G|--------|--------|--------|--------|--------|--------|--------|--------|--------|
D|--------|--------|--------|--------|--------|--------|--------|--------|--------|
A|--------|--------|--------|--------|--------|--------|--------|--------|--------|
E|--------|--------|--------|--------|--------|--------|--------|--------|--------|


G|--------|--------|--------|--------|--------|--------|--------|--------|--------|
D|--------|--------|--------|--------|--------|--------|--------|--------|--------|
A|--------|--------|--------|--------|--------|--------|--------|--------|--------|
E|--------|--------|--------|--------|--------|--------|--------|--------|--------|


G|--------|--------|--------|--------|--------|--------|--------|--------|--------|
D|--------|--------|--------|--------|--------|--------|--------|--------|--------|
A|--------|--------|--------|--------|--------|--------|--------|--------|--------|
E|--------|--------|--------|--------|--------|--------|--------|--------|--------|


G|--------|--------|--------|--------|--------|--------|--------|--------|--------|
D|--------|--------|--------|--------|--------|--------|--------|--------|--------|
A|--------|--------|--------|--------|--------|--------|--------|--------|--------|
E|--------|--------|--------|--------|--------|--------|--------|--------|--------|


G|--------|--------|--------|--------|--------|--------|--------|--------|--------|
D|--------|--------|--------|--------|--------|--------|--------|--------|--------|
A|--------|--------|--------|--------|--------|--------|--------|--------|--------|
E|--------|--------|--------|--------|--------|--------|--------|--------|--------|


G|--------|--------|--------|--------|--------|--------|--------|--------|--------|
D|--------|--------|--------|--------|--------|--------|--------|--------|--------|
A|--------|--------|--------|--------|--------|--------|--------|--------|--------|
E|--------|--------|--------|--------|--------|--------|--------|--------|--------|


G|--------|--------|--------|--------|--------|--------|--------|--------|--------|
D|--------|--------|--------|--------|--------|--------|--------|--------|--------|
A|--------|--------|--------|--------|--------|--------|--------|--------|--------|
E|--------|--------|--------|--------|--------|--------|--------|--------|--------|


G|--------|--------|--------|--------|--------|--------|--------|--------|--------|
D|--------|--------|--------|--------|--------|--------|--------|--------|--------|
A|--------|--------|--------|--------|--------|--------|--------|--------|--------|
E|--------|--------|--------|--------|--------|--------|--------|--------|--------|


G|--------|--------|--------|--------|--------|--------|--------|--------|--------|
D|--------|--------|--------|--------|--------|--------|--------|--------|--------|
A|--------|--------|--------|--------|--------|--------|--------|--------|--------|
E|--------|--------|--------|--------|--------|--------|--------|--------|--------|


G|--------|--------|--------|--------|--------|--------|--------|--------|--------|
D|--------|--------|--------|--------|--------|--------|--------|--------|--------|
A|--------|--------|--------|--------|--------|--------|--------|--------|--------|
E|--------|--------|--------|--------|--------|--------|--------|--------|--------|


G|--------|--------|--------|--------|--------|--------|--------|--------|--------|
D|--------|--------|--------|--------|--------|--------|--------|--------|--------|
A|--------|--------|--------|--------|--------|--------|--------|--------|--------|
E|--------|--------|--------|--------|--------|--------|--------|--------|--------|


G|--------|--------|--------|
D|--------|--------|--------|
A|--------|--------|--------|
E|--------|--------|--------|