Menu:

 

Search:

 

bloodhound gang - right turn clyde:

 



Title: Right Turn Clyde
Artist: 
Album: Hurrah For Boobies
Author: Bloodhound Gang


Track 1: Piano

E|------------------------------|------------------------------|------------------------------|
B|------17--15-17---17--15--13--|------12--12-12---12--13--12--|------10--10-10---10--13--10--|
G|------------------------------|------------------------------|------------------------------|
D|------------------------------|------------------------------|------------------------------|
A|------------------------------|------------------------------|------------------------------|
E|------------------------------|------------------------------|------------------------------|


E|--------------------------------|------------------------------|------------------------------|
B|------10--10-10---10--13-10-13--|------17--15-17---17--15--13--|------12--12-12---12--13--12--|
G|--------------------------------|------------------------------|------------------------------|
D|--------------------------------|------------------------------|------------------------------|
A|--------------------------------|------------------------------|------------------------------|
E|--------------------------------|------------------------------|------------------------------|


E|------------------------------|--------------------------------|------------------------------|
B|------10--10-10---10--13--10--|------10--10-10---10--13-10-13--|------17--15-17---17--15--13--|
G|------------------------------|--------------------------------|------------------------------|
D|------------------------------|--------------------------------|------------------------------|
A|------------------------------|--------------------------------|------------------------------|
E|------------------------------|--------------------------------|------------------------------|


E|------------------------------|------------------------------|--------------------------------|
B|------12--12-12---12--13--12--|------10--10-10---10--13--10--|------10--10-10---10--13-10-13--|
G|------------------------------|------------------------------|--------------------------------|
D|------------------------------|------------------------------|--------------------------------|
A|------------------------------|------------------------------|--------------------------------|
E|------------------------------|------------------------------|--------------------------------|


E|------------------------------|------------------------------|------------------------------|
B|------17--15-17---17--15--13--|------12--12-12---12--13--12--|------10--10-10---10--13--10--|
G|------------------------------|------------------------------|------------------------------|
D|------------------------------|------------------------------|------------------------------|
A|------------------------------|------------------------------|------------------------------|
E|------------------------------|------------------------------|------------------------------|


E|--------------------------------|------------------------------|------------------------------|
B|------10--10-10---10--13-10-13--|------17--15-17---17--15--13--|------12--12-12---12--13--12--|
G|--------------------------------|------------------------------|------------------------------|
D|--------------------------------|------------------------------|------------------------------|
A|--------------------------------|------------------------------|------------------------------|
E|--------------------------------|------------------------------|------------------------------|


E|------------------------------|--------------------------------|------------------------------|
B|------10--10-10---10--13--10--|------10--10-10---10--13-10-13--|------17--15-17---17--15--13--|
G|------------------------------|--------------------------------|------------------------------|
D|------------------------------|--------------------------------|------------------------------|
A|------------------------------|--------------------------------|------------------------------|
E|------------------------------|--------------------------------|------------------------------|


E|------------------------------|------------------------------|--------------------------------|
B|------12--12-12---12--13--12--|------10--10-10---10--13--10--|------10--10-10---10--13-10-13--|
G|------------------------------|------------------------------|--------------------------------|
D|------------------------------|------------------------------|--------------------------------|
A|------------------------------|------------------------------|--------------------------------|
E|------------------------------|------------------------------|--------------------------------|


E|--------|--------|--------|--------|--------|--------|--------|--------|------------------------------|
B|--------|--------|--------|--------|--------|--------|--------|--------|------17--15-17---17--15--13--|
G|--------|--------|--------|--------|--------|--------|--------|--------|------------------------------|
D|--------|--------|--------|--------|--------|--------|--------|--------|------------------------------|
A|--------|--------|--------|--------|--------|--------|--------|--------|------------------------------|
E|--------|--------|--------|--------|--------|--------|--------|--------|------------------------------|


E|------------------------------|------------------------------|--------------------------------|
B|------12--12-12---12--13--12--|------10--10-10---10--13--10--|------10--10-10---10--13-10-13--|
G|------------------------------|------------------------------|--------------------------------|
D|------------------------------|------------------------------|--------------------------------|
A|------------------------------|------------------------------|--------------------------------|
E|------------------------------|------------------------------|--------------------------------|


E|------------------------------|------------------------------|------------------------------|
B|------17--15-17---17--15--13--|------12--12-12---12--13--12--|------10--10-10---10--13--10--|
G|------------------------------|------------------------------|------------------------------|
D|------------------------------|------------------------------|------------------------------|
A|------------------------------|------------------------------|------------------------------|
E|------------------------------|------------------------------|------------------------------|


E|--------------------------------|------------------------------|------------------------------|
B|------10--10-10---10--13-10-13--|------17--15-17---17--15--13--|------12--12-12---12--13--12--|
G|--------------------------------|------------------------------|------------------------------|
D|--------------------------------|------------------------------|------------------------------|
A|--------------------------------|------------------------------|------------------------------|
E|--------------------------------|------------------------------|------------------------------|


E|------------------------------|--------------------------------|------------------------------|
B|------10--10-10---10--13--10--|------10--10-10---10--13-10-13--|------17--15-17---17--15--13--|
G|------------------------------|--------------------------------|------------------------------|
D|------------------------------|--------------------------------|------------------------------|
A|------------------------------|--------------------------------|------------------------------|
E|------------------------------|--------------------------------|------------------------------|


E|------------------------------|------------------------------|--------------------------------|
B|------12--12-12---12--13--12--|------10--10-10---10--13--10--|------10--10-10---10--13-10-13--|
G|------------------------------|------------------------------|--------------------------------|
D|------------------------------|------------------------------|--------------------------------|
A|------------------------------|------------------------------|--------------------------------|
E|------------------------------|------------------------------|--------------------------------|


E|------------------------------|------------------------------|------------------------------|
B|------17--15-17---17--15--13--|------12--12-12---12--13--12--|------10--10-10---10--13--10--|
G|------------------------------|------------------------------|------------------------------|
D|------------------------------|------------------------------|------------------------------|
A|------------------------------|------------------------------|------------------------------|
E|------------------------------|------------------------------|------------------------------|


E|--------------------------------|------------------------------|------------------------------|
B|------10--10-10---10--13-10-13--|------17--15-17---17--15--13--|------12--12-12---12--13--12--|
G|--------------------------------|------------------------------|------------------------------|
D|--------------------------------|------------------------------|------------------------------|
A|--------------------------------|------------------------------|------------------------------|
E|--------------------------------|------------------------------|------------------------------|


E|------------------------------|--------------------------------|--------|--------|
B|------10--10-10---10--13--10--|------10--10-10---10--13-10-13--|--------|--------|
G|------------------------------|--------------------------------|--------|--------|
D|------------------------------|--------------------------------|--------|--------|
A|------------------------------|--------------------------------|--------|--------|
E|------------------------------|--------------------------------|--------|--------|


E|--------|--------|--------|--------|--------|--------|-17----------|------------15---|
B|--------|--------|--------|--------|--------|--------|--------17---|-15----17--------|
G|--------|--------|--------|--------|--------|--------|-------------|-----------------|
D|--------|--------|--------|--------|--------|--------|-------------|-----------------|
A|--------|--------|--------|--------|--------|--------|-------------|-----------------|
E|--------|--------|--------|--------|--------|--------|-------------|-----------------|


E|-----------17----|-17----------|-17----------|------------15---|-----------17----|
B|-17--------------|--------10---|--------17---|-15----17--------|-17--------------|
G|-------14--------|-------------|-------------|-----------------|-------14--------|
D|-----------------|-------------|-------------|-----------------|-----------------|
A|-----------------|-------------|-------------|-----------------|-----------------|
E|-----------------|-------------|-------------|-----------------|-----------------|


E|-17----------|-17----------|------------15---|-----------17----|-17----------|-17----------|
B|--------10---|--------17---|-15----17--------|-17--------------|--------10---|--------17---|
G|-------------|-------------|-----------------|-------14--------|-------------|-------------|
D|-------------|-------------|-----------------|-----------------|-------------|-------------|
A|-------------|-------------|-----------------|-----------------|-------------|-------------|
E|-------------|-------------|-----------------|-----------------|-------------|-------------|


E|------------15---|-----------17----|-17----------|-17----------|------------15---|
B|-15----17--------|-17--------------|--------10---|--------17---|-15----17--------|
G|-----------------|-------14--------|-------------|-------------|-----------------|
D|-----------------|-----------------|-------------|-------------|-----------------|
A|-----------------|-----------------|-------------|-------------|-----------------|
E|-----------------|-----------------|-------------|-------------|-----------------|


E|-----------17----|-17----------|-17----------|------------15---|-----------17----|
B|-17--------------|--------10---|--------17---|-15----17--------|-17--------------|
G|-------14--------|-------------|-------------|-----------------|-------14--------|
D|-----------------|-------------|-------------|-----------------|-----------------|
A|-----------------|-------------|-------------|-----------------|-----------------|
E|-----------------|-------------|-------------|-----------------|-----------------|


E|-17----------|-17----------|------------15---|-----------17----|-17----------|-17----------|
B|--------10---|--------17---|-15----17--------|-17--------------|--------10---|--------17---|
G|-------------|-------------|-----------------|-------14--------|-------------|-------------|
D|-------------|-------------|-----------------|-----------------|-------------|-------------|
A|-------------|-------------|-----------------|-----------------|-------------|-------------|
E|-------------|-------------|-----------------|-----------------|-------------|-------------|


E|------------15---|-----------17----|-17----------|-17----------|------------15---|
B|-15----17--------|-17--------------|--------10---|--------17---|-15----17--------|
G|-----------------|-------14--------|-------------|-------------|-----------------|
D|-----------------|-----------------|-------------|-------------|-----------------|
A|-----------------|-----------------|-------------|-------------|-----------------|
E|-----------------|-----------------|-------------|-------------|-----------------|


E|-----------17----|-17----------|-17----------|------------15---|-----------17----|
B|-17--------------|--------10---|--------17---|-15----17--------|-17--------------|
G|-------14--------|-------------|-------------|-----------------|-------14--------|
D|-----------------|-------------|-------------|-----------------|-----------------|
A|-----------------|-------------|-------------|-----------------|-----------------|
E|-----------------|-------------|-------------|-----------------|-----------------|


E|-17----------|-17----------|------------15---|-----------17----|-17----------|-17----------|
B|--------10---|--------17---|-15----17--------|-17--------------|--------10---|--------17---|
G|-------------|-------------|-----------------|-------14--------|-------------|-------------|
D|-------------|-------------|-----------------|-----------------|-------------|-------------|
A|-------------|-------------|-----------------|-----------------|-------------|-------------|
E|-------------|-------------|-----------------|-----------------|-------------|-------------|


E|------------15---|-----------17----|-17----------|-17----------|------------15---|
B|-15----17--------|-17--------------|--------10---|--------17---|-15----17--------|
G|-----------------|-------14--------|-------------|-------------|-----------------|
D|-----------------|-----------------|-------------|-------------|-----------------|
A|-----------------|-----------------|-------------|-------------|-----------------|
E|-----------------|-----------------|-------------|-------------|-----------------|


E|-----------17----|-17----------|-17----------|------------15---|-----------17----|
B|-17--------------|--------10---|--------17---|-15----17--------|-17--------------|
G|-------14--------|-------------|-------------|-----------------|-------14--------|
D|-----------------|-------------|-------------|-----------------|-----------------|
A|-----------------|-------------|-------------|-----------------|-----------------|
E|-----------------|-------------|-------------|-----------------|-----------------|


E|-17----------|
B|--------10---|
G|-------------|
D|-------------|
A|-------------|
E|-------------|





Track 2: Dist. Guitar

E|--------|--------|--------|--------|--------|--------|--------|--------|--------|
B|--------|--------|--------|--------|--------|--------|--------|--------|--------|
G|--------|--------|--------|--------|--------|--------|--------|--------|--------|
D|--------|--------|--------|--------|--------|--------|--------|--------|--------|
A|--------|--------|--------|--------|--------|--------|--------|--------|--------|
E|--------|--------|--------|--------|--------|--------|--------|--------|--------|


E|--------|--------|--------|--------|--------|--------|--------|--------|--------|
B|--------|--------|--------|--------|--------|--------|--------|--------|--------|
G|--------|--------|--------|--------|--------|--------|--------|--------|--------|
D|--------|--------|--------|--------|--------|--------|--------|--------|--------|
A|--------|--------|--------|--------|--------|--------|--------|--------|--------|
E|--------|--------|--------|--------|--------|--------|--------|--------|--------|


E|--------|--------|--------|--------|--------|--------|----------------|----------------|
B|--------|--------|--------|--------|--------|--------|----------------|----------------|
G|--------|--------|--------|--------|--------|--------|----------------|----------------|
D|--------|--------|--------|--------|--------|--------|-3---3----------|-5---5----------|
A|--------|--------|--------|--------|--------|--------|-3---3----------|-5---5----------|
E|--------|--------|--------|--------|--------|--------|-1---1----------|-3---3----------|


E|-------------------------------------------------|-----------------------------------------------|
B|-------------------------------------------------|-----------------------------------------------|
G|-------------------------------------------------|-----------------------------------------------|
D|-7--7--7--7--7--7--7--7--7--7--7--7--7--7--7--7--|-7--7--7--7--7--7--7--7--7--7--7--7--7--7--7---|
A|-7--7--7--7--7--7--7--7--7--7--7--7--7--7--7--7--|-7--7--7--7--7--7--7--7--7--7--7--7--7--7--7---|
E|-5--5--5--5--5--5--5--5--5--5--5--5--5--5--5--5--|-5--5--5--5--5--5--5--5--5--5--5--5--5--5--5---|


E|----------------|----------------|-------------------------------------------------|
B|----------------|----------------|-------------------------------------------------|
G|----------------|----------------|-------------------------------------------------|
D|-3---3----------|-5---5----------|-7--7--7--7--7--7--7--7--7--7--7--7--7--7--7--7--|
A|-3---3----------|-5---5----------|-7--7--7--7--7--7--7--7--7--7--7--7--7--7--7--7--|
E|-1---1----------|-3---3----------|-5--5--5--5--5--5--5--5--5--5--5--5--5--5--5--5--|


E|-----------------------------------------------|--------|--------|--------|--------|
B|-----------------------------------------------|--------|--------|--------|--------|
G|-----------------------------------------------|--------|--------|--------|--------|
D|-7--7--7--7--7--7--7--7--7--7--7--7--7--7--7---|--------|--------|--------|--------|
A|-7--7--7--7--7--7--7--7--7--7--7--7--7--7--7---|--------|--------|--------|--------|
E|-5--5--5--5--5--5--5--5--5--5--5--5--5--5--5---|--------|--------|--------|--------|


E|--------|--------|--------|--------|--------|--------|--------|--------|--------|
B|--------|--------|--------|--------|--------|--------|--------|--------|--------|
G|--------|--------|--------|--------|--------|--------|--------|--------|--------|
D|--------|--------|--------|--------|--------|--------|--------|--------|--------|
A|--------|--------|--------|--------|--------|--------|--------|--------|--------|
E|--------|--------|--------|--------|--------|--------|--------|--------|--------|


E|--------|--------|--------|--------|--------|--------|--------|--------|--------|
B|--------|--------|--------|--------|--------|--------|--------|--------|--------|
G|--------|--------|--------|--------|--------|--------|--------|--------|--------|
D|--------|--------|--------|--------|--------|--------|--------|--------|--------|
A|--------|--------|--------|--------|--------|--------|--------|--------|--------|
E|--------|--------|--------|--------|--------|--------|--------|--------|--------|


E|--------|--------|----------------|----------------|-------------------------------------------------|
B|--------|--------|----------------|----------------|-------------------------------------------------|
G|--------|--------|----------------|----------------|-------------------------------------------------|
D|--------|--------|-3---3----------|-5---5----------|-7--7--7--7--7--7--7--7--7--7--7--7--7--7--7--7--|
A|--------|--------|-3---3----------|-5---5----------|-7--7--7--7--7--7--7--7--7--7--7--7--7--7--7--7--|
E|--------|--------|-1---1----------|-3---3----------|-5--5--5--5--5--5--5--5--5--5--5--5--5--5--5--5--|


E|-------------------------------------------------|----------------|----------------|
B|-------------------------------------------------|----------------|----------------|
G|-------------------------------------------------|----------------|----------------|
D|-7--7--7--7--7--7--7--7--7--7--7--7--7--7--7--7--|-3---3----------|-5---5----------|
A|-7--7--7--7--7--7--7--7--7--7--7--7--7--7--7--7--|-3---3----------|-5---5----------|
E|-5--5--5--5--5--5--5--5--5--5--5--5--5--5--5--5--|-1---1----------|-3---3----------|


E|-------------------------------------------------|-------------------------------------------------|
B|-------------------------------------------------|-------------------------------------------------|
G|-------------------------------------------------|-------------------------------------------------|
D|-7--7--7--7--7--7--7--7--7--7--7--7--7--7--7--7--|-7--7--7--7--7--7--7--7--7--7--7--7--7--7--7--7--|
A|-7--7--7--7--7--7--7--7--7--7--7--7--7--7--7--7--|-7--7--7--7--7--7--7--7--7--7--7--7--7--7--7--7--|
E|-5--5--5--5--5--5--5--5--5--5--5--5--5--5--5--5--|-5--5--5--5--5--5--5--5--5--5--5--5--5--5--5--5--|


E|--------|--------|--------|--------|--------|--------|--------|--------|--------|
B|--------|--------|--------|--------|--------|--------|--------|--------|--------|
G|--------|--------|--------|--------|--------|--------|--------|--------|--------|
D|--------|--------|--------|--------|--------|--------|--------|--------|--------|
A|--------|--------|--------|--------|--------|--------|--------|--------|--------|
E|--------|--------|--------|--------|--------|--------|--------|--------|--------|


E|--------|--------|--------|--------|--------|--------|--------|--------|--------|
B|--------|--------|--------|--------|--------|--------|--------|--------|--------|
G|--------|--------|--------|--------|--------|--------|--------|--------|--------|
D|--------|--------|--------|--------|--------|--------|--------|--------|--------|
A|--------|--------|--------|--------|--------|--------|--------|--------|--------|
E|--------|--------|--------|--------|--------|--------|--------|--------|--------|


E|--------|--------|--------|--------|--------|--------|--------|--------|--------|
B|--------|--------|--------|--------|--------|--------|--------|--------|--------|
G|--------|--------|--------|--------|--------|--------|--------|--------|--------|
D|--------|--------|--------|--------|--------|--------|--------|--------|--------|
A|--------|--------|--------|--------|--------|--------|--------|--------|--------|
E|--------|--------|--------|--------|--------|--------|--------|--------|--------|


E|--------|--------|--------|--------|--------|--------|--------|--------|--------|
B|--------|--------|--------|--------|--------|--------|--------|--------|--------|
G|--------|--------|--------|--------|--------|--------|--------|--------|--------|
D|--------|--------|--------|--------|--------|--------|--------|--------|--------|
A|--------|--------|--------|--------|--------|--------|--------|--------|--------|
E|--------|--------|--------|--------|--------|--------|--------|--------|--------|


E|--------|--------|--------|--------|--------|--------|--------|--------|--------|
B|--------|--------|--------|--------|--------|--------|--------|--------|--------|
G|--------|--------|--------|--------|--------|--------|--------|--------|--------|
D|--------|--------|--------|--------|--------|--------|--------|--------|--------|
A|--------|--------|--------|--------|--------|--------|--------|--------|--------|
E|--------|--------|--------|--------|--------|--------|--------|--------|--------|


E|--------|--------|--------|--------|--------|--------|--------|--------|--------|
B|--------|--------|--------|--------|--------|--------|--------|--------|--------|
G|--------|--------|--------|--------|--------|--------|--------|--------|--------|
D|--------|--------|--------|--------|--------|--------|--------|--------|--------|
A|--------|--------|--------|--------|--------|--------|--------|--------|--------|
E|--------|--------|--------|--------|--------|--------|--------|--------|--------|


E|--------|--------|
B|--------|--------|
G|--------|--------|
D|--------|--------|
A|--------|--------|
E|--------|--------|





Track 3: Piano 2

E|--------|--------|--------|--------|--------|--------|--------|--------|--------|
B|--------|--------|--------|--------|--------|--------|--------|--------|--------|
G|--------|--------|--------|--------|--------|--------|--------|--------|--------|
D|--------|--------|--------|--------|--------|--------|--------|--------|--------|
A|--------|--------|--------|--------|--------|--------|--------|--------|--------|
E|--------|--------|--------|--------|--------|--------|--------|--------|--------|


E|--------|--------|--------|--------|--------|--------|--------|--------|--------|
B|--------|--------|--------|--------|--------|--------|--------|--------|--------|
G|--------|--------|--------|--------|--------|--------|--------|--------|--------|
D|--------|--------|--------|--------|--------|--------|--------|--------|--------|
A|--------|--------|--------|--------|--------|--------|--------|--------|--------|
E|--------|--------|--------|--------|--------|--------|--------|--------|--------|


E|--------|--------|--------|--------|--------|--------|--------|--------|--------|
B|--------|--------|--------|--------|--------|--------|--------|--------|--------|
G|--------|--------|--------|--------|--------|--------|--------|--------|--------|
D|--------|--------|--------|--------|--------|--------|--------|--------|--------|
A|--------|--------|--------|--------|--------|--------|--------|--------|--------|
E|--------|--------|--------|--------|--------|--------|--------|--------|--------|


E|--------|--------|--------|--------|--------|--------|--------|--------|--------|
B|--------|--------|--------|--------|--------|--------|--------|--------|--------|
G|--------|--------|--------|--------|--------|--------|--------|--------|--------|
D|--------|--------|--------|--------|--------|--------|--------|--------|--------|
A|--------|--------|--------|--------|--------|--------|--------|--------|--------|
E|--------|--------|--------|--------|--------|--------|--------|--------|--------|


E|--------|--------|--------|--------|--------|--------|--------|--------|--------|
B|--------|--------|--------|--------|--------|--------|--------|--------|--------|
G|--------|--------|--------|--------|--------|--------|--------|--------|--------|
D|--------|--------|--------|--------|--------|--------|--------|--------|--------|
A|--------|--------|--------|--------|--------|--------|--------|--------|--------|
E|--------|--------|--------|--------|--------|--------|--------|--------|--------|


E|--------|--------|--------|--------|--------|--------|--------|--------|--------|
B|--------|--------|--------|--------|--------|--------|--------|--------|--------|
G|--------|--------|--------|--------|--------|--------|--------|--------|--------|
D|--------|--------|--------|--------|--------|--------|--------|--------|--------|
A|--------|--------|--------|--------|--------|--------|--------|--------|--------|
E|--------|--------|--------|--------|--------|--------|--------|--------|--------|


E|--------|--------|--------|--------|--------|--------|--------|--------|--------|
B|--------|--------|--------|--------|--------|--------|--------|--------|--------|
G|--------|--------|--------|--------|--------|--------|--------|--------|--------|
D|--------|--------|--------|--------|--------|--------|--------|--------|--------|
A|--------|--------|--------|--------|--------|--------|--------|--------|--------|
E|--------|--------|--------|--------|--------|--------|--------|--------|--------|


E|--------|--------|--------|--------|--------|--------|--------|--------|--------|
B|--------|--------|--------|--------|--------|--------|--------|--------|--------|
G|--------|--------|--------|--------|--------|--------|--------|--------|--------|
D|--------|--------|--------|--------|--------|--------|--------|--------|--------|
A|--------|--------|--------|--------|--------|--------|--------|--------|--------|
E|--------|--------|--------|--------|--------|--------|--------|--------|--------|


E|------15--------15---|------15--------15---|------17--------17---|------17--------17---|
B|---------------------|---------------------|---------------------|---------------------|
G|-14--------14--------|-14--------14--------|-14--------14--------|-14--------14--------|
D|---------------------|---------------------|---------------------|---------------------|
A|---------------------|---------------------|---------------------|---------------------|
E|---------------------|---------------------|---------------------|---------------------|


E|------15--------15---|------15--------15---|------17--------17---|------17--------17---|
B|---------------------|---------------------|---------------------|---------------------|
G|-14--------14--------|-14--------14--------|-14--------14--------|-14--------14--------|
D|---------------------|---------------------|---------------------|---------------------|
A|---------------------|---------------------|---------------------|---------------------|
E|---------------------|---------------------|---------------------|---------------------|


E|------15--------15---|------15--------15---|------17--------17---|------17--------17---|
B|---------------------|---------------------|---------------------|---------------------|
G|-14--------14--------|-14--------14--------|-14--------14--------|-14--------14--------|
D|---------------------|---------------------|---------------------|---------------------|
A|---------------------|---------------------|---------------------|---------------------|
E|---------------------|---------------------|---------------------|---------------------|


E|------15--------15---|------15--------15---|------17--------17---|------17--------17---|
B|---------------------|---------------------|---------------------|---------------------|
G|-14--------14--------|-14--------14--------|-14--------14--------|-14--------14--------|
D|---------------------|---------------------|---------------------|---------------------|
A|---------------------|---------------------|---------------------|---------------------|
E|---------------------|---------------------|---------------------|---------------------|


E|------15--------15---|------15--------15---|------17--------17---|------17--------17---|
B|---------------------|---------------------|---------------------|---------------------|
G|-14--------14--------|-14--------14--------|-14--------14--------|-14--------14--------|
D|---------------------|---------------------|---------------------|---------------------|
A|---------------------|---------------------|---------------------|---------------------|
E|---------------------|---------------------|---------------------|---------------------|


E|------15--------15---|------15--------15---|------17--------17---|------17--------17---|
B|---------------------|---------------------|---------------------|---------------------|
G|-14--------14--------|-14--------14--------|-14--------14--------|-14--------14--------|
D|---------------------|---------------------|---------------------|---------------------|
A|---------------------|---------------------|---------------------|---------------------|
E|---------------------|---------------------|---------------------|---------------------|


E|------15--------15---|------15--------15---|------17--------17---|------17--------17---|
B|---------------------|---------------------|---------------------|---------------------|
G|-14--------14--------|-14--------14--------|-14--------14--------|-14--------14--------|
D|---------------------|---------------------|---------------------|---------------------|
A|---------------------|---------------------|---------------------|---------------------|
E|---------------------|---------------------|---------------------|---------------------|


E|------15--------15---|------15--------15---|------17--------17---|------17--------17---|
B|---------------------|---------------------|---------------------|---------------------|
G|-14--------14--------|-14--------14--------|-14--------14--------|-14--------14--------|
D|---------------------|---------------------|---------------------|---------------------|
A|---------------------|---------------------|---------------------|---------------------|
E|---------------------|---------------------|---------------------|---------------------|


E|------15--------15---|------15--------15---|------17--------17---|------17--------17---|
B|---------------------|---------------------|---------------------|---------------------|
G|-14--------14--------|-14--------14--------|-14--------14--------|-14--------14--------|
D|---------------------|---------------------|---------------------|---------------------|
A|---------------------|---------------------|---------------------|---------------------|
E|---------------------|---------------------|---------------------|---------------------|


E|------15--------15---|------15--------15---|------17--------17---|------17--------17---|
B|---------------------|---------------------|---------------------|---------------------|
G|-14--------14--------|-14--------14--------|-14--------14--------|-14--------14--------|
D|---------------------|---------------------|---------------------|---------------------|
A|---------------------|---------------------|---------------------|---------------------|
E|---------------------|---------------------|---------------------|---------------------|


E|------15--------15---|------15--------15---|------17--------17---|------17--------17---|
B|---------------------|---------------------|---------------------|---------------------|
G|-14--------14--------|-14--------14--------|-14--------14--------|-14--------14--------|
D|---------------------|---------------------|---------------------|---------------------|
A|---------------------|---------------------|---------------------|---------------------|
E|---------------------|---------------------|---------------------|---------------------|


E|------15--------15---|------15--------15---|------17--------17---|------17--------17---|
B|---------------------|---------------------|---------------------|---------------------|
G|-14--------14--------|-14--------14--------|-14--------14--------|-14--------14--------|
D|---------------------|---------------------|---------------------|---------------------|
A|---------------------|---------------------|---------------------|---------------------|
E|---------------------|---------------------|---------------------|---------------------|





Track 4: Scale Downward

E|--------|--------|--------|--------|--------|--------|--------|--------|--------|
B|--------|--------|--------|--------|--------|--------|--------|--------|--------|
G|--------|--------|--------|--------|--------|--------|--------|--------|--------|
D|--------|--------|--------|--------|--------|--------|--------|--------|--------|
A|--------|--------|--------|--------|--------|--------|--------|--------|--------|
E|--------|--------|--------|--------|--------|--------|--------|--------|--------|


E|--------|--------|--------|--------|--------|--------|--------|--------|--------|
B|--------|--------|--------|--------|--------|--------|--------|--------|--------|
G|--------|--------|--------|--------|--------|--------|--------|--------|--------|
D|--------|--------|--------|--------|--------|--------|--------|--------|--------|
A|--------|--------|--------|--------|--------|--------|--------|--------|--------|
E|--------|--------|--------|--------|--------|--------|--------|--------|--------|


E|--------|--------|--------|--------|--------|--------|--------|--------|--------|
B|--------|--------|--------|--------|--------|--------|--------|--------|--------|
G|--------|--------|--------|--------|--------|--------|--------|--------|--------|
D|--------|--------|--------|--------|--------|--------|--------|--------|--------|
A|--------|--------|--------|--------|--------|--------|--------|--------|--------|
E|--------|--------|--------|--------|--------|--------|--------|--------|--------|


E|--------|--------|--------|--------|--------|--------|--------|--------|--------|
B|--------|--------|--------|--------|--------|--------|--------|--------|--------|
G|--------|--------|--------|--------|--------|--------|--------|--------|--------|
D|--------|--------|--------|--------|--------|--------|--------|--------|--------|
A|--------|--------|--------|--------|--------|--------|--------|--------|--------|
E|--------|--------|--------|--------|--------|--------|--------|--------|--------|


E|--------|--------|--------|--------|--------|--------|--------|--------|--------|
B|--------|--------|--------|--------|--------|--------|--------|--------|--------|
G|--------|--------|--------|--------|--------|--------|--------|--------|--------|
D|--------|--------|--------|--------|--------|--------|--------|--------|--------|
A|--------|--------|--------|--------|--------|--------|--------|--------|--------|
E|--------|--------|--------|--------|--------|--------|--------|--------|--------|


E|--------|--------|--------|--------|--------|--------|--------|--------|--------|
B|--------|--------|--------|--------|--------|--------|--------|--------|--------|
G|--------|--------|--------|--------|--------|--------|--------|--------|--------|
D|--------|--------|--------|--------|--------|--------|--------|--------|--------|
A|--------|--------|--------|--------|--------|--------|--------|--------|--------|
E|--------|--------|--------|--------|--------|--------|--------|--------|--------|


E|--------|--------|--------|--------|--------|--------|--------|--------|--------|
B|--------|--------|--------|--------|--------|--------|--------|--------|--------|
G|--------|--------|--------|--------|--------|--------|--------|--------|--------|
D|--------|--------|--------|--------|--------|--------|--------|--------|--------|
A|--------|--------|--------|--------|--------|--------|--------|--------|--------|
E|--------|--------|--------|--------|--------|--------|--------|--------|--------|


E|--------|--------|--------|--------|--------|--------|--------|--------|--------|
B|--------|--------|--------|--------|--------|--------|--------|--------|--------|
G|--------|--------|--------|--------|--------|--------|--------|--------|--------|
D|--------|--------|--------|--------|--------|--------|--------|--------|--------|
A|--------|--------|--------|--------|--------|--------|--------|--------|--------|
E|--------|--------|--------|--------|--------|--------|--------|--------|--------|


E|--------|--------|--------|-7--5-----5-------------------------------|--------|--------|
B|--------|--------|--------|-------7-----7--5--7--5-----5-------------|--------|--------|
G|--------|--------|--------|-------------------------7-----7--4-------|--------|--------|
D|--------|--------|--------|-------------------------------------7----|--------|--------|
A|--------|--------|--------|------------------------------------------|--------|--------|
E|--------|--------|--------|------------------------------------------|--------|--------|


E|--------|-7--5-----5-------------------------------|--------|--------|--------|-7--5-----5-------------------------------|
B|--------|-------7-----7--5--7--5-----5-------------|--------|--------|--------|-------7-----7--5--7--5-----5-------------|
G|--------|-------------------------7-----7--4-------|--------|--------|--------|-------------------------7-----7--4-------|
D|--------|-------------------------------------7----|--------|--------|--------|-------------------------------------7----|
A|--------|------------------------------------------|--------|--------|--------|------------------------------------------|
E|--------|------------------------------------------|--------|--------|--------|------------------------------------------|


E|--------|--------|--------|-7--5-----5-------------------------------|--------|--------|
B|--------|--------|--------|-------7-----7--5--7--5-----5-------------|--------|--------|
G|--------|--------|--------|-------------------------7-----7--4-------|--------|--------|
D|--------|--------|--------|-------------------------------------7----|--------|--------|
A|--------|--------|--------|------------------------------------------|--------|--------|
E|--------|--------|--------|------------------------------------------|--------|--------|


E|--------|-7--5-----5-------------------------------|--------|--------|--------|-7--5-----5-------------------------------|
B|--------|-------7-----7--5--7--5-----5-------------|--------|--------|--------|-------7-----7--5--7--5-----5-------------|
G|--------|-------------------------7-----7--4-------|--------|--------|--------|-------------------------7-----7--4-------|
D|--------|-------------------------------------7----|--------|--------|--------|-------------------------------------7----|
A|--------|------------------------------------------|--------|--------|--------|------------------------------------------|
E|--------|------------------------------------------|--------|--------|--------|------------------------------------------|


E|--------|--------|--------|-7--5-----5-------------------------------|--------|--------|
B|--------|--------|--------|-------7-----7--5--7--5-----5-------------|--------|--------|
G|--------|--------|--------|-------------------------7-----7--4-------|--------|--------|
D|--------|--------|--------|-------------------------------------7----|--------|--------|
A|--------|--------|--------|------------------------------------------|--------|--------|
E|--------|--------|--------|------------------------------------------|--------|--------|


E|--------|-7--5-----5-------------------------------|--------|--------|--------|-7--5-----5-------------------------------|
B|--------|-------7-----7--5--7--5-----5-------------|--------|--------|--------|-------7-----7--5--7--5-----5-------------|
G|--------|-------------------------7-----7--4-------|--------|--------|--------|-------------------------7-----7--4-------|
D|--------|-------------------------------------7----|--------|--------|--------|-------------------------------------7----|
A|--------|------------------------------------------|--------|--------|--------|------------------------------------------|
E|--------|------------------------------------------|--------|--------|--------|------------------------------------------|


E|--------|--------|--------|-7--5-----5-------------------------------|--------|--------|
B|--------|--------|--------|-------7-----7--5--7--5-----5-------------|--------|--------|
G|--------|--------|--------|-------------------------7-----7--4-------|--------|--------|
D|--------|--------|--------|-------------------------------------7----|--------|--------|
A|--------|--------|--------|------------------------------------------|--------|--------|
E|--------|--------|--------|------------------------------------------|--------|--------|


E|--------|-7--5-----5-------------------------------|--------|--------|--------|-7--5-----5-------------------------------|
B|--------|-------7-----7--5--7--5-----5-------------|--------|--------|--------|-------7-----7--5--7--5-----5-------------|
G|--------|-------------------------7-----7--4-------|--------|--------|--------|-------------------------7-----7--4-------|
D|--------|-------------------------------------7----|--------|--------|--------|-------------------------------------7----|
A|--------|------------------------------------------|--------|--------|--------|------------------------------------------|
E|--------|------------------------------------------|--------|--------|--------|------------------------------------------|





Track 5: Evil Jared - Synth

G|-----------------------------------|-----------------------------------|-----------------------------------|
D|-----3-------3---------3-------3---|-----5-------5---------5-------5---|-----7-------7---------7-------7---|
A|-----------------------------------|-----------------------------------|-----------------------------------|
E|-1-------1------1---1------1-------|-3-------3------3---3------3-------|-5-------5------5---5------5-------|


G|-----------------------------------|-----------------------------------|-----------------------------------|
D|-----7-------7---------7-------7---|-----3-------3---------3-------3---|-----5-------5---------5-------5---|
A|-----------------------------------|-----------------------------------|-----------------------------------|
E|-5-------5------5---5------5-------|-1-------1------1---1------1-------|-3-------3------3---3------3-------|


G|-----------------------------------|-----------------------------------|------------------------|
D|-----7-------7---------7-------7---|-----7-------7---------7-------7---|-3--3-------3--3--------|
A|-----------------------------------|-----------------------------------|------------------------|
E|-5-------5------5---5------5-------|-5-------5------5---5------5-------|------------------------|


G|------------------------|------------------------|------------------------|------------------------|
D|-5--5-------5--5--------|-7--7-------7--7--------|-7--7-------7--7--------|-3--3-------3--3--------|
A|------------------------|------------------------|------------------------|------------------------|
E|------------------------|------------------------|------------------------|------------------------|


G|------------------------|------------------------|------------------------|------------------------|
D|-5--5-------5--5--------|-7--7-------7--7--------|-7--7-------7--7--------|-3--3-------3--3--------|
A|------------------------|------------------------|------------------------|------------------------|
E|------------------------|------------------------|------------------------|------------------------|


G|------------------------|------------------------|------------------------|------------------------|
D|-5--5-------5--5--------|-7--7-------7--7--------|-7--7-------7--7--------|-3--3-------3--3--------|
A|------------------------|------------------------|------------------------|------------------------|
E|------------------------|------------------------|------------------------|------------------------|


G|------------------------|------------------------|------------------------|--------|
D|-5--5-------5--5--------|-7--7-------7--7--------|-7--7-------7--7--------|--------|
A|------------------------|------------------------|------------------------|--------|
E|------------------------|------------------------|------------------------|--------|


G|--------|--------|--------|--------|--------|--------|--------|-----------------------------------|
D|--------|--------|--------|--------|--------|--------|--------|-----3-------3---------3-------3---|
A|--------|--------|--------|--------|--------|--------|--------|-----------------------------------|
E|--------|--------|--------|--------|--------|--------|--------|-1-------1------1---1------1-------|


G|-----------------------------------|-----------------------------------|-----------------------------------|
D|-----5-------5---------5-------5---|-----7-------7---------7-------7---|-----7-------7---------7-------7---|
A|-----------------------------------|-----------------------------------|-----------------------------------|
E|-3-------3------3---3------3-------|-5-------5------5---5------5-------|-5-------5------5---5------5-------|


G|-----------------------------------|-----------------------------------|-----------------------------------|
D|-----3-------3---------3-------3---|-----5-------5---------5-------5---|-----7-------7---------7-------7---|
A|-----------------------------------|-----------------------------------|-----------------------------------|
E|-1-------1------1---1------1-------|-3-------3------3---3------3-------|-5-------5------5---5------5-------|


G|-----------------------------------|-----------------------------------|-----------------------------------|
D|-----7-------7---------7-------7---|-----3-------3---------3-------3---|-----5-------5---------5-------5---|
A|-----------------------------------|-----------------------------------|-----------------------------------|
E|-5-------5------5---5------5-------|-1-------1------1---1------1-------|-3-------3------3---3------3-------|


G|-----------------------------------|-----------------------------------|-----------------------------------|
D|-----7-------7---------7-------7---|-----7-------7---------7-------7---|-----3-------3---------3-------3---|
A|-----------------------------------|-----------------------------------|-----------------------------------|
E|-5-------5------5---5------5-------|-5-------5------5---5------5-------|-1-------1------1---1------1-------|


G|-----------------------------------|-----------------------------------|-----------------------------------|
D|-----5-------5---------5-------5---|-----7-------7---------7-------7---|-----7-------7---------7-------7---|
A|-----------------------------------|-----------------------------------|-----------------------------------|
E|-3-------3------3---3------3-------|-5-------5------5---5------5-------|-5-------5------5---5------5-------|


G|-----------------------------------|-----------------------------------|-----------------------------------|
D|-----3-------3---------3-------3---|-----5-------5---------5-------5---|-----7-------7---------7-------7---|
A|-----------------------------------|-----------------------------------|-----------------------------------|
E|-1-------1------1---1------1-------|-3-------3------3---3------3-------|-5-------5------5---5------5-------|


G|-----------------------------------|-----------------------------------|-----------------------------------|
D|-----7-------7---------7-------7---|-----3-------3---------3-------3---|-----5-------5---------5-------5---|
A|-----------------------------------|-----------------------------------|-----------------------------------|
E|-5-------5------5---5------5-------|-1-------1------1---1------1-------|-3-------3------3---3------3-------|


G|-----------------------------------|-----------------------------------|--------|
D|-----7-------7---------7-------7---|-----7-------7---------7-------7---|--------|
A|-----------------------------------|-----------------------------------|--------|
E|-5-------5------5---5------5-------|-5-------5------5---5------5-------|--------|


G|--------|--------|--------|--------|--------|--------|--------|-----------------------------------|
D|--------|--------|--------|--------|--------|--------|--------|-----3-------3---------3-------3---|
A|--------|--------|--------|--------|--------|--------|--------|-----------------------------------|
E|--------|--------|--------|--------|--------|--------|--------|-1-------1------1---1------1-------|


G|-----------------------------------|-----------------------------------|-----------------------------------|
D|-----5-------5---------5-------5---|-----7-------7---------7-------7---|-----7-------7---------7-------7---|
A|-----------------------------------|-----------------------------------|-----------------------------------|
E|-3-------3------3---3------3-------|-5-------5------5---5------5-------|-5-------5------5---5------5-------|


G|-----------------------------------|-----------------------------------|-----------------------------------|
D|-----3-------3---------3-------3---|-----5-------5---------5-------5---|-----7-------7---------7-------7---|
A|-----------------------------------|-----------------------------------|-----------------------------------|
E|-1-------1------1---1------1-------|-3-------3------3---3------3-------|-5-------5------5---5------5-------|


G|-----------------------------------|--------|--------|--------|--------|--------|
D|-----7-------7---------7-------7---|--------|--------|--------|--------|--------|
A|-----------------------------------|--------|--------|--------|--------|--------|
E|-5-------5------5---5------5-------|--------|--------|--------|--------|--------|


G|--------|--------|--------|-----------------------------------|-----------------------------------|
D|--------|--------|--------|-----3-------3---------3-------3---|-----5-------5---------5-------5---|
A|--------|--------|--------|-----------------------------------|-----------------------------------|
E|--------|--------|--------|-1-------1------1---1------1-------|-3-------3------3---3------3-------|


G|-----------------------------------|-----------------------------------|-----------------------------------|
D|-----7-------7---------7-------7---|-----7-------7---------7-------7---|-----3-------3---------3-------3---|
A|-----------------------------------|-----------------------------------|-----------------------------------|
E|-5-------5------5---5------5-------|-5-------5------5---5------5-------|-1-------1------1---1------1-------|


G|-----------------------------------|-----------------------------------|-----------------------------------|
D|-----5-------5---------5-------5---|-----7-------7---------7-------7---|-----7-------7---------7-------7---|
A|-----------------------------------|-----------------------------------|-----------------------------------|
E|-3-------3------3---3------3-------|-5-------5------5---5------5-------|-5-------5------5---5------5-------|


G|-----------------------------------|-----------------------------------|-----------------------------------|
D|-----3-------3---------3-------3---|-----5-------5---------5-------5---|-----7-------7---------7-------7---|
A|-----------------------------------|-----------------------------------|-----------------------------------|
E|-1-------1------1---1------1-------|-3-------3------3---3------3-------|-5-------5------5---5------5-------|


G|-----------------------------------|-----------------------------------|-----------------------------------|
D|-----7-------7---------7-------7---|-----3-------3---------3-------3---|-----5-------5---------5-------5---|
A|-----------------------------------|-----------------------------------|-----------------------------------|
E|-5-------5------5---5------5-------|-1-------1------1---1------1-------|-3-------3------3---3------3-------|


G|-----------------------------------|-----------------------------------|-----------------------------------|
D|-----7-------7---------7-------7---|-----7-------7---------7-------7---|-----3-------3---------3-------3---|
A|-----------------------------------|-----------------------------------|-----------------------------------|
E|-5-------5------5---5------5-------|-5-------5------5---5------5-------|-1-------1------1---1------1-------|


G|-----------------------------------|-----------------------------------|-----------------------------------|
D|-----5-------5---------5-------5---|-----7-------7---------7-------7---|-----7-------7---------7-------7---|
A|-----------------------------------|-----------------------------------|-----------------------------------|
E|-3-------3------3---3------3-------|-5-------5------5---5------5-------|-5-------5------5---5------5-------|


G|-----------------------------------|-----------------------------------|-----------------------------------|
D|-----3-------3---------3-------3---|-----5-------5---------5-------5---|-----7-------7---------7-------7---|
A|-----------------------------------|-----------------------------------|-----------------------------------|
E|-1-------1------1---1------1-------|-3-------3------3---3------3-------|-5-------5------5---5------5-------|


G|-----------------------------------|-----------------------------------|-----------------------------------|
D|-----7-------7---------7-------7---|-----3-------3---------3-------3---|-----5-------5---------5-------5---|
A|-----------------------------------|-----------------------------------|-----------------------------------|
E|-5-------5------5---5------5-------|-1-------1------1---1------1-------|-3-------3------3---3------3-------|


G|-----------------------------------|-----------------------------------|-----------------------------------|
D|-----7-------7---------7-------7---|-----7-------7---------7-------7---|-----3-------3---------3-------3---|
A|-----------------------------------|-----------------------------------|-----------------------------------|
E|-5-------5------5---5------5-------|-5-------5------5---5------5-------|-1-------1------1---1------1-------|


G|-----------------------------------|-----------------------------------|-----------------------------------|
D|-----5-------5---------5-------5---|-----7-------7---------7-------7---|-----7-------7---------7-------7---|
A|-----------------------------------|-----------------------------------|-----------------------------------|
E|-3-------3------3---3------3-------|-5-------5------5---5------5-------|-5-------5------5---5------5-------|


G|-----------------------------------|-----------------------------------|-----------------------------------|
D|-----3-------3---------3-------3---|-----5-------5---------5-------5---|-----7-------7---------7-------7---|
A|-----------------------------------|-----------------------------------|-----------------------------------|
E|-1-------1------1---1------1-------|-3-------3------3---3------3-------|-5-------5------5---5------5-------|


G|-----------------------------------|-----------------------------------|-----------------------------------|
D|-----7-------7---------7-------7---|-----3-------3---------3-------3---|-----5-------5---------5-------5---|
A|-----------------------------------|-----------------------------------|-----------------------------------|
E|-5-------5------5---5------5-------|-1-------1------1---1------1-------|-3-------3------3---3------3-------|


G|-----------------------------------|-----------------------------------|
D|-----7-------7---------7-------7---|-----7-------7---------7-------7---|
A|-----------------------------------|-----------------------------------|
E|-5-------5------5---5------5-------|-5-------5------5---5------5-------|





Track 6: Evil Jared - Choruses

G|--------|--------|--------|--------|--------|--------|--------|--------|--------|
D|--------|--------|--------|--------|--------|--------|--------|--------|--------|
A|--------|--------|--------|--------|--------|--------|--------|--------|--------|
E|--------|--------|--------|--------|--------|--------|--------|--------|--------|


G|--------|--------|--------|--------|--------|--------|--------|--------|--------|
D|--------|--------|--------|--------|--------|--------|--------|--------|--------|
A|--------|--------|--------|--------|--------|--------|--------|--------|--------|
E|--------|--------|--------|--------|--------|--------|--------|--------|--------|


G|--------|--------|--------|--------|--------|--------|----------------|----------------|
D|--------|--------|--------|--------|--------|--------|----------------|----------------|
A|--------|--------|--------|--------|--------|--------|----------------|----------------|
E|--------|--------|--------|--------|--------|--------|-1---1----------|-3---3----------|


G|-------------------------------------------------|-----------------------------------------------|
D|-------------------------------------------------|-----------------------------------------------|
A|-------------------------------------------------|-----------------------------------------------|
E|-5--5--5--5--5--5--5--5--5--5--5--5--5--5--5--5--|-5--5--5--5--5--5--5--5--5--5--5--5--5--5--5---|


G|----------------|----------------|-------------------------------------------------|
D|----------------|----------------|-------------------------------------------------|
A|----------------|----------------|-------------------------------------------------|
E|-1---1----------|-3---3----------|-5--5--5--5--5--5--5--5--5--5--5--5--5--5--5--5--|


G|-----------------------------------------------|--------|--------|--------|--------|
D|-----------------------------------------------|--------|--------|--------|--------|
A|-----------------------------------------------|--------|--------|--------|--------|
E|-5--5--5--5--5--5--5--5--5--5--5--5--5--5--5---|--------|--------|--------|--------|


G|--------|--------|--------|--------|--------|--------|--------|--------|--------|
D|--------|--------|--------|--------|--------|--------|--------|--------|--------|
A|--------|--------|--------|--------|--------|--------|--------|--------|--------|
E|--------|--------|--------|--------|--------|--------|--------|--------|--------|


G|--------|--------|--------|--------|--------|--------|--------|--------|--------|
D|--------|--------|--------|--------|--------|--------|--------|--------|--------|
A|--------|--------|--------|--------|--------|--------|--------|--------|--------|
E|--------|--------|--------|--------|--------|--------|--------|--------|--------|


G|--------|--------|----------------|----------------|-------------------------------------------------|
D|--------|--------|----------------|----------------|-------------------------------------------------|
A|--------|--------|----------------|----------------|-------------------------------------------------|
E|--------|--------|-1---1----------|-3---3----------|-5--5--5--5--5--5--5--5--5--5--5--5--5--5--5--5--|


G|-----------------------------------------------|----------------|----------------|
D|-----------------------------------------------|----------------|----------------|
A|-----------------------------------------------|----------------|----------------|
E|-5--5--5--5--5--5--5--5--5--5--5--5--5--5--5---|-1---1----------|-3---3----------|


G|-------------------------------------------------|-----------------------------------------------|
D|-------------------------------------------------|-----------------------------------------------|
A|-------------------------------------------------|-----------------------------------------------|
E|-5--5--5--5--5--5--5--5--5--5--5--5--5--5--5--5--|-5--5--5--5--5--5--5--5--5--5--5--5--5--5--5---|


G|--------|--------|--------|--------|--------|--------|--------|--------|--------|
D|--------|--------|--------|--------|--------|--------|--------|--------|--------|
A|--------|--------|--------|--------|--------|--------|--------|--------|--------|
E|--------|--------|--------|--------|--------|--------|--------|--------|--------|


G|--------|--------|--------|--------|--------|--------|--------|--------|--------|
D|--------|--------|--------|--------|--------|--------|--------|--------|--------|
A|--------|--------|--------|--------|--------|--------|--------|--------|--------|
E|--------|--------|--------|--------|--------|--------|--------|--------|--------|


G|--------|--------|--------|--------|--------|--------|--------|--------|--------|
D|--------|--------|--------|--------|--------|--------|--------|--------|--------|
A|--------|--------|--------|--------|--------|--------|--------|--------|--------|
E|--------|--------|--------|--------|--------|--------|--------|--------|--------|


G|--------|--------|--------|--------|--------|--------|--------|--------|--------|
D|--------|--------|--------|--------|--------|--------|--------|--------|--------|
A|--------|--------|--------|--------|--------|--------|--------|--------|--------|
E|--------|--------|--------|--------|--------|--------|--------|--------|--------|


G|--------|--------|--------|--------|--------|--------|--------|--------|--------|
D|--------|--------|--------|--------|--------|--------|--------|--------|--------|
A|--------|--------|--------|--------|--------|--------|--------|--------|--------|
E|--------|--------|--------|--------|--------|--------|--------|--------|--------|


G|--------|--------|--------|--------|--------|--------|--------|--------|--------|
D|--------|--------|--------|--------|--------|--------|--------|--------|--------|
A|--------|--------|--------|--------|--------|--------|--------|--------|--------|
E|--------|--------|--------|--------|--------|--------|--------|--------|--------|


G|--------|--------|
D|--------|--------|
A|--------|--------|
E|--------|--------|