Menu:

 

Search:

 

blind guardian - nightfall:

 



/---------------------------------------------------------------------------
/ The following is the author's own interpretation of the song, to be used -
/ for studying or private use only, removal of any part of this ten line   -
/ header is illegal!!!  Removal of the transcribers name or anything       -
/ relevant to the transcriber is also illegal, as so is the removal of the -
/ place inwhich the tab was downloaded. Publishing as well as printing of  -
/ the tab is illegal without permission of the transcriber and copyright   -
/ owner of the song. Failure to apply to these laws result will in legal   -
/ action from the appropriate parties.                                     -
/---------------------------------------------------------------------------

downloaded from Displacer's Tablature Site at
        http://www.dsrmusic.com/metaltab
join the death/black tab emailing list by filling out the free
subscription form at http://www.dsrmusic.com/metaltab/join.htm


* * * * * * * * * * * * * * * * * * * * * * *
*  Album:  Nightfall in Middle-Earth        *
*  Title:  Nightfall                        *
*					    *
*  Transcribed by: Niklas Lehto		    *
*  Comments?       dreadman@mail.bip.net    *
* * * * * * * * * * * * * * * * * * * * * * *




TABLATURE EXPLANATION

HBR = Strike the note and bend up 1/2 step, then release the bend back to the original note. (Rapidly)
      All three notes are tied, only the first note is struck.
FBR = Same as above, but bend the note one whole step.
PFB = Prebend the note one whole step.
R   = Release a ben to the original note.
A.H = Atrificial harmonic. The note is fretted normally and a harmonic is produced by adding the
      edge of the tumb or the tip of the indexfinger of the right hand to the normal pick attack.
~   = Vibrato.



Listen to the recording for timing.

Intro:

(Stålsträngad)

|------------------------|0------------------|----------------------|------------|
|-------------4----------|--0----------------|------------4---------|------------|
|-----------------4------|-----0---4---3h4p3-|----------------4-----|6---3-------|
|---------6----------6---|-------------------|--------6-----------6-|--------5---|
|-------6----------------|-------------------|------6---------------|------------|
|4-----------------------|-------------------|4---------------------|------------|

        I'm not sure of this one, but a think it goes like this:
|--------------------------|------------------------|
|4/5---4-------------------|4/5---4h5p4-2---2h4p2---|
|----------6-----4---6h8---|----------------------3-|
|--------------------------|------------------------|
|--------------------------|------------------------|
|--------------------------|------------------------|

                           Second guitar
                           |------------------------|
                           |7/9---7h9p7-5--5h7p5-4--|
                           |------------------------|
                           |------------------------|
                           |------------------------|
                           |------------------------|

Verse1:

Guitar plays same as above.

No sign of life did flicker
In blood of tears she cried
"All hope's lost it can't be undone
They're wasted and gone"

Verse2:

|-----11-11---11---9-----|--------9h11-12-11h12p11-9-|----------------------|------------|
|9--------------------12-|12---12--------------------|----------------------|------------|
|------------------------|---------------------------|----------------------|------------|
|------------------------|---------------------------|----------------------|------------|
|------------------------|---------------------------|----------------------|------------|
|------------------------|---------------------------|----------------------|------------|



Chorus:
A#5 F#5    C#5                     D#5        F5
Nighfall - Quitely it crept in and changed us all
A#5 F#5    C#5                     D#5        F5
Nighfall - Quitely it crept in and changed us all
A#5 F#5    C#5      F#5       C#5     G#5 A#5(Lead)
Nighfall - Immortal land lies down in agony

LeadGuitar:

|---6------9---8-----------|-------------------------------|----------------------|------------|
|------6-----------9---6---|----------7---6HBR-4---6-------|7---6HBR-4---6--------|------------|
|--------------------------|-------------------------------|----------------------|------------|
|--------------------------|8---8A.H-------------------8---|----------------------|------------|
|--------------------------|-------------------------------|----------------------|------------|
|--------------------------|-------------------------------|----------------------|------------|



Well, this is all I have managed to tab at the point... it's sure a lot of leads to figure out...