Menu:

 

Search:

 

blind guardian - im alive:

 



Title: I'm Alive
Artist: 
Album: Imagination from the other side
Author: Blind Guardian


Track 1: Rhytm Guitar

E|----------------------------------|----------------------------------|---------------------------|
B|----------------------------------|----------------------------------|---------------------------|
G|----------------------------------|----------------------------------|---------------------------|
D|----------------------------------|----------------------------------|---------------------------|
A|-8--------------------------------|-9--------------------------------|-6---8---8----6---8---8----|
E|-8--------------------------------|-9--------------------------------|-6---8---8----6---8---8----|
A|-8----8---8---8---8---8--8--8--8--|-9----9---9---9---9---9--9--9--9--|-6---8---8----6---8---8----|


E|---------------------------|----------------------------------|----------------------------------|
B|---------------------------|----------------------------------|----------------------------------|
G|---------------------------|----------------------------------|----------------------------------|
D|---------------------------|----------------------------------|----------------------------------|
A|-6---8---8----6---8---8----|-8--------------------------------|-9--------------------------------|
E|-6---8---8----6---8---8----|-8--------------------------------|-9--------------------------------|
A|-6---8---8----6---8---8----|-8----8---8---8---8---8--8--8--8--|-9----9---9---9---9---9--9--9--9--|


E|-------------|-------------|-------------------------------------------|-------------------------------------------|
B|-------------|-------------|-------------------------------------------|-------------------------------------------|
G|-------5-----|-------------|-------------------------------------------|-------------------------------------------|
D|-3-----5-----|-6-----9-----|-------------------------------------------|-------------------------------------------|
A|-3-----3-----|-6-----9-----|-8---------8---------------------8---------|-8---------------------8---------8---------|
E|-1-----------|-4-----7-----|-8---------8---------------------8---------|-8---------------------8---------8---------|
A|-------------|-------------|-8---8--8--8---8--8--8--8--8--8--8---8--8--|-8---8--8--8--8--8--8--8---8--8--8---8--8--|


E|-------------------------------------------|-------------------------------------------|
B|-------------------------------------------|-------------------------------------------|
G|-------------------------------------------|-------------------------------------------|
D|-------------------------------------------|-------------------------------------------|
A|-8---------8---------------------8---------|-8---------------------8---------8---------|
E|-8---------8---------------------8---------|-8---------------------8---------8---------|
A|-8---8--8--8---8--8--8--8--8--8--8---8--8--|-8---8--8--8--8--8--8--8---8--8--8---8--8--|


E|-------------|-------------|--------|--------|--------|--------|--------|--------|
B|-------------|-------------|--------|--------|--------|--------|--------|--------|
G|-------5-----|-------------|--------|--------|--------|--------|--------|--------|
D|-3-----5-----|-6-----9-----|--------|--------|--------|--------|--------|--------|
A|-3-----3-----|-6-----9-----|--------|-8------|-8------|-8------|-8------|-8------|
E|-1-----------|-4-----7-----|--------|-8------|-8------|-8------|-8------|-8------|
A|-------------|-------------|--------|-8------|-8------|-8------|-8------|-8------|


E|--------|--------|--------|--------|---------------------------|---------------------------|
B|--------|--------|--------|--------|---------------------------|---------------------------|
G|--------|--------|--------|--------|---------------------------|---------------------------|
D|--------|--------|--------|--------|---------------------------|---------------------------|
A|-8------|-8------|-8------|-8------|-6---8---8----6---8---8----|-6---8---8----6---8---8----|
E|-8------|-8------|-8------|-8------|-6---8---8----6---8---8----|-6---8---8----6---8---8----|
A|-8------|-8------|-8------|-8------|-6---8---8----6---8---8----|-6---8---8----6---8---8----|


E|-------------------------------------------------|-------------------------------------------------|
B|-------------------------------------------------|-------------------------------------------------|
G|-------------------------------------------------|-------------------------------------------------|
D|-------------------------------------------------|-------------------------------------------------|
A|-------------------------------------------------|-------------------------------------------------|
E|-7--7--7--7--7--7--7--7--7--7--7--7--7--7--7--7--|-7--7--7--7--7--7--7--7--7--7--7--7--7--7--7--7--|
A|-------------------------------------------------|-------------------------------------------------|


E|---------------------------------------------|---------------------------------------------|
B|---------------------------------------------|---------------------------------------------|
G|---------------------------------------------|---------------------------------------------|
D|---------------------------------------------|---------------------------------------------|
A|---------------------------------------------|---------------------------------------------|
E|---------------------------------------------|---------------------------------------------|
A|-6---8--8--8--8--8--8--6---8--8--8--8--8--8--|-6---8--8--8--8--8--8--6---8--8--8--8--8--8--|


E|-------------------------------------------------|---------------------|---------------------------------------------|
B|-------------------------------------------------|---------------------|---------------------------------------------|
G|-------------------------------------------------|-8----7--------------|---------------------------------------------|
D|-------------------------------------------------|-8----7----8----6----|---------------------------------------------|
A|-------------------------------------------------|-6----5----8----6----|---------------------------------------------|
E|-------------------------------------------------|-----------6----4----|---------------------------------------------|
A|-8--8--8--8--8--8--8--8--8--8--8--8--8--8--8--8--|---------------------|-6---8--8--8--8--8--8--6---8--8--8--8--8--8--|


E|---------------------------------------------|-------------------------------------------------|
B|---------------------------------------------|-------------------------------------------------|
G|---------------------------------------------|-------------------------------------------------|
D|---------------------------------------------|-------------------------------------------------|
A|---------------------------------------------|-------------------------------------------------|
E|---------------------------------------------|-------------------------------------------------|
A|-6---8--8--8--8--8--8--6---8--8--8--8--8--8--|-8--8--8--8--10-10-10-10-11-11-11-11-13-13-13-13-|


E|-------------------------------------------------|---------------------------------------------|
B|-------------------------------------------------|---------------------------------------------|
G|-------------------------------------------------|---------------------------------------------|
D|-------------------------------------------------|-8---9---------------------------------------|
A|-------------------------------------------------|-8---9---------------------------------------|
E|-13-13-13-13-12-12-12-12-8--8--8--8--------------|-6---7---7--7--7--7--7--7--7--7--7--7--7--7--|
A|-------------------------------------11-11-11-11-|---------------------------------------------|


E|-------------------------------------------------|---------------------------------------------|
B|-------------------------------------------------|---------------------------------------------|
G|-------------------------------------------------|---------------------------------------------|
D|-------------------------------------------------|-9---8---------------------------------------|
A|-------------------------------------------------|-9---8---------------------------------------|
E|-7--7--7--7--7--7--7--7--7--7--7--7--7--7--7--7--|-7---6---6--6--6--6--6--6--6--6--6--6--6--6--|
A|-------------------------------------------------|---------------------------------------------|


E|-------------------------------------------------|---------------------------------------------|
B|-------------------------------------------------|---------------------------------------------|
G|-------------------------------------------------|---------------------------------------------|
D|-------------------------------------------------|-8---9---------------------------------------|
A|-------------------------------------------------|-8---9---------------------------------------|
E|-6--6--6--6--6--6--6--6--6--6--6--6--6--6--6--6--|-6---7---7--7--7--7--7--7--7--7--7--7--7--7--|
A|-------------------------------------------------|---------------------------------------------|


E|-------------------------------------------------|-------------|-------------|---------------------------------------------|
B|-------------------------------------------------|-------------|-------------|---------------------------------------------|
G|-------------------------------------------------|-------------|-------------|---------------------------------------------|
D|-------------------------------------------------|-------10----|-6-----8-----|-8---9---------------------------------------|
A|-------------------------------------------------|-8-----10----|-6-----8-----|-8---9---------------------------------------|
E|-7--7--7--7--7--7--7--7--7--7--7--7--7--7--7--7--|-8-----8-----|-4-----6-----|-6---7---7--7--7--7--7--7--7--7--7--7--7--7--|
A|-------------------------------------------------|-8-----------|-------------|---------------------------------------------|


E|-------------------------------------------------|---------------------------------------------|
B|-------------------------------------------------|---------------------------------------------|
G|-------------------------------------------------|---------------------------------------------|
D|-------------------------------------------------|-9---8---------------------------------------|
A|-------------------------------------------------|-9---8---------------------------------------|
E|-7--7--7--7--7--7--7--7--7--7--7--7--7--7--7--7--|-7---6---6--6--6--6--6--6--6--6--6--6--6--6--|
A|-------------------------------------------------|---------------------------------------------|


E|-------------------------------------------------|---------------------------------------------|
B|-------------------------------------------------|---------------------------------------------|
G|-------------------------------------------------|---------------------------------------------|
D|-------------------------------------------------|-8---9---------------------------------------|
A|-------------------------------------------------|-8---9---------------------------------------|
E|-6--6--6--6--6--6--6--6--6--6--6--6--6--6--6--6--|-6---7---7--7--7--7--7--7--7--7--7--7--7--7--|
A|-------------------------------------------------|---------------------------------------------|


E|-------------------------------------------------|-------------|-------------|--------|
B|-------------------------------------------------|-------------|-------------|--------|
G|-------------------------------------------------|-------------|-------------|--------|
D|-------------------------------------------------|-------10----|-6-----8-----|--------|
A|-------------------------------------------------|-8-----10----|-6-----8-----|-8------|
E|-7--7--7--7--7--7--7--7--7--7--7--7--7--7--7--7--|-8-----8-----|-4-----6-----|-8------|
A|-------------------------------------------------|-8-----------|-------------|-8------|


E|--------|-------------|-------------|--------|----------------------|--------|--------|
B|--------|-------------|-------------|--------|----------------------|--------|--------|
G|--------|-------------|-------------|--------|----------------------|--------|--------|
D|--------|-------------|-6-----------|--------|----------------------|--------|--------|
A|-8------|-8------8----|-6-----6-----|-8------|----4-----------------|--------|--------|
E|-8------|-8------8----|-4-----6-----|-8------|----4-----------------|--------|--------|
A|-8------|-8------8----|-------6-----|-8------|-6--------------------|--------|--------|


E|--------|--------|--------|--------|----------------------------------|----------------------------------|
B|--------|--------|--------|--------|----------------------------------|----------------------------------|
G|-6------|--------|--------|--------|----------------------------------|----------------------------------|
D|-6------|-8------|-10-----|-10-----|----------------------------------|-11-------------------------------|
A|-4------|-8------|-10-----|-10-----|-8--------------------------------|-11-------------------------------|
E|--------|-6------|-8------|-8------|-8--------------------------------|-9----9---9---9--9--9--9--9---9---|
A|--------|--------|--------|--------|-8----8---8---8--8--8--8--8---8---|----------------------------------|


E|----------------------------------|-------------|----------------------------------|
B|----------------------------------|-------------|----------------------------------|
G|----------------------------------|-------------|----------------------------------|
D|-10-------------------------------|-6-----------|----------------------------------|
A|-10-------------------------------|-6-----6-----|-8--------------------------------|
E|-8----8---8---8--8--8--8--8---8---|-4-----6-----|-8--------------------------------|
A|----------------------------------|-------6-----|-8----8---8---8--8--8--8--8---8---|


E|----------------------------------|----------------------------------|----------------|
B|----------------------------------|----------------------------------|----------------|
G|----------------------------------|----------------------------------|----------------|
D|-9--------------------------------|-10-------------------------------|-10-------------|
A|-9--------------------------------|-10-------------------------------|-10-------------|
E|-7----7---7---7--7--7--7--7---7---|-8----8---8---8--8--8--8--8---8---|-8------9---8---|
A|----------------------------------|----------------------------------|----------------|


E|-----------------------------------------------|-----------------------------------------------|
B|-----------------------------------------------|-----------------------------------------------|
G|-----------------------------------------------|-----------------------------------------------|
D|-11--------------------------------------------|-8---------------------------------------------|
A|-11--------------------------------------------|-8---------------------------------------------|
E|-9---9--9--9--9--9--9--9--9--9--9--9--9--9--9--|-6---6--6--6--6--6--6--6--6--6--6--6--6--6--6--|
A|-----------------------------------------------|-----------------------------------------------|


E|-----------------------------------------------|---------------------------------------------|
B|-----------------------------------------------|---------------------------------------------|
G|-----------------------------------------------|---------------------------------------------|
D|-10--------------------------------------------|---------------------------------------------|
A|-10--------------------------------------------|---------------------------------------------|
E|-8---8--8--8--8--8--8--8--8--8--8--8--8--8--8--|-8--8--8--8--8--8--8--8--8--8--8--8--9---8---|
A|-----------------------------------------------|---------------------------------------------|


E|-----------------------------------------------|-----------------------------------------------|
B|-----------------------------------------------|-----------------------------------------------|
G|-----------------------------------------------|-----------------------------------------------|
D|-11--------------------------------------------|-8---------------------------------------------|
A|-11--------------------------------------------|-8---------------------------------------------|
E|-9---9--9--9--9--9--9--9--9--9--9--9--9--9--9--|-6---6--6--6--6--6--6--6--6--6--6--6--6--6--6--|
A|-----------------------------------------------|-----------------------------------------------|


E|-----------------------------------------------|---------------------------------|
B|-----------------------------------------------|---------------------------------|
G|-----------------------------------------------|---------------------------------|
D|-10--------------------------------------------|---------------------------------|
A|-10--------------------------------------------|---------------------------------|
E|-8---8--8--8--8--8--8--8--8--8--8--8--8--8--8--|-8---8---8---8---8---8---6---4---|
A|-----------------------------------------------|---------------------------------|


E|-------------------------------------------|-------------------------------------------|
B|-------------------------------------------|-------------------------------------------|
G|-------------------------------------------|-------------------------------------------|
D|-------------------------------------------|-------------------------------------------|
A|-8---------8---------------------8---------|-8---------------------8---------8---------|
E|-8---------8---------------------8---------|-8---------------------8---------8---------|
A|-8---8--8--8---8--8--8--8--8--8--8---8--8--|-8---8--8--8--8--8--8--8---8--8--8---8--8--|


E|-------------------------------------------|-------------------------------------------|
B|-------------------------------------------|-------------------------------------------|
G|-------------------------------------------|-------------------------------------------|
D|-------------------------------------------|-------------------------------------------|
A|-8---------8---------------------8---------|-8---------------------8---------8---------|
E|-8---------8---------------------8---------|-8---------------------8---------8---------|
A|-8---8--8--8---8--8--8--8--8--8--8---8--8--|-8---8--8--8--8--8--8--8---8--8--8---8--8--|


E|-------------|-------------|---------------------------------------------|-------------------------------------------------|
B|-------------|-------------|---------------------------------------------|-------------------------------------------------|
G|-------------|-------------|---------------------------------------------|-------------------------------------------------|
D|-------10----|-6-----8-----|-8---10--------------------------------------|-------------------------------------------------|
A|-8-----10----|-6-----8-----|-8---10--------------------------------------|-------------------------------------------------|
E|-8-----8-----|-4-----6-----|-6---8---8--8--8--8--8--8--8--8--8--8--8--8--|-8--8--8--8--8--8--8--8--8--8--8--8--8--8--8--8--|
A|-8-----------|-------------|---------------------------------------------|-------------------------------------------------|


E|---------------------------------------------|--------|---------------------------------------------|
B|---------------------------------------------|--------|---------------------------------------------|
G|---------------------------------------------|--------|---------------------------------------------|
D|-8---10--------------------------------------|--------|-8---10--------------------------------------|
A|-8---10--------------------------------------|-9------|-8---10--------------------------------------|
E|-6---8---8--8--8--8--8--8--8--8--8--8--8--8--|-9------|-6---8---8--8--8--8--8--8--8--8--8--8--8--8--|
A|---------------------------------------------|-9------|---------------------------------------------|


E|-------------------------------------------------|---------------------------------------------|
B|-------------------------------------------------|---------------------------------------------|
G|-------------------------------------------------|---------------------------------------------|
D|-------------------------------------------------|-8---10--------------------------------------|
A|-------------------------------------------------|-8---10--------------------------------------|
E|-8--8--8--8--8--8--8--8--8--8--8--8--8--8--8--8--|-6---8---8--8--8--8--8--8--8--8--8--8--8--8--|
A|-------------------------------------------------|---------------------------------------------|


E|-------------|--------|--------|--------|--------|--------|--------|--------|--------|
B|-------------|--------|--------|--------|--------|--------|--------|--------|--------|
G|-------------|--------|--------|--------|--------|--------|--------|--------|--------|
D|-11----13----|--------|-11-----|--------|-10-----|--------|-11-----|--------|-10-----|
A|-11----13----|-8------|-11-----|-10-----|-10-----|-8------|-11-----|-10-----|-10-----|
E|-9-----11----|-8------|-9------|-10-----|-8------|-8------|-9------|-10-----|-8------|
A|-------------|-8------|--------|-10-----|--------|-8------|--------|-10-----|--------|


E|---------------------------------------------|---------------------------------------------|
B|---------------------------------------------|---------------------------------------------|
G|---------------------------------------------|---------------------------------------------|
D|---------------------------------------------|---------------------------------------------|
A|---------------------------------------------|---------------------------------------------|
E|---------------------------------------------|---------------------------------------------|
A|-6---8--8--8--8--8--8--6---8--8--8--8--8--8--|-6---8--8--8--8--8--8--6---8--8--8--8--8--8--|


E|--------|-------------|---------------------------------------------|---------------------------------|
B|--------|-------------|---------------------------------------------|---------------------------------|
G|--------|-------------|---------------------------------------------|---------------------------------|
D|-6------|-------------|---------------------------------------------|---------------------------------|
A|-6------|-6-----7-----|---------------------------------------------|-----------------------8----10---|
E|-4------|-6-----7-----|---------------------------------------------|-----------------------8----10---|
A|--------|-6-----7-----|-6---8--8--8--8--8--8--6---8--8--8--8--8--8--|-6---8--8--8--8--8--8--8----10---|


E|--------|--------|--------|--------|--------|--------|-----------------------------------------|
B|--------|--------|--------|--------|--------|--------|-----------------------------------------|
G|--------|--------|--------|--------|--------|--------|-----------------------------------------|
D|-6------|-13-----|-11-----|-11-----|-11-----|-11-----|-----------------------------------------|
A|-6------|-13-----|-11-----|-11-----|-11-----|-11-----|-----------------------------------------|
E|-4------|-11-----|-9------|-9------|-9------|-9------|-8---8---8--8--8--8--9---9---9--9--9--9--|
A|--------|--------|--------|--------|--------|--------|-----------------------------------------|


E|-----------------------------------------|-----------------------------------------|
B|-----------------------------------------|-----------------------------------------|
G|-----------------------------------------|-----------------------------------------|
D|-----------------------------------------|-----------------------------------------|
A|-----------------------------------------|-----------------------------------------|
E|-8---8---8--8--8--8--7---7---7--7--7--7--|-8---8---8--8--8--8--9---9---9--9--9--9--|
A|-----------------------------------------|-----------------------------------------|


E|-----------------------------------------|--------|--------|--------|--------|--------|
B|-----------------------------------------|--------|--------|--------|--------|--------|
G|-----------------------------------------|--------|--------|--------|--------|--------|
D|-----------------------------------------|-6------|--------|--------|--------|-6------|
A|-----------------------------------------|-6------|-6------|-8------|-8------|-6------|
E|-8---8---8--8--8--8--7---7---7--7--7--7--|-4------|-6------|-8------|-8------|-4------|
A|-----------------------------------------|--------|-6------|-8------|-8------|--------|


E|--------|--------|--------|-------------|-------------|--------|----------------------|
B|--------|--------|--------|-------------|-------------|--------|----------------------|
G|--------|--------|--------|-------------|-------------|--------|----------------------|
D|--------|--------|--------|-------------|-6-----------|--------|----------------------|
A|-6------|-8------|-8------|-8------8----|-6-----6-----|-8------|----4-----------------|
E|-6------|-8------|-8------|-8------8----|-4-----6-----|-8------|----4-----------------|
A|-6------|-8------|-8------|-8------8----|-------6-----|-8------|-6--------------------|


E|--------|--------|--------|--------|--------|--------|----------------------------------|
B|--------|--------|--------|--------|--------|--------|----------------------------------|
G|--------|--------|--------|--------|--------|--------|----------------------------------|
D|--------|--------|-11-----|-8------|-10-----|-10-----|----------------------------------|
A|--------|--------|-11-----|-8------|-10-----|-10-----|-8--------------------------------|
E|--------|--------|-9------|-6------|-8------|-8------|-8--------------------------------|
A|--------|--------|--------|--------|--------|--------|-8----8---8---8--8--8--8--8---8---|


E|----------------------------------|----------------------------------|-------------|
B|----------------------------------|----------------------------------|-------------|
G|----------------------------------|----------------------------------|-------------|
D|-11-------------------------------|-10-------------------------------|-6-----------|
A|-11-------------------------------|-10-------------------------------|-6-----6-----|
E|-9----9---9---9--9--9--9--9---9---|-8----8---8---8--8--8--8--8---8---|-4-----6-----|
A|----------------------------------|----------------------------------|-------6-----|


E|----------------------------------|----------------------------------|----------------------------------|
B|----------------------------------|----------------------------------|----------------------------------|
G|----------------------------------|----------------------------------|----------------------------------|
D|----------------------------------|-9--------------------------------|-10-------------------------------|
A|-8--------------------------------|-9--------------------------------|-10-------------------------------|
E|-8--------------------------------|-7----7---7---7--7--7--7--7---7---|-8----8---8---8--8--8--8--8---8---|
A|-8----8---8---8--8--8--8--8---8---|----------------------------------|----------------------------------|


E|----------------|-----------------------------------------------|-----------------------------------------------|
B|----------------|-----------------------------------------------|-----------------------------------------------|
G|----------------|-----------------------------------------------|-----------------------------------------------|
D|-10-------------|-11--------------------------------------------|-8---------------------------------------------|
A|-10-------------|-11--------------------------------------------|-8---------------------------------------------|
E|-8------9---8---|-9---9--9--9--9--9--9--9--9--9--9--9--9--9--9--|-6---6--6--6--6--6--6--6--6--6--6--6--6--6--6--|
A|----------------|-----------------------------------------------|-----------------------------------------------|


E|-----------------------------------------------|---------------------------------------------|
B|-----------------------------------------------|---------------------------------------------|
G|-----------------------------------------------|---------------------------------------------|
D|-10--------------------------------------------|---------------------------------------------|
A|-10--------------------------------------------|---------------------------------------------|
E|-8---8--8--8--8--8--8--8--8--8--8--8--8--8--8--|-8--8--8--8--8--8--8--8--8--8--8--8--9---8---|
A|-----------------------------------------------|---------------------------------------------|


E|-----------------------------------------------|-----------------------------------------------|
B|-----------------------------------------------|-----------------------------------------------|
G|-----------------------------------------------|-----------------------------------------------|
D|-11--------------------------------------------|-8---------------------------------------------|
A|-11--------------------------------------------|-8---------------------------------------------|
E|-9---9--9--9--9--9--9--9--9--9--9--9--9--9--9--|-6---6--6--6--6--6--6--6--6--6--6--6--6--6--6--|
A|-----------------------------------------------|-----------------------------------------------|


E|-----------------------------------------------|---------------------------------|
B|-----------------------------------------------|---------------------------------|
G|-----------------------------------------------|---------------------------------|
D|-10--------------------------------------------|---------------------------------|
A|-10--------------------------------------------|---------------------------------|
E|-8---8--8--8--8--8--8--8--8--8--8--8--8--8--8--|-8---8---8---8---8---8---6---4---|
A|-----------------------------------------------|---------------------------------|


E|-----------------------------------------------|-----------------------------|-----------------------------------------------|
B|-----------------------------------------------|-----------------------------|-----------------------------------------------|
G|-----------------------------------------------|-----------------------------|-----------------------------------------------|
D|-----------------------------------------------|------6----8---9----10---13--|-----------------------------------------------|
A|-8---------------------------------------------|-8----6----8---9----10---13--|-8---------------------------------------------|
E|-8---------------------------------------------|-8----4----6---7----8----11--|-8---------------------------------------------|
A|-8---8--8--8--8--8--8--8--8--8--8--8--8--8--8--|-8---------------------------|-8---8--8--8--8--8--8--8--8--8--8--8--8--8--8--|


E|-----------------------------|-----------------------------------------------|-------------------------------------------------|
B|-----------------------------|-----------------------------------------------|-------------------------------------------------|
G|-----------------------------|-----------------------------------------------|-------------------------------------------------|
D|------6----8---9----10---13--|-8---------------------------------------------|-------------------------------------------------|
A|-8----6----8---9----10---13--|-8---------------------------------------------|-------------------------------------------------|
E|-8----4----6---7----8----11--|-6---6--6--6--6--6--6--6--6--6--6--6--6--6--6--|-6--6--6--6--6--6--6--6--6--6--6--6--6--6--6--6--|
A|-8---------------------------|-----------------------------------------------|-------------------------------------------------|


E|-----------------------------------------------|-------------------------------------------------|
B|-----------------------------------------------|-------------------------------------------------|
G|-----------------------------------------------|-------------------------------------------------|
D|-----------------------------------------------|-------------------------------------------------|
A|-8---------------------------------------------|-------------------------------------------------|
E|-8---------------------------------------------|-------------------------------------------------|
A|-8---8--8--8--8--8--8--8--8--8--8--8--8--8--8--|-8--8--8--8--8--8--8--8--8--8--8--8--8--8--8--8--|


E|-----------------------------------------------|-------------------------------------------------|
B|-----------------------------------------------|-------------------------------------------------|
G|-----------------------------------------------|-------------------------------------------------|
D|-10--------------------------------------------|-------------------------------------------------|
A|-10--------------------------------------------|-------------------------------------------------|
E|-8---8--8--8--8--8--8--8--8--8--8--8--8--8--8--|-8--8--8--8--8--8--8--8--8--8--8--8--8--8--8--8--|
A|-----------------------------------------------|-------------------------------------------------|


E|-----------------------------------------------|-------------------------------------------------|
B|-----------------------------------------------|-------------------------------------------------|
G|-----------------------------------------------|-------------------------------------------------|
D|-8---------------------------------------------|-------------------------------------------------|
A|-8---------------------------------------------|-------------------------------------------------|
E|-6---6--6--6--6--6--6--6--6--6--6--6--6--6--6--|-6--6--6--6--6--6--6--6--6--6--6--6--6--6--6--6--|
A|-----------------------------------------------|-------------------------------------------------|


E|-----------------------------------------------|-----------------------------|-----------------------------------------------|
B|-----------------------------------------------|-----------------------------|-----------------------------------------------|
G|-----------------------------------------------|-----------------------------|-----------------------------------------------|
D|-----------------------------------------------|------6----8---9----10---13--|-----------------------------------------------|
A|-8---------------------------------------------|-8----6----8---9----10---13--|-8---------------------------------------------|
E|-8---------------------------------------------|-8----4----6---7----8----11--|-8---------------------------------------------|
A|-8---8--8--8--8--8--8--8--8--8--8--8--8--8--8--|-8---------------------------|-8---8--8--8--8--8--8--8--8--8--8--8--8--8--8--|


E|-----------------------------|--------|--------|--------|--------|--------|--------|
B|-----------------------------|--------|--------|--------|--------|--------|--------|
G|-----------------------------|--------|--------|--------|--------|--------|--------|
D|------6----8---9----10---13--|--------|--------|-11-----|-11-----|-12-----|-12-----|
A|-8----6----8---9----10---13--|-8------|-8------|-11-----|-11-----|-12-----|-12-----|
E|-8----4----6---7----8----11--|-8------|-8------|-9------|-9------|-10-----|-10-----|
A|-8---------------------------|-8------|-8------|--------|--------|--------|--------|


E|--------|--------|-----------------------------------------------|-------------------------------------------------|
B|--------|--------|-----------------------------------------------|-------------------------------------------------|
G|--------|--------|-----------------------------------------------|-------------------------------------------------|
D|-13-----|-13-----|-----------------------------------------------|-------------------------------------------------|
A|-13-----|-13-----|-8---------------------------------------------|-------------------------------------------------|
E|-11-----|-11-----|-8---------------------------------------------|-------------------------------------------------|
A|--------|--------|-8---8--8--8--8--8--8--8--8--8--8--8--8--8--8--|-8--8--8--8--8--8--8--8--8--8--8--8--8--8--8--8--|


E|-----------------------------------------------|-------------------------------------------------|
B|-----------------------------------------------|-------------------------------------------------|
G|-----------------------------------------------|-------------------------------------------------|
D|-11--------------------------------------------|-------------------------------------------------|
A|-11--------------------------------------------|-------------------------------------------------|
E|-9---9--9--9--9--9--9--9--9--9--9--9--9--9--9--|-9--9--9--9--9--9--9--9--9--9--9--9--9--9--9--9--|
A|-----------------------------------------------|-------------------------------------------------|


E|-----------------------------------------------|-------------------------------------------------|
B|-----------------------------------------------|-------------------------------------------------|
G|-----------------------------------------------|-------------------------------------------------|
D|-8---------------------------------------------|-------------------------------------------------|
A|-8---------------------------------------------|-------------------------------------------------|
E|-6---6--6--6--6--6--6--6--6--6--6--6--6--6--6--|-6--6--6--6--6--6--6--6--6--6--6--6--6--6--6--6--|
A|-----------------------------------------------|-------------------------------------------------|


E|-------------|-------------|-----------------------------------------------|-----------------------------------------------|
B|-------------|-------------|-----------------------------------------------|-----------------------------------------------|
G|-------------|-------------|-----------------------------------------------|-----------------------------------------------|
D|-10----8-----|-6-----------|-----------------------------------------------|-13--------------------------------------------|
A|-10----8-----|-6-----10----|-8---------------------------------------------|-13--------------------------------------------|
E|-8-----6-----|-4-----10----|-8---------------------------------------------|-11--11-11-11-11-11-11-11-11-11-11-11-11-11-11-|
A|-------------|-------10----|-8---8--8--8--8--8--8--8--8--8--8--8--8--8--8--|-----------------------------------------------|


E|-----------------------------------------------|-----------------------------------------------|
B|-----------------------------------------------|-----------------------------------------------|
G|-----------------------------------------------|-----------------------------------------------|
D|-11--------------------------------------------|-10--------------------------------------------|
A|-11--------------------------------------------|-10--------------------------------------------|
E|-9---9--9--9--9--9--9--9--9--9--9--9--9--9--9--|-8---8--8--8--8--8--8--8--8--8--8--8--8--8--8--|
A|-----------------------------------------------|-----------------------------------------------|


E|-----------------------------------------------|-----------------------------------------------|
B|-----------------------------------------------|-----------------------------------------------|
G|-----------------------------------------------|-----------------------------------------------|
D|-----------------------------------------------|-13--------------------------------------------|
A|-8---------------------------------------------|-13--------------------------------------------|
E|-8---------------------------------------------|-11--11-11-11-11-11-11-11-11-11-11-11-11-11-11-|
A|-8---8--8--8--8--8--8--8--8--8--8--8--8--8--8--|-----------------------------------------------|


E|-----------------------------------------------|-----------------------------------------------|
B|-----------------------------------------------|-----------------------------------------------|
G|-----------------------------------------------|-----------------------------------------------|
D|-11--------------------------------------------|-10--------------------------------------------|
A|-11--------------------------------------------|-10--------------------------------------------|
E|-9---9--9--9--9--9--9--9--9--9--9--9--9--9--9--|-8---8--8--8--8--8--8--8--8--8--8--8--8--8--8--|
A|-----------------------------------------------|-----------------------------------------------|


E|-------------------------------------------|-----------------------------------------|
B|-------------------------------------------|-----------------------------------------|
G|-------------------------------------------|-----------------------------------------|
D|-------------------------------------------|-11--13--------------13--------13--------|
A|-8---------------8---------8---------------|-11--13--------------13--------13--------|
E|-8---------------8---------8---------------|-9---11--11-11-11-11-11--11-11-11--11-11-|
A|-8---8--8--8--8--8---8--8--8---8--8--8--8--|-----------------------------------------|


E|-------------------------------------------|-----------------------------------------|
B|-------------------------------------------|-----------------------------------------|
G|-------------------------------------------|-----------------------------------------|
D|-------------------------------------------|-11--13--------------13--------13--------|
A|-8---------------8---------8---------------|-11--13--------------13--------13--------|
E|-8---------------8---------8---------------|-9---11--11-11-11-11-11--11-11-11--11-11-|
A|-8---8--8--8--8--8---8--8--8---8--8--8--8--|-----------------------------------------|


E|-------------|--------|-------------------------------------------|-----------------------------------------|
B|-------------|--------|-------------------------------------------|-----------------------------------------|
G|-------------|--------|-------------------------------------------|-----------------------------------------|
D|-11----8-----|-10-----|-------------------------------------------|-11--13--------------13--------13--------|
A|-11----8-----|-10-----|-8---------------8---------8---------------|-11--13--------------13--------13--------|
E|-9-----6-----|-8------|-8---------------8---------8---------------|-9---11--11-11-11-11-11--11-11-11--11-11-|
A|-------------|--------|-8---8--8--8--8--8---8--8--8---8--8--8--8--|-----------------------------------------|


E|-------------------------------------------|-----------------------------------------|
B|-------------------------------------------|-----------------------------------------|
G|-------------------------------------------|-----------------------------------------|
D|-------------------------------------------|-11--13--------------13--------13--------|
A|-8---------------8---------8---------------|-11--13--------------13--------13--------|
E|-8---------------8---------8---------------|-9---11--11-11-11-11-11--11-11-11--11-11-|
A|-8---8--8--8--8--8---8--8--8---8--8--8--8--|-----------------------------------------|


E|-------------|---------------------|---------------------------|-----------------------------------|
B|-------------|---------------------|---------------------------|-----------------------------------|
G|-------------|---------------------|---------------------------|-----------------------------------|
D|-11----8-----|-10---8----6----5----|---------------------------|-------------13---------------8----|
A|-11----8-----|-10---8----6----5----|-8---------8---------8-----|-------------13---------------8----|
E|-9-----6-----|-8----6----4----3----|-8---------8---------8-----|-11-11-11-11-11---6--6--6--6--6----|
A|-------------|---------------------|-8---8--8--8---8--8--8-----|-----------------------------------|


E|---------------------------|-----------------------------------|---------------------------|
B|---------------------------|-----------------------------------|---------------------------|
G|---------------------------|-----------------------------------|---------------------------|
D|---------------------------|-------------11---------------6----|---------------------------|
A|-8---------8---------8-----|-------------11---------------6----|-8---------8---------8-----|
E|-8---------8---------8-----|-9--9--9--9--9----4--4--4--4--4----|-8---------8---------8-----|
A|-8---8--8--8---8--8--8-----|-----------------------------------|-8---8--8--8---8--8--8-----|


E|-----------------------------------|---------------------------|-----------------------------------|
B|-----------------------------------|---------------------------|-----------------------------------|
G|-----------------------------------|---------------------------|-----------------------------------|
D|-------------13---------------8----|---------------------------|-------------11---------------6----|
A|-------------13---------------8----|-8---------8---------8-----|-------------11---------------6----|
E|-11-11-11-11-11---6--6--6--6--6----|-8---------8---------8-----|-9--9--9--9--9----4--4--4--4--4----|
A|-----------------------------------|-8---8--8--8---8--8--8-----|-----------------------------------|


E|--------|--------|-------------|-------------|--------|----------------------|--------|
B|--------|--------|-------------|-------------|--------|----------------------|--------|
G|--------|--------|-------------|-------------|--------|----------------------|--------|
D|--------|--------|-------------|-6-----------|--------|----------------------|--------|
A|-8------|-8------|-8------8----|-6-----6-----|-8------|----4-----------------|--------|
E|-8------|-8------|-8------8----|-4-----6-----|-8------|----4-----------------|--------|
A|-8------|-8------|-8------8----|-------6-----|-8------|-6--------------------|--------|


E|--------|--------|--------|--------|--------|----------------------------------|
B|--------|--------|--------|--------|--------|----------------------------------|
G|--------|--------|--------|--------|--------|----------------------------------|
D|--------|-11-----|-8------|-10-----|-10-----|----------------------------------|
A|--------|-11-----|-8------|-10-----|-10-----|-8--------------------------------|
E|--------|-9------|-6------|-8------|-8------|-8--------------------------------|
A|--------|--------|--------|--------|--------|-8----8---8---8--8--8--8--8---8---|


E|----------------------------------|----------------------------------|-------------|
B|----------------------------------|----------------------------------|-------------|
G|----------------------------------|----------------------------------|-------------|
D|-11-------------------------------|-10-------------------------------|-6-----------|
A|-11-------------------------------|-10-------------------------------|-6-----6-----|
E|-9----9---9---9--9--9--9--9---9---|-8----8---8---8--8--8--8--8---8---|-4-----6-----|
A|----------------------------------|----------------------------------|-------6-----|


E|----------------------------------|----------------------------------|----------------------------------|
B|----------------------------------|----------------------------------|----------------------------------|
G|----------------------------------|----------------------------------|----------------------------------|
D|----------------------------------|-9--------------------------------|-10-------------------------------|
A|-8--------------------------------|-9--------------------------------|-10-------------------------------|
E|-8--------------------------------|-7----7---7---7--7--7--7--7---7---|-8----8---8---8--8--8--8--8---8---|
A|-8----8---8---8--8--8--8--8---8---|----------------------------------|----------------------------------|


E|----------------|-----------------------------------------------|-----------------------------------------------|
B|----------------|-----------------------------------------------|-----------------------------------------------|
G|----------------|-----------------------------------------------|-----------------------------------------------|
D|-10-------------|-11--------------------------------------------|-8---------------------------------------------|
A|-10-------------|-11--------------------------------------------|-8---------------------------------------------|
E|-8------9---8---|-9---9--9--9--9--9--9--9--9--9--9--9--9--9--9--|-6---6--6--6--6--6--6--6--6--6--6--6--6--6--6--|
A|----------------|-----------------------------------------------|-----------------------------------------------|


E|-----------------------------------------------|---------------------------------------------|
B|-----------------------------------------------|---------------------------------------------|
G|-----------------------------------------------|---------------------------------------------|
D|-10--------------------------------------------|---------------------------------------------|
A|-10--------------------------------------------|---------------------------------------------|
E|-8---8--8--8--8--8--8--8--8--8--8--8--8--8--8--|-8--8--8--8--8--8--8--8--8--8--8--8--9---8---|
A|-----------------------------------------------|---------------------------------------------|


E|-----------------------------------------------|-----------------------------------------------|
B|-----------------------------------------------|-----------------------------------------------|
G|-----------------------------------------------|-----------------------------------------------|
D|-11--------------------------------------------|-8---------------------------------------------|
A|-11--------------------------------------------|-8---------------------------------------------|
E|-9---9--9--9--9--9--9--9--9--9--9--9--9--9--9--|-6---6--6--6--6--6--6--6--6--6--6--6--6--6--6--|
A|-----------------------------------------------|-----------------------------------------------|


E|-----------------------------------------------|---------------------------------|
B|-----------------------------------------------|---------------------------------|
G|-----------------------------------------------|---------------------------------|
D|-10--------------------------------------------|---------------------------------|
A|-10--------------------------------------------|---------------------------------|
E|-8---8--8--8--8--8--8--8--8--8--8--8--8--8--8--|-8---8---8---8---8---8---6---4---|
A|-----------------------------------------------|---------------------------------|


E|-----------------------------------------------|--------------------------------------|
B|-----------------------------------------------|--------------------------------------|
G|-----------------------------------------------|--------------------------------------|
D|-----------------------------------------------|--------------------------------------|
A|-8---------------------------------------------|-----------------------------6---6----|
E|-8---------------------------------------------|-----------------------------6---6----|
A|-8---8--8--8--8--8--8--8--8--8--8--8--8--8--8--|-8--8--8--8--8--8--8--8--8---6---6----|


E|-----------------------------------------------|--------------------------------------|
B|-----------------------------------------------|--------------------------------------|
G|-----------------------------------------------|--------------------------------------|
D|-----------------------------------------------|-----------------------------6---6----|
A|-8---------------------------------------------|-----------------------------6---6----|
E|-8---------------------------------------------|-----------------------------4---4----|
A|-8---8--8--8--8--8--8--8--8--8--8--8--8--8--8--|-8--8--8--8--8--8--8--8--8------------|


E|-----------------------------------------------|--------------------------------------|
B|-----------------------------------------------|--------------------------------------|
G|-----------------------------------------------|--------------------------------------|
D|-----------------------------------------------|--------------------------------------|
A|-8---------------------------------------------|-----------------------------6---6----|
E|-8---------------------------------------------|-----------------------------6---6----|
A|-8---8--8--8--8--8--8--8--8--8--8--8--8--8--8--|-8--8--8--8--8--8--8--8--8---6---6----|


E|-------------|-------------|-----------------|
B|-------------|-------------|-----------------|
G|-------------|-------------|-----------------|
D|-------10----|-6-----8-----|-----------------|
A|-8-----10----|-6-----8-----|-8---------------|
E|-8-----8-----|-4-----6-----|-8---------------|
A|-8-----------|-------------|-8---------------|





Track 2: Lead Guitar

E|--------|--------|--------|--------|--------|--------|-------------|-------------|
B|--------|--------|--------|--------|--------|--------|-------------|-------------|
G|--------|--------|--------|--------|--------|--------|-10----------|-------------|
D|--------|--------|--------|--------|--------|--------|-10----10----|-6-----9-----|
A|--------|--------|--------|--------|--------|--------|-8-----10----|-6-----9-----|
E|--------|--------|--------|--------|--------|--------|-------8-----|-4-----7-----|
A|--------|--------|--------|--------|--------|--------|-------------|-------------|


E|-------------------------------------|---------------------------------------|---------------------------------------|
B|-------------------------------------|---------------------------------------|---------------------------------------|
G|-------------------------------------|---------------------------------------|---------------------------------------|
D|-15--15--15------------------15--15--|-15------------------15------15--------|-15--15--15--------------------15--15--|
A|-15--16--15------------------15--16--|-15------------------15------15--------|-15--16--15--------------------15--16--|
E|-13--13--13---13-13-13-13-13-13--13--|-13--13--13-13-13-13-13--13--13--13-13-|-13--13--13--13-13-13-13-13-13-13--13--|
A|-------------------------------------|---------------------------------------|---------------------------------------|


E|-----------------------------------------|-------------|-------------|--------|--------|
B|-----------------------------------------|-------------|-------------|--------|--------|
G|-----------------------------------------|-10----------|-------------|--------|--------|
D|-15--------------------15------15--------|-10----10----|-6-----9-----|--------|--------|
A|-15--------------------15------15--------|-8-----10----|-6-----9-----|--------|--------|
E|-13--13-13-13-13-13-13-13--13--13--13-13-|-------8-----|-4-----7-----|--------|--------|
A|-----------------------------------------|-------------|-------------|--------|--------|


E|--------|--------|--------|--------|--------|--------|--------|--------|--------|
B|--------|--------|--------|--------|--------|--------|--------|--------|--------|
G|--------|--------|--------|--------|--------|--------|--------|--------|--------|
D|--------|--------|--------|--------|--------|--------|--------|--------|--------|
A|--------|--------|--------|--------|--------|--------|--------|--------|--------|
E|--------|--------|--------|--------|--------|--------|--------|--------|--------|
A|--------|--------|--------|--------|--------|--------|--------|--------|--------|


E|--------|--------|--------|-13-----|-13-----|-13-----|--------|--------|--------|
B|--------|--------|--------|--------|--------|--------|--------|--------|--------|
G|--------|--------|--------|--------|--------|--------|--------|--------|--------|
D|--------|--------|--------|--------|--------|--------|--------|--------|--------|
A|--------|--------|--------|--------|--------|--------|--------|--------|--------|
E|--------|--------|--------|--------|--------|--------|--------|--------|--------|
A|--------|--------|--------|--------|--------|--------|--------|--------|--------|


E|--------|---------------------|--------|--------|--------|--------|--------|--------|
B|--------|---------------------|--------|--------|--------|--------|--------|--------|
G|--------|---------------------|--------|--------|--------|--------|--------|--------|
D|--------|-15---14-------------|--------|--------|--------|--------|--------|--------|
A|--------|-----------15--------|--------|--------|--------|--------|--------|--------|
E|--------|----------------16---|--------|--------|--------|--------|--------|--------|
A|--------|---------------------|--------|--------|--------|--------|--------|--------|


E|-------------|-------------|--------|--------|--------|--------|--------|--------|
B|-------------|-------------|--------|--------|--------|--------|--------|--------|
G|-10----------|-------------|--------|--------|--------|--------|--------|--------|
D|-10----10----|-6-----8-----|--------|--------|--------|--------|--------|--------|
A|-8-----10----|-6-----8-----|--------|--------|--------|--------|--------|--------|
E|-------8-----|-4-----6-----|--------|--------|--------|--------|--------|--------|
A|-------------|-------------|--------|--------|--------|--------|--------|--------|


E|-------------|-------------|--------|--------|--------|--------|--------|--------|
B|-------------|-------------|--------|--------|--------|--------|--------|--------|
G|-10----------|-------------|--------|--------|--------|--------|--------|--------|
D|-10----10----|-6-----8-----|--------|--------|--------|--------|--------|--------|
A|-8-----10----|-6-----8-----|--------|--------|--------|--------|--------|--------|
E|-------8-----|-4-----6-----|--------|--------|--------|--------|--------|--------|
A|-------------|-------------|--------|--------|--------|--------|--------|--------|


E|--------|---------------------------------|--------|-------------|-------------|
B|--------|-2---1-------1---1---------------|--------|-2-----4-----|-------5-----|
G|--------|---------3-----------3---1---0---|-1------|-------------|-5-----------|
D|--------|---------------------------------|--------|-------------|-------------|
A|--------|---------------------------------|--------|-------------|-------------|
E|--------|---------------------------------|--------|-------------|-------------|
A|--------|---------------------------------|--------|-------------|-------------|


E|-------------|--------|--------|--------|--------|--------|--------|--------|------------9---8---|
B|-6-----8-----|--------|--------|--------|--------|--------|--------|--------|--------------------|
G|-------------|--------|--------|--------|--------|--------|--------|--------|--------------------|
D|-------------|--------|--------|--------|--------|--------|--------|--------|--------------------|
A|-------------|--------|--------|--------|--------|--------|--------|--------|--------------------|
E|-------------|--------|--------|--------|--------|--------|--------|--------|--------------------|
A|-------------|--------|--------|--------|--------|--------|--------|--------|--------------------|


E|-9------|--------|--------|----------------|--------|--------|--------|--------|
B|--------|-11-----|-13-----|-13-----14--13--|-14-----|--------|--------|--------|
G|--------|--------|--------|----------------|--------|-15-----|-15-----|-15-----|
D|--------|--------|--------|----------------|--------|--------|--------|--------|
A|--------|--------|--------|----------------|--------|--------|--------|--------|
E|--------|--------|--------|----------------|--------|--------|--------|--------|
A|--------|--------|--------|----------------|--------|--------|--------|--------|


E|-------------------------------------|---------------------------------------|---------------------------------------|
B|-------------------------------------|---------------------------------------|---------------------------------------|
G|-------------------------------------|---------------------------------------|---------------------------------------|
D|-15--15--15------------------15--15--|-15------------------15------15--------|-15--15--15--------------------15--15--|
A|-15--16--15------------------15--16--|-15------------------15------15--------|-15--16--15--------------------15--16--|
E|-13--13--13---13-13-13-13-13-13--13--|-13--13--13-13-13-13-13--13--13--13-13-|-13--13--13--13-13-13-13-13-13-13--13--|
A|-------------------------------------|---------------------------------------|---------------------------------------|


E|-----------------------------------------|-------------|-------------|-------------------------|
B|-----------------------------------------|-------------|-------------|-------4-----------------|
G|-----------------------------------------|-------5-----|-------------|-5--------5--------------|
D|-15--------------------15------15--------|-15----5-----|-6-----8-----|-------------6---5---6---|
A|-15--------------------15------15--------|-15----3-----|-6-----8-----|-------------------------|
E|-13--13-13-13-13-13-13-13--13--13--13-13-|-13----------|-4-----6-----|-------------------------|
A|-----------------------------------------|-------------|-------------|-------------------------|


E|---------------------|-----------------|--------|-------------------------|---------------------|
B|------4----3----6----|-4-----6-----4---|--------|-------4-----------------|------4----3----6----|
G|---------------------|-----------------|-6------|-5--------5--------------|---------------------|
D|-5-------------------|-----------------|--------|-------------6---5---6---|-5-------------------|
A|---------------------|-----------------|--------|-------------------------|---------------------|
E|---------------------|-----------------|--------|-------------------------|---------------------|
A|---------------------|-----------------|--------|-------------------------|---------------------|


E|-----------------------|-----------------------------------|------------------------------------------|
B|-4-----8----6--6---4---|-6----8--8---9---9--8---6--6---4---|-6----------------------------------------|
G|-----------------------|-----------------------------------|------------------------------------------|
D|-----------------------|-----------------------------------|------------------------------------------|
A|-----------------------|-----------------------------------|------8--8--8--8--10-10-10-10-11-11-11-11-|
E|-----------------------|-----------------------------------|------------------------------------------|
A|-----------------------|-----------------------------------|------------------------------------------|


E|-------------------------------------------------|-------------------------------------------------|
B|-------------------------------------------------|-------------------------------------------------|
G|-------------------------------------------------|-------------------------------------------------|
D|-------------------------------------------------|-------------------------------------------------|
A|-13-13-13-13-11-11-11-11-10-10-10-10-11-11-11-11-|-10-10-10-10-8--8--8--8--7--7--7--7--8--8--8--8--|
E|-------------------------------------------------|-------------------------------------------------|
A|-------------------------------------------------|-------------------------------------------------|


E|-------------------------------------------------|-------------------------------------------------|
B|-------------------------------------------------|-------------------------------------------------|
G|-------------------------------------------------|-------------------------------------------------|
D|-------------------------------------------------|-------------------------------------------------|
A|-7--7--7--7--------------------------------------|-8--8--8--8--8--8--8--8--10-10-10-10-11-11-11-11-|
E|-------------9--9--9--9--8--8--8--8--6--6--6--6--|-------------------------------------------------|
A|-------------------------------------------------|-------------------------------------------------|


E|-------------------------------------------------|-------------------------------------------------|
B|-------------------------------------------------|-------------------------------------------------|
G|-------------------------------------------------|-------------------------------------------------|
D|-------------------------------------------------|-------------------------------------------------|
A|-13-13-13-13-11-11-11-11-10-10-10-10-11-11-11-11-|-10-10-10-10-8--8--8--8--7--7--7--7--8--8--8--8--|
E|-------------------------------------------------|-------------------------------------------------|
A|-------------------------------------------------|-------------------------------------------------|


E|------------------------|--------|--------|--------|--------|--------|--------|------4----4----3----|
B|------------------------|--------|--------|--------|--------|--------|--------|---------------------|
G|-------------6----5-----|--------|--------|--------|--------|--------|--------|---------------------|
D|------------------------|--------|--------|--------|--------|--------|--------|---------------------|
A|-7--7--7--7-------------|--------|--------|--------|--------|--------|--------|---------------------|
E|------------------------|--------|--------|--------|--------|--------|--------|---------------------|
A|------------------------|--------|--------|--------|--------|--------|--------|---------------------|


E|-3----1----1---------|------------------------|------4---4---4----4----|-4----8---8---8-----|
B|----------------4----|-6----6---6---6----6----|-6----------------------|--------------------|
G|---------------------|------------------------|------------------------|--------------------|
D|---------------------|------------------------|------------------------|--------------------|
A|---------------------|------------------------|------------------------|--------------------|
E|---------------------|------------------------|------------------------|--------------------|
A|---------------------|------------------------|------------------------|--------------------|


E|-8------|--------|--------|--------|--------|---------------------|-----------------|
B|--------|--------|--------|--------|--------|---------------------|-------6----8----|
G|--------|--------|--------|--------|--------|----------------8----|-8---------------|
D|--------|--------|--------|--------|--------|-8-----8---6---------|-----------------|
A|--------|--------|--------|--------|--------|---------------------|-----------------|
E|--------|--------|--------|--------|--------|---------------------|-----------------|
A|--------|--------|--------|--------|--------|---------------------|-----------------|


E|-------6---6---------|---------------------|--------|-------------|--------|--------|
B|-9---------------9---|-9----8----6---------|--------|-------------|--------|--------|
G|---------------------|----------------8----|--------|-------8-----|-5------|-5------|
D|---------------------|---------------------|-8------|-8-----------|--------|--------|
A|---------------------|---------------------|--------|-------------|--------|--------|
E|---------------------|---------------------|--------|-------------|--------|--------|
A|---------------------|---------------------|--------|-------------|--------|--------|


E|--------|--------|--------|--------|--------|---------------------------------|--------|
B|--------|--------|--------|--------|--------|-2---1-------1---1---------------|--------|
G|--------|--------|--------|--------|--------|---------3-----------3---1---0---|--------|
D|--------|--------|--------|--------|--------|---------------------------------|--------|
A|--------|--------|--------|--------|--------|---------------------------------|--------|
E|--------|--------|--------|--------|--------|---------------------------------|--------|
A|--------|--------|--------|--------|--------|---------------------------------|--------|


E|--------|-------------|-------------|--------|--------|--------|--------|--------|
B|--------|-------5-----|-6-----8-----|--------|--------|--------|--------|--------|
G|--------|-5-----------|-------------|--------|--------|--------|--------|--------|
D|--------|-------------|-------------|--------|--------|--------|--------|--------|
A|--------|-------------|-------------|--------|--------|--------|--------|--------|
E|--------|-------------|-------------|--------|--------|--------|--------|--------|
A|--------|-------------|-------------|--------|--------|--------|--------|--------|


E|--------|--------|------------9---8---|-9------|--------|--------|----------------|
B|--------|--------|--------------------|--------|-11-----|-13-----|-13-----14--13--|
G|--------|--------|--------------------|--------|--------|--------|----------------|
D|--------|--------|--------------------|--------|--------|--------|----------------|
A|--------|--------|--------------------|--------|--------|--------|----------------|
E|--------|--------|--------------------|--------|--------|--------|----------------|
A|--------|--------|--------------------|--------|--------|--------|----------------|


E|--------|--------|--------|--------|-----------------------------------|---------------------------------|
B|-14-----|--------|--------|--------|-----------------------------------|-----------11--12---11-12-11-9---|
G|--------|-15-----|-15-----|-15-----|-----------------------------------|------13-------------------------|
D|--------|--------|--------|--------|-15---13-15-13-----------------13--|-15------------------------------|
A|--------|--------|--------|--------|---------------15--14---15-15------|---------------------------------|
E|--------|--------|--------|--------|-----------------------------------|---------------------------------|
A|--------|--------|--------|--------|-----------------------------------|---------------------------------|


E|---------------------6--4------7--6--4---|-11---13---11-------11---13--|-13-13-13-13-13-13-13-13-15---13--15---|
B|---------------------------6-------------|---------------13------------|---------------------------------------|
G|-10-8------13-10-------------------------|-----------------------------|---------------------------------------|
D|-------10--------13----------------------|-----------------------------|---------------------------------------|
A|-----------------------------------------|-----------------------------|---------------------------------------|
E|-----------------------------------------|-----------------------------|---------------------------------------|
A|-----------------------------------------|-----------------------------|---------------------------------------|


E|-16---15---16--18---16---18--|-18----18-16-------|--------|-------------------------------------------------|
B|-----------------------------|-------------18----|-18-----|-13------11------9-------11------9-------8-------|
G|-----------------------------|-------------------|--------|-------------------------------------------------|
D|-----------------------------|-------------------|--------|-----8-------8-------8-------8-------8-------8---|
A|-----------------------------|-------------------|--------|-------------------------------------------------|
E|-----------------------------|-------------------|--------|-------------------------------------------------|
A|-----------------------------|-------------------|--------|-------------------------------------------------|


E|-------------------------------------------------|-----------------------------------------|
B|-9-------8-------9-------11------9-------8-------|-----------------------------------------|
G|-------------------------------------------------|-10-8------13-10-----15-13-----16-15-13--|
D|-----8-------8-------8-------8-------8-------8---|-------10--------13--------15------------|
A|-------------------------------------------------|-----------------------------------------|
E|-------------------------------------------------|-----------------------------------------|
A|-------------------------------------------------|-----------------------------------------|


E|---------------------------------|--------|---------------------------------|--------|
B|-----------11--12---11-12-11-----|--------|-----------11--12---11-12-11-----|--------|
G|-10---13---------------------13--|--------|-10---13---------------------13--|-14-----|
D|---------------------------------|-13-----|---------------------------------|--------|
A|---------------------------------|--------|---------------------------------|--------|
E|---------------------------------|--------|---------------------------------|--------|
A|---------------------------------|--------|---------------------------------|--------|


E|---------------------------------|---------------------|-----------------------------------|
B|-----------11--12---11-12-11-----|---------------------|-----------------------------------|
G|-10---13---------------------13--|-10---12--12---10----|-10------10--12--13---12-13-12-10--|
D|---------------------------------|---------------------|-----10----------------------------|
A|---------------------------------|---------------------|-----------------------------------|
E|---------------------------------|---------------------|-----------------------------------|
A|---------------------------------|---------------------|-----------------------------------|


E|-----------------|---------------------|-------------------------------------------------|
B|-----------------|---------------------|-------------------------------------------------|
G|-13----13---10---|-10---15---15---15---|-12--13--10--12--8---10--------------------------|
D|-----------------|---------------------|-------------------------11--13--10--11------10--|
A|-----------------|---------------------|-----------------------------------------13------|
E|-----------------|---------------------|-------------------------------------------------|
A|-----------------|---------------------|-------------------------------------------------|


E|-------------------------------------------------|---------------------------------|
B|-------------------------------------------------|---------------------------------|
G|-------------------------------------------------|---------------------------------|
D|-------------------------------------------------|---------------------------------|
A|-11--13--10--11------10------8-------------------|------8----10--11---10-11-10-8---|
E|-----------------13------11------9---11--8---9---|-11------------------------------|
A|-------------------------------------------------|---------------------------------|


E|--------|---------------------------------|--------|---------------------------------|
B|--------|------6----8---9----8--9--8--6---|--------|------6----8---9----8--9--8--6---|
G|--------|---------------------------------|-4------|---------------------------------|
D|--------|-10------------------------------|--------|-9-------------------------------|
A|-6------|---------------------------------|--------|---------------------------------|
E|--------|---------------------------------|--------|---------------------------------|
A|--------|---------------------------------|--------|---------------------------------|


E|--------|---------------------------------|----------------------|-------------|
B|--------|------6----8---9----8--9--8--6---|-------11---9----11---|-11----11----|
G|--------|---------------------------------|----------------------|-------------|
D|-8------|-8-------------------------------|-6--------------------|-------------|
A|--------|---------------------------------|----------------------|-------------|
E|--------|---------------------------------|----------------------|-------------|
A|--------|---------------------------------|----------------------|-------------|


E|-------------|------------------------|---------------------|-------------|---------------------|
B|-9-----8-----|-6---8----9----11---11--|-11---11--9----8-----|-8-----------|-11--11---9----8-----|
G|-------------|------------------------|---------------------|-------10----|---------------------|
D|-------------|------------------------|---------------------|-------------|---------------------|
A|-------------|------------------------|---------------------|-------------|---------------------|
E|-------------|------------------------|---------------------|-------------|---------------------|
A|-------------|------------------------|---------------------|-------------|---------------------|


E|------------------------|---------------------|----------------|-------------|--------|
B|-9---8----9----11---11--|-11---11--9----11----|-9------11--9---|-8-----------|--------|
G|------------------------|---------------------|----------------|-------9-----|--------|
D|------------------------|---------------------|----------------|-------------|--------|
A|------------------------|---------------------|----------------|-------------|--------|
E|------------------------|---------------------|----------------|-------------|--------|
A|------------------------|---------------------|----------------|-------------|--------|


E|--------|--------|--------|--------|--------|--------|--------|--------|--------|
B|--------|--------|--------|--------|--------|--------|--------|--------|--------|
G|--------|--------|--------|--------|--------|--------|--------|--------|--------|
D|--------|--------|--------|--------|--------|--------|--------|--------|--------|
A|--------|--------|--------|--------|--------|--------|--------|--------|--------|
E|--------|--------|--------|--------|--------|--------|--------|--------|--------|
A|--------|--------|--------|--------|--------|--------|--------|--------|--------|


E|--------|--------|--------|--------|--------|--------|--------|--------|--------|
B|--------|--------|--------|--------|--------|--------|--------|--------|--------|
G|--------|--------|--------|--------|--------|--------|--------|--------|--------|
D|--------|--------|--------|--------|--------|--------|--------|--------|--------|
A|--------|--------|--------|--------|--------|--------|--------|--------|--------|
E|--------|--------|--------|--------|--------|--------|--------|--------|--------|
A|--------|--------|--------|--------|--------|--------|--------|--------|--------|


E|--------|--------|--------|--------|--------|--------|--------|--------|------------------------------|
B|--------|--------|--------|--------|--------|--------|--------|--------|-2---1-------1----------------|
G|--------|--------|--------|--------|--------|--------|--------|--------|---------3--------3---1---0---|
D|--------|--------|--------|--------|--------|--------|--------|--------|------------------------------|
A|--------|--------|--------|--------|--------|--------|--------|--------|------------------------------|
E|--------|--------|--------|--------|--------|--------|--------|--------|------------------------------|
A|--------|--------|--------|--------|--------|--------|--------|--------|------------------------------|


E|--------|-------------|-------------|-------------|--------|--------|--------|--------|
B|--------|-2-----4-----|-------5-----|-6-----8-----|--------|--------|--------|--------|
G|-1------|-------------|-5-----------|-------------|--------|--------|--------|--------|
D|--------|-------------|-------------|-------------|--------|--------|--------|--------|
A|--------|-------------|-------------|-------------|--------|--------|--------|--------|
E|--------|-------------|-------------|-------------|--------|--------|--------|--------|
A|--------|-------------|-------------|-------------|--------|--------|--------|--------|


E|--------|--------|--------|--------------------|--------|--------|--------|----------------|
B|--------|--------|--------|------------14--13--|-14-----|--------|-13-----|-13-----14--13--|
G|--------|--------|--------|--------------------|--------|-15-----|--------|----------------|
D|--------|--------|--------|--------------------|--------|--------|--------|----------------|
A|--------|--------|--------|--------------------|--------|--------|--------|----------------|
E|--------|--------|--------|--------------------|--------|--------|--------|----------------|
A|--------|--------|--------|--------------------|--------|--------|--------|----------------|


E|--------|--------|--------|--------|-------------------------------------|-----------------------------|
B|-14-----|--------|--------|--------|-------------------------------------|-----------------------------|
G|--------|-15-----|-15-----|-15-----|-------------------------------------|-----------------------------|
D|--------|--------|--------|--------|-15--------15--15--15--------15--15--|-15--------15--15--15--------|
A|--------|--------|--------|--------|-15--------15--16--15--------15--16--|-15--------15--16--15--------|
E|--------|--------|--------|--------|-13--13-13-13--13--13--13-13-13--13--|-13--13-13-13--13--13--11----|
A|--------|--------|--------|--------|-------------------------------------|-----------------------------|


E|-------------------------------------|--------|--------|--------|--------|--------|
B|-------------------------------------|--------|--------|--------|--------|--------|
G|-------------------------------------|--------|--------|--------|--------|--------|
D|-15--------15--15--15--------15--15--|--------|--------|--------|--------|--------|
A|-15--------15--16--15--------15--16--|--------|--------|--------|--------|--------|
E|-13--13-13-13--13--13--13-13-13--13--|--------|--------|--------|--------|--------|
A|-------------------------------------|--------|--------|--------|--------|--------|


E|--------|
B|--------|
G|--------|
D|--------|
A|--------|
E|--------|
A|--------|





Track 3: Acoustic Guitar 2

E|--------|--------|--------|--------|--------|--------|--------|--------|--------|
B|--------|--------|--------|--------|--------|--------|--------|--------|--------|
G|--------|--------|--------|--------|--------|--------|--------|--------|--------|
D|--------|--------|--------|--------|--------|--------|--------|--------|--------|
A|--------|--------|--------|--------|--------|--------|--------|--------|--------|
E|--------|--------|--------|--------|--------|--------|--------|--------|--------|
A|--------|--------|--------|--------|--------|--------|--------|--------|--------|


E|--------|--------|--------|--------|--------|--------|--------|--------|--------|
B|--------|--------|--------|--------|--------|--------|--------|--------|--------|
G|--------|--------|--------|--------|--------|--------|--------|--------|--------|
D|--------|--------|--------|--------|--------|--------|--------|--------|--------|
A|--------|--------|--------|--------|--------|--------|--------|--------|--------|
E|--------|--------|--------|--------|--------|--------|--------|--------|--------|
A|--------|--------|--------|--------|--------|--------|--------|--------|--------|


E|--------|--------|--------|--------|--------|--------|--------|--------|--------|
B|--------|--------|--------|--------|--------|--------|--------|--------|--------|
G|--------|--------|--------|--------|--------|--------|--------|--------|--------|
D|--------|--------|--------|--------|--------|--------|--------|--------|--------|
A|--------|--------|--------|--------|--------|--------|--------|--------|--------|
E|--------|--------|--------|--------|--------|--------|--------|--------|--------|
A|--------|--------|--------|--------|--------|--------|--------|--------|--------|


E|--------|--------|--------|--------|--------|--------|--------|--------|--------|
B|--------|--------|--------|--------|--------|--------|--------|--------|--------|
G|--------|--------|--------|--------|--------|--------|--------|--------|--------|
D|--------|--------|--------|--------|--------|--------|--------|--------|--------|
A|--------|--------|--------|--------|--------|--------|--------|--------|--------|
E|--------|--------|--------|--------|--------|--------|--------|--------|--------|
A|--------|--------|--------|--------|--------|--------|--------|--------|--------|


E|--------|--------|--------|--------|--------|--------|--------|--------|--------|
B|--------|--------|--------|--------|--------|--------|--------|--------|--------|
G|--------|--------|--------|--------|--------|--------|--------|--------|--------|
D|--------|--------|--------|--------|--------|--------|--------|--------|--------|
A|--------|--------|--------|--------|--------|--------|--------|--------|--------|
E|--------|--------|--------|--------|--------|--------|--------|--------|--------|
A|--------|--------|--------|--------|--------|--------|--------|--------|--------|


E|--------|--------|--------|--------|--------|--------|--------|---------4---3---4-----|
B|--------|--------|--------|--------|--------|--------|--------|-----------------------|
G|--------|--------|--------|--------|--------|--------|--------|-----5-----------------|
D|--------|--------|--------|--------|--------|--------|--------|-3---------------------|
A|--------|--------|--------|--------|--------|--------|--------|-----------------------|
E|--------|--------|--------|--------|--------|--------|--------|-----------------------|
A|--------|--------|--------|--------|--------|--------|--------|-----------------------|


E|---------4---3---4-----|---------4---3---6-----|---------4---3---------|---------4---3---4-----|
B|-----------------------|-----------------------|-----------------6-----|-----------------------|
G|-----5-----------------|-----5-----------------|-----5-----------------|-----5-----------------|
D|-3---------------------|-3---------------------|-3---------------------|-3---------------------|
A|-----------------------|-----------------------|-----------------------|-----------------------|
E|-----------------------|-----------------------|-----------------------|-----------------------|
A|-----------------------|-----------------------|-----------------------|-----------------------|


E|---------3-------3-----|-------------3---------|--------|--------|--------|--------|
B|-------------6---------|---------6-------5-----|--------|--------|--------|--------|
G|-----5-----------------|-----5-----------------|--------|--------|--------|--------|
D|-3---------------------|-3---------------------|--------|--------|--------|--------|
A|-----------------------|-----------------------|--------|--------|--------|--------|
E|-----------------------|-----------------------|--------|--------|--------|--------|
A|-----------------------|-----------------------|--------|--------|--------|--------|


E|--------|--------|--------|--------|--------|--------|--------|--------|--------|
B|--------|--------|--------|--------|--------|--------|--------|--------|--------|
G|--------|--------|--------|--------|--------|--------|--------|--------|--------|
D|--------|--------|--------|--------|--------|--------|--------|--------|--------|
A|--------|--------|--------|--------|--------|--------|--------|--------|--------|
E|--------|--------|--------|--------|--------|--------|--------|--------|--------|
A|--------|--------|--------|--------|--------|--------|--------|--------|--------|


E|--------|--------|--------|--------|--------|--------|--------|--------|--------|
B|--------|--------|--------|--------|--------|--------|--------|--------|--------|
G|--------|--------|--------|--------|--------|--------|--------|--------|--------|
D|--------|--------|--------|--------|--------|--------|--------|--------|--------|
A|--------|--------|--------|--------|--------|--------|--------|--------|--------|
E|--------|--------|--------|--------|--------|--------|--------|--------|--------|
A|--------|--------|--------|--------|--------|--------|--------|--------|--------|


E|--------|--------|--------|--------|--------|--------|--------|--------|--------|
B|--------|--------|--------|--------|--------|--------|--------|--------|--------|
G|--------|--------|--------|--------|--------|--------|--------|--------|--------|
D|--------|--------|--------|--------|--------|--------|--------|--------|--------|
A|--------|--------|--------|--------|--------|--------|--------|--------|--------|
E|--------|--------|--------|--------|--------|--------|--------|--------|--------|
A|--------|--------|--------|--------|--------|--------|--------|--------|--------|


E|--------|--------|--------|--------|--------|--------|--------|--------|--------|
B|--------|--------|--------|--------|--------|--------|--------|--------|--------|
G|--------|--------|--------|--------|--------|--------|--------|--------|--------|
D|--------|--------|--------|--------|--------|--------|--------|--------|--------|
A|--------|--------|--------|--------|--------|--------|--------|--------|--------|
E|--------|--------|--------|--------|--------|--------|--------|--------|--------|
A|--------|--------|--------|--------|--------|--------|--------|--------|--------|


E|--------|--------|--------|--------|--------|--------|--------|--------|--------|
B|--------|--------|--------|--------|--------|--------|--------|--------|--------|
G|--------|--------|--------|--------|--------|--------|--------|--------|--------|
D|--------|--------|--------|--------|--------|--------|--------|--------|--------|
A|--------|--------|--------|--------|--------|--------|--------|--------|--------|
E|--------|--------|--------|--------|--------|--------|--------|--------|--------|
A|--------|--------|--------|--------|--------|--------|--------|--------|--------|


E|--------|--------|--------|--------|--------|--------|--------|--------|--------|
B|--------|--------|--------|--------|--------|--------|--------|--------|--------|
G|--------|--------|--------|--------|--------|--------|--------|--------|--------|
D|--------|--------|--------|--------|--------|--------|--------|--------|--------|
A|--------|--------|--------|--------|--------|--------|--------|--------|--------|
E|--------|--------|--------|--------|--------|--------|--------|--------|--------|
A|--------|--------|--------|--------|--------|--------|--------|--------|--------|


E|--------|--------|--------|--------|--------|--------|--------|---------4---3---4-----|
B|--------|--------|--------|--------|--------|--------|--------|-----------------------|
G|--------|--------|--------|--------|--------|--------|--------|-----5-----------------|
D|--------|--------|--------|--------|--------|--------|--------|-3---------------------|
A|--------|--------|--------|--------|--------|--------|--------|-----------------------|
E|--------|--------|--------|--------|--------|--------|--------|-----------------------|
A|--------|--------|--------|--------|--------|--------|--------|-----------------------|


E|---------4---3---4-----|---------4---3---6-----|---------4---3---------|---------4---3---4-----|
B|-----------------------|-----------------------|-----------------6-----|-----------------------|
G|-----5-----------------|-----5-----------------|-----5-----------------|-----5-----------------|
D|-3---------------------|-3---------------------|-3---------------------|-3---------------------|
A|-----------------------|-----------------------|-----------------------|-----------------------|
E|-----------------------|-----------------------|-----------------------|-----------------------|
A|-----------------------|-----------------------|-----------------------|-----------------------|


E|---------3-------3-----|-------------3---------|--------|--------|--------|--------|
B|-------------6---------|---------6-------5-----|--------|--------|--------|--------|
G|-----5-----------------|-----5-----------------|--------|--------|--------|--------|
D|-3---------------------|-3---------------------|--------|--------|--------|--------|
A|-----------------------|-----------------------|--------|--------|--------|--------|
E|-----------------------|-----------------------|--------|--------|--------|--------|
A|-----------------------|-----------------------|--------|--------|--------|--------|


E|--------|--------|--------|--------|--------|--------|--------|--------|--------|
B|--------|--------|--------|--------|--------|--------|--------|--------|--------|
G|--------|--------|--------|--------|--------|--------|--------|--------|--------|
D|--------|--------|--------|--------|--------|--------|--------|--------|--------|
A|--------|--------|--------|--------|--------|--------|--------|--------|--------|
E|--------|--------|--------|--------|--------|--------|--------|--------|--------|
A|--------|--------|--------|--------|--------|--------|--------|--------|--------|


E|--------|--------|--------|--------|--------|--------|--------|--------|--------|
B|--------|--------|--------|--------|--------|--------|--------|--------|--------|
G|--------|--------|--------|--------|--------|--------|--------|--------|--------|
D|--------|--------|--------|--------|--------|--------|--------|--------|--------|
A|--------|--------|--------|--------|--------|--------|--------|--------|--------|
E|--------|--------|--------|--------|--------|--------|--------|--------|--------|
A|--------|--------|--------|--------|--------|--------|--------|--------|--------|


E|--------|--------|--------|--------|--------|--------|--------|--------|--------|
B|--------|--------|--------|--------|--------|--------|--------|--------|--------|
G|--------|--------|--------|--------|--------|--------|--------|--------|--------|
D|--------|--------|--------|--------|--------|--------|--------|--------|--------|
A|--------|--------|--------|--------|--------|--------|--------|--------|--------|
E|--------|--------|--------|--------|--------|--------|--------|--------|--------|
A|--------|--------|--------|--------|--------|--------|--------|--------|--------|


E|--------|--------|--------|--------|--------|--------|--------|--------|--------|
B|--------|--------|--------|--------|--------|--------|--------|--------|--------|
G|--------|--------|--------|--------|--------|--------|--------|--------|--------|
D|--------|--------|--------|--------|--------|--------|--------|--------|--------|
A|--------|--------|--------|--------|--------|--------|--------|--------|--------|
E|--------|--------|--------|--------|--------|--------|--------|--------|--------|
A|--------|--------|--------|--------|--------|--------|--------|--------|--------|


E|--------|--------|--------|--------|--------|--------|--------|--------|--------|
B|--------|--------|--------|--------|--------|--------|--------|--------|--------|
G|--------|--------|--------|--------|--------|--------|--------|--------|--------|
D|--------|--------|--------|--------|--------|--------|--------|--------|--------|
A|--------|--------|--------|--------|--------|--------|--------|--------|--------|
E|--------|--------|--------|--------|--------|--------|--------|--------|--------|
A|--------|--------|--------|--------|--------|--------|--------|--------|--------|


E|--------|--------|--------|--------|--------|--------|--------|--------|--------|
B|--------|--------|--------|--------|--------|--------|--------|--------|--------|
G|--------|--------|--------|--------|--------|--------|--------|--------|--------|
D|--------|--------|--------|--------|--------|--------|--------|--------|--------|
A|--------|--------|--------|--------|--------|--------|--------|--------|--------|
E|--------|--------|--------|--------|--------|--------|--------|--------|--------|
A|--------|--------|--------|--------|--------|--------|--------|--------|--------|


E|--------|--------|--------|--------|--------|--------|--------|--------|--------|
B|--------|--------|--------|--------|--------|--------|--------|--------|--------|
G|--------|--------|--------|--------|--------|--------|--------|--------|--------|
D|--------|--------|--------|--------|--------|--------|--------|--------|--------|
A|--------|--------|--------|--------|--------|--------|--------|--------|--------|
E|--------|--------|--------|--------|--------|--------|--------|--------|--------|
A|--------|--------|--------|--------|--------|--------|--------|--------|--------|


E|--------|--------|--------|--------|--------|--------|--------|--------|--------|
B|--------|--------|--------|--------|--------|--------|--------|--------|--------|
G|--------|--------|--------|--------|--------|--------|--------|--------|--------|
D|--------|--------|--------|--------|--------|--------|--------|--------|--------|
A|--------|--------|--------|--------|--------|--------|--------|--------|--------|
E|--------|--------|--------|--------|--------|--------|--------|--------|--------|
A|--------|--------|--------|--------|--------|--------|--------|--------|--------|


E|--------|--------|--------|--------|--------|---------4---3---4-----|---------4---3---4-----|
B|--------|--------|--------|--------|--------|-----------------------|-----------------------|
G|--------|--------|--------|--------|--------|-----5-----------------|-----5-----------------|
D|--------|--------|--------|--------|--------|-3---------------------|-3---------------------|
A|--------|--------|--------|--------|--------|-----------------------|-----------------------|
E|--------|--------|--------|--------|--------|-----------------------|-----------------------|
A|--------|--------|--------|--------|--------|-----------------------|-----------------------|


E|---------4---3---6-----|---------4---3---------|---------4---3---4-----|---------3-------3-----|
B|-----------------------|-----------------6-----|-----------------------|-------------6---------|
G|-----5-----------------|-----5-----------------|-----5-----------------|-----5-----------------|
D|-3---------------------|-3---------------------|-3---------------------|-----------------------|
A|-----------------------|-----------------------|-----------------------|-8---------------------|
E|-----------------------|-----------------------|-----------------------|-----------------------|
A|-----------------------|-----------------------|-----------------------|-----------------------|


E|-------------3---------|--------|--------|--------|--------|--------|--------|--------|
B|---------6-------5-----|--------|--------|--------|--------|--------|--------|--------|
G|-----5-----------------|--------|--------|--------|--------|--------|--------|--------|
D|-3---------------------|--------|--------|--------|--------|--------|--------|--------|
A|-----------------------|--------|--------|--------|--------|--------|--------|--------|
E|-----------------------|--------|--------|--------|--------|--------|--------|--------|
A|-----------------------|--------|--------|--------|--------|--------|--------|--------|


E|--------|--------|--------|--------|--------|--------|--------|--------|--------|
B|--------|--------|--------|--------|--------|--------|--------|--------|--------|
G|--------|--------|--------|--------|--------|--------|--------|--------|--------|
D|--------|--------|--------|--------|--------|--------|--------|--------|--------|
A|--------|--------|--------|--------|--------|--------|--------|--------|--------|
E|--------|--------|--------|--------|--------|--------|--------|--------|--------|
A|--------|--------|--------|--------|--------|--------|--------|--------|--------|


E|--------|--------|--------|--------|--------|--------|--------|--------|--------|
B|--------|--------|--------|--------|--------|--------|--------|--------|--------|
G|--------|--------|--------|--------|--------|--------|--------|--------|--------|
D|--------|--------|--------|--------|--------|--------|--------|--------|--------|
A|--------|--------|--------|--------|--------|--------|--------|--------|--------|
E|--------|--------|--------|--------|--------|--------|--------|--------|--------|
A|--------|--------|--------|--------|--------|--------|--------|--------|--------|


E|--------|--------|--------|--------|--------|
B|--------|--------|--------|--------|--------|
G|--------|--------|--------|--------|--------|
D|--------|--------|--------|--------|--------|
A|--------|--------|--------|--------|--------|
E|--------|--------|--------|--------|--------|
A|--------|--------|--------|--------|--------|





Track 4: Acoustic Guitar

E|--------|--------|--------|--------|--------|--------|--------|--------|--------|
B|--------|--------|--------|--------|--------|--------|--------|--------|--------|
G|--------|--------|--------|--------|--------|--------|--------|--------|--------|
D|--------|--------|--------|--------|--------|--------|--------|--------|--------|
A|--------|--------|--------|--------|--------|--------|--------|--------|--------|
E|--------|--------|--------|--------|--------|--------|--------|--------|--------|
A|--------|--------|--------|--------|--------|--------|--------|--------|--------|


E|--------|--------|--------|--------|--------|---------------------------|--------------------|
B|--------|--------|--------|--------|--------|---------------------------|--------------------|
G|--------|--------|--------|--------|--------|-------------8---------8---|-8-------8----------|
D|--------|--------|--------|--------|--------|-----10--11------10--------|-----10-------10----|
A|--------|--------|--------|--------|--------|-8-------------------------|--------------------|
E|--------|--------|--------|--------|--------|---------------------------|--------------------|
A|--------|--------|--------|--------|--------|---------------------------|--------------------|


E|---------------------------|----------------------------|---------------------------|
B|---------------------------|----------------------------|---------------------------|
G|-----13--13------15----13--|-13---12--13--12------------|-------------8---------8---|
D|-11----------11------------|------------------15---13---|-----10--11------10--------|
A|---------------------------|----------------------------|-8-------------------------|
E|---------------------------|----------------------------|---------------------------|
A|---------------------------|----------------------------|---------------------------|


E|--------------------|---------------------------|----------------------------|---------------------------|
B|--------------------|---------------------------|----------------------------|---------------------------|
G|-8-------8----------|-----13--13------15----13--|-13---12--13--12------------|-----13--13------15----13--|
D|-----10-------10----|-11----------11------------|------------------15---13---|-11----------11------------|
A|--------------------|---------------------------|----------------------------|---------------------------|
E|--------------------|---------------------------|----------------------------|---------------------------|
A|--------------------|---------------------------|----------------------------|---------------------------|


E|----------------------------|--------|--------|--------|--------|--------|--------|
B|----------------------------|--------|--------|--------|--------|--------|--------|
G|-13---12--13--12------------|--------|--------|--------|--------|--------|--------|
D|------------------15---13---|--------|--------|--------|--------|--------|--------|
A|----------------------------|--------|--------|--------|--------|--------|--------|
E|----------------------------|--------|--------|--------|--------|--------|--------|
A|----------------------------|--------|--------|--------|--------|--------|--------|


E|--------|--------|--------|--------|--------|--------|--------|--------|--------|
B|--------|--------|--------|--------|--------|--------|--------|--------|--------|
G|--------|--------|--------|--------|--------|--------|--------|--------|--------|
D|--------|--------|--------|--------|--------|--------|--------|--------|--------|
A|--------|--------|--------|--------|--------|--------|--------|--------|--------|
E|--------|--------|--------|--------|--------|--------|--------|--------|--------|
A|--------|--------|--------|--------|--------|--------|--------|--------|--------|


E|--------|--------|--------|--------|--------|--------|--------|--------|--------|
B|--------|--------|--------|--------|--------|--------|--------|--------|--------|
G|--------|--------|--------|--------|--------|--------|--------|--------|--------|
D|--------|--------|--------|--------|--------|--------|--------|--------|--------|
A|--------|--------|--------|--------|--------|--------|--------|--------|--------|
E|--------|--------|--------|--------|--------|--------|--------|--------|--------|
A|--------|--------|--------|--------|--------|--------|--------|--------|--------|


E|--------|--------|--------|--------|--------|--------|--------|--------|--------|
B|--------|--------|--------|--------|--------|--------|--------|--------|--------|
G|--------|--------|--------|--------|--------|--------|--------|--------|--------|
D|--------|--------|--------|--------|--------|--------|--------|--------|--------|
A|--------|--------|--------|--------|--------|--------|--------|--------|--------|
E|--------|--------|--------|--------|--------|--------|--------|--------|--------|
A|--------|--------|--------|--------|--------|--------|--------|--------|--------|


E|--------|--------|--------|--------|--------|--------|--------|--------|--------|
B|--------|--------|--------|--------|--------|--------|--------|--------|--------|
G|--------|--------|--------|--------|--------|--------|--------|--------|--------|
D|--------|--------|--------|--------|--------|--------|--------|--------|--------|
A|--------|--------|--------|--------|--------|--------|--------|--------|--------|
E|--------|--------|--------|--------|--------|--------|--------|--------|--------|
A|--------|--------|--------|--------|--------|--------|--------|--------|--------|


E|--------|--------|--------|--------|--------|--------|--------|--------|--------|
B|--------|--------|--------|--------|--------|--------|--------|--------|--------|
G|--------|--------|--------|--------|--------|--------|--------|--------|--------|
D|--------|--------|--------|--------|--------|--------|--------|--------|--------|
A|--------|--------|--------|--------|--------|--------|--------|--------|--------|
E|--------|--------|--------|--------|--------|--------|--------|--------|--------|
A|--------|--------|--------|--------|--------|--------|--------|--------|--------|


E|--------|--------|--------|--------|--------|--------|--------|--------|--------|
B|--------|--------|--------|--------|--------|--------|--------|--------|--------|
G|--------|--------|--------|--------|--------|--------|--------|--------|--------|
D|--------|--------|--------|--------|--------|--------|--------|--------|--------|
A|--------|--------|--------|--------|--------|--------|--------|--------|--------|
E|--------|--------|--------|--------|--------|--------|--------|--------|--------|
A|--------|--------|--------|--------|--------|--------|--------|--------|--------|


E|--------|--------|--------|--------|--------|--------|--------|--------|--------|
B|--------|--------|--------|--------|--------|--------|--------|--------|--------|
G|--------|--------|--------|--------|--------|--------|--------|--------|--------|
D|--------|--------|--------|--------|--------|--------|--------|--------|--------|
A|--------|--------|--------|--------|--------|--------|--------|--------|--------|
E|--------|--------|--------|--------|--------|--------|--------|--------|--------|
A|--------|--------|--------|--------|--------|--------|--------|--------|--------|


E|--------|--------|--------|--------|--------|--------|--------|--------|--------|
B|--------|--------|--------|--------|--------|--------|--------|--------|--------|
G|--------|--------|--------|--------|--------|--------|--------|--------|--------|
D|--------|--------|--------|--------|--------|--------|--------|--------|--------|
A|--------|--------|--------|--------|--------|--------|--------|--------|--------|
E|--------|--------|--------|--------|--------|--------|--------|--------|--------|
A|--------|--------|--------|--------|--------|--------|--------|--------|--------|


E|--------|--------|--------|--------|--------|--------|--------|--------|--------|
B|--------|--------|--------|--------|--------|--------|--------|--------|--------|
G|--------|--------|--------|--------|--------|--------|--------|--------|--------|
D|--------|--------|--------|--------|--------|--------|--------|--------|--------|
A|--------|--------|--------|--------|--------|--------|--------|--------|--------|
E|--------|--------|--------|--------|--------|--------|--------|--------|--------|
A|--------|--------|--------|--------|--------|--------|--------|--------|--------|


E|--------|--------|--------|--------|--------|--------|--------|--------|--------|
B|--------|--------|--------|--------|--------|--------|--------|--------|--------|
G|--------|--------|--------|--------|--------|--------|--------|--------|--------|
D|--------|--------|--------|--------|--------|--------|--------|--------|--------|
A|--------|--------|--------|--------|--------|--------|--------|--------|--------|
E|--------|--------|--------|--------|--------|--------|--------|--------|--------|
A|--------|--------|--------|--------|--------|--------|--------|--------|--------|


E|--------|--------|--------|--------|--------|--------|--------|--------|--------|
B|--------|--------|--------|--------|--------|--------|--------|--------|--------|
G|--------|--------|--------|--------|--------|--------|--------|--------|--------|
D|--------|--------|--------|--------|--------|--------|--------|--------|--------|
A|--------|--------|--------|--------|--------|--------|--------|--------|--------|
E|--------|--------|--------|--------|--------|--------|--------|--------|--------|
A|--------|--------|--------|--------|--------|--------|--------|--------|--------|


E|--------|--------|--------|--------|--------|--------|--------|--------|--------|
B|--------|--------|--------|--------|--------|--------|--------|--------|--------|
G|--------|--------|--------|--------|--------|--------|--------|--------|--------|
D|--------|--------|--------|--------|--------|--------|--------|--------|--------|
A|--------|--------|--------|--------|--------|--------|--------|--------|--------|
E|--------|--------|--------|--------|--------|--------|--------|--------|--------|
A|--------|--------|--------|--------|--------|--------|--------|--------|--------|


E|--------|--------|--------|--------|--------|--------|--------|--------|--------|
B|--------|--------|--------|--------|--------|--------|--------|--------|--------|
G|--------|--------|--------|--------|--------|--------|--------|--------|--------|
D|--------|--------|--------|--------|--------|--------|--------|--------|--------|
A|--------|--------|--------|--------|--------|--------|--------|--------|--------|
E|--------|--------|--------|--------|--------|--------|--------|--------|--------|
A|--------|--------|--------|--------|--------|--------|--------|--------|--------|


E|--------|--------|--------|--------|--------|--------|--------|--------|--------|
B|--------|--------|--------|--------|--------|--------|--------|--------|--------|
G|--------|--------|--------|--------|--------|--------|--------|--------|--------|
D|--------|--------|--------|--------|--------|--------|--------|--------|--------|
A|--------|--------|--------|--------|--------|--------|--------|--------|--------|
E|--------|--------|--------|--------|--------|--------|--------|--------|--------|
A|--------|--------|--------|--------|--------|--------|--------|--------|--------|


E|--------|--------|--------|--------|--------|--------|--------|--------|--------|
B|--------|--------|--------|--------|--------|--------|--------|--------|--------|
G|--------|--------|--------|--------|--------|--------|--------|--------|--------|
D|--------|--------|--------|--------|--------|--------|--------|--------|--------|
A|--------|--------|--------|--------|--------|--------|--------|--------|--------|
E|--------|--------|--------|--------|--------|--------|--------|--------|--------|
A|--------|--------|--------|--------|--------|--------|--------|--------|--------|


E|--------|--------|--------|--------|--------|--------|--------|--------|--------|
B|--------|--------|--------|--------|--------|--------|--------|--------|--------|
G|--------|--------|--------|--------|--------|--------|--------|--------|--------|
D|--------|--------|--------|--------|--------|--------|--------|--------|--------|
A|--------|--------|--------|--------|--------|--------|--------|--------|--------|
E|--------|--------|--------|--------|--------|--------|--------|--------|--------|
A|--------|--------|--------|--------|--------|--------|--------|--------|--------|


E|--------|--------|--------|--------|--------|--------|--------|--------|--------|
B|--------|--------|--------|--------|--------|--------|--------|--------|--------|
G|--------|--------|--------|--------|--------|--------|--------|--------|--------|
D|--------|--------|--------|--------|--------|--------|--------|--------|--------|
A|--------|--------|--------|--------|--------|--------|--------|--------|--------|
E|--------|--------|--------|--------|--------|--------|--------|--------|--------|
A|--------|--------|--------|--------|--------|--------|--------|--------|--------|


E|--------|--------|--------|--------|--------|--------|--------|--------|--------|
B|--------|--------|--------|--------|--------|--------|--------|--------|--------|
G|--------|--------|--------|--------|--------|--------|--------|--------|--------|
D|--------|--------|--------|--------|--------|--------|--------|--------|--------|
A|--------|--------|--------|--------|--------|--------|--------|--------|--------|
E|--------|--------|--------|--------|--------|--------|--------|--------|--------|
A|--------|--------|--------|--------|--------|--------|--------|--------|--------|


E|--------|--------|--------|--------|--------|--------|--------|--------|--------|
B|--------|--------|--------|--------|--------|--------|--------|--------|--------|
G|--------|--------|--------|--------|--------|--------|--------|--------|--------|
D|--------|--------|--------|--------|--------|--------|--------|--------|--------|
A|--------|--------|--------|--------|--------|--------|--------|--------|--------|
E|--------|--------|--------|--------|--------|--------|--------|--------|--------|
A|--------|--------|--------|--------|--------|--------|--------|--------|--------|


E|--------|--------|--------|--------|--------|--------|--------|--------|--------|
B|--------|--------|--------|--------|--------|--------|--------|--------|--------|
G|--------|--------|--------|--------|--------|--------|--------|--------|--------|
D|--------|--------|--------|--------|--------|--------|--------|--------|--------|
A|--------|--------|--------|--------|--------|--------|--------|--------|--------|
E|--------|--------|--------|--------|--------|--------|--------|--------|--------|
A|--------|--------|--------|--------|--------|--------|--------|--------|--------|


E|--------|--------|--------|--------|--------|--------|--------|--------|--------|
B|--------|--------|--------|--------|--------|--------|--------|--------|--------|
G|--------|--------|--------|--------|--------|--------|--------|--------|--------|
D|--------|--------|--------|--------|--------|--------|--------|--------|--------|
A|--------|--------|--------|--------|--------|--------|--------|--------|--------|
E|--------|--------|--------|--------|--------|--------|--------|--------|--------|
A|--------|--------|--------|--------|--------|--------|--------|--------|--------|


E|--------|--------|--------|--------|--------|--------|--------|--------|--------|
B|--------|--------|--------|--------|--------|--------|--------|--------|--------|
G|--------|--------|--------|--------|--------|--------|--------|--------|--------|
D|--------|--------|--------|--------|--------|--------|--------|--------|--------|
A|--------|--------|--------|--------|--------|--------|--------|--------|--------|
E|--------|--------|--------|--------|--------|--------|--------|--------|--------|
A|--------|--------|--------|--------|--------|--------|--------|--------|--------|


E|--------|--------|--------|--------|--------|--------|--------|--------|--------|
B|--------|--------|--------|--------|--------|--------|--------|--------|--------|
G|--------|--------|--------|--------|--------|--------|--------|--------|--------|
D|--------|--------|--------|--------|--------|--------|--------|--------|--------|
A|--------|--------|--------|--------|--------|--------|--------|--------|--------|
E|--------|--------|--------|--------|--------|--------|--------|--------|--------|
A|--------|--------|--------|--------|--------|--------|--------|--------|--------|


E|--------|--------|--------|--------|--------|--------|--------|--------|--------|
B|--------|--------|--------|--------|--------|--------|--------|--------|--------|
G|--------|--------|--------|--------|--------|--------|--------|--------|--------|
D|--------|--------|--------|--------|--------|--------|--------|--------|--------|
A|--------|--------|--------|--------|--------|--------|--------|--------|--------|
E|--------|--------|--------|--------|--------|--------|--------|--------|--------|
A|--------|--------|--------|--------|--------|--------|--------|--------|--------|


E|--------|--------|--------|
B|--------|--------|--------|
G|--------|--------|--------|
D|--------|--------|--------|
A|--------|--------|--------|
E|--------|--------|--------|
A|--------|--------|--------|





Track 5: Lead Guitar

E|--------|--------|--------|--------|--------|--------|--------|--------|--------|
B|--------|--------|--------|--------|--------|--------|--------|--------|--------|
G|--------|--------|--------|--------|--------|--------|--------|--------|--------|
D|--------|--------|--------|--------|--------|--------|--------|--------|--------|
A|--------|--------|--------|--------|--------|--------|--------|--------|--------|
E|--------|--------|--------|--------|--------|--------|--------|--------|--------|
A|--------|--------|--------|--------|--------|--------|--------|--------|--------|


E|--------|--------|--------|--------|--------|--------|--------|--------|--------|
B|--------|--------|--------|--------|--------|--------|--------|--------|--------|
G|--------|--------|--------|--------|--------|--------|--------|--------|--------|
D|--------|--------|--------|--------|--------|--------|--------|--------|--------|
A|--------|--------|--------|--------|--------|-8------|--------|--------|--------|
E|--------|--------|--------|--------|--------|-8------|--------|--------|--------|
A|--------|--------|--------|--------|--------|-8------|--------|--------|--------|


E|--------|--------|--------|--------|--------|--------|--------|--------|--------|
B|--------|--------|--------|--------|--------|--------|--------|--------|--------|
G|--------|--------|--------|--------|--------|--------|--------|--------|--------|
D|--------|--------|--------|--------|--------|--------|--------|--------|--------|
A|--------|--------|--------|--------|--------|--------|--------|--------|--------|
E|--------|--------|--------|--------|--------|--------|--------|--------|--------|
A|--------|--------|--------|--------|--------|--------|--------|--------|--------|


E|--------|--------|--------|--------|--------|--------|--------|--------|--------|
B|--------|--------|--------|--------|--------|--------|--------|--------|--------|
G|--------|--------|--------|--------|--------|--------|--------|--------|--------|
D|--------|--------|--------|--------|--------|--------|--------|--------|--------|
A|--------|--------|--------|--------|--------|--------|--------|--------|--------|
E|--------|--------|--------|--------|--------|--------|--------|--------|--------|
A|--------|--------|--------|--------|--------|--------|--------|--------|--------|


E|--------|--------|--------|--------|--------|--------|--------|--------|--------|
B|--------|--------|--------|--------|--------|--------|--------|--------|--------|
G|--------|--------|--------|--------|--------|--------|--------|--------|--------|
D|--------|--------|--------|--------|--------|--------|--------|--------|--------|
A|--------|--------|--------|--------|--------|--------|--------|--------|--------|
E|--------|--------|--------|--------|--------|--------|--------|--------|--------|
A|--------|--------|--------|--------|--------|--------|--------|--------|--------|


E|--------|--------|--------|--------|--------|--------|--------|--------|--------|
B|--------|--------|--------|--------|--------|--------|--------|--------|--------|
G|--------|--------|--------|--------|--------|--------|--------|--------|--------|
D|--------|--------|--------|--------|--------|--------|--------|--------|--------|
A|--------|--------|--------|--------|--------|--------|--------|--------|--------|
E|--------|--------|--------|--------|--------|--------|--------|--------|--------|
A|--------|--------|--------|--------|--------|--------|--------|--------|--------|


E|--------|--------|--------|--------|--------|--------|--------|--------|--------|
B|--------|--------|--------|--------|--------|--------|--------|--------|--------|
G|--------|--------|--------|--------|--------|--------|--------|--------|--------|
D|--------|--------|--------|--------|--------|--------|--------|--------|--------|
A|--------|--------|--------|--------|--------|--------|--------|--------|--------|
E|--------|--------|--------|--------|--------|--------|--------|--------|--------|
A|--------|--------|--------|--------|--------|--------|--------|--------|--------|


E|--------|--------|--------|--------|--------|--------|--------|--------|--------|
B|--------|--------|--------|--------|--------|--------|--------|--------|--------|
G|--------|--------|--------|--------|--------|--------|--------|--------|--------|
D|--------|--------|--------|--------|--------|--------|--------|--------|--------|
A|--------|--------|--------|--------|--------|--------|--------|--------|--------|
E|--------|--------|--------|--------|--------|--------|--------|--------|--------|
A|--------|--------|--------|--------|--------|--------|--------|--------|--------|


E|--------|--------|--------|--------|--------|--------|--------|--------|--------|
B|--------|--------|--------|--------|--------|--------|--------|--------|--------|
G|--------|--------|--------|--------|--------|--------|--------|--------|--------|
D|--------|--------|--------|--------|--------|--------|--------|--------|--------|
A|--------|--------|--------|--------|--------|--------|--------|--------|--------|
E|--------|--------|--------|--------|--------|--------|--------|--------|--------|
A|--------|--------|--------|--------|--------|--------|--------|--------|--------|


E|--------|--------|--------|--------|--------|--------|--------|--------|--------|
B|--------|--------|--------|--------|--------|--------|--------|--------|--------|
G|--------|--------|--------|--------|--------|--------|--------|--------|--------|
D|--------|--------|--------|--------|--------|--------|--------|--------|--------|
A|--------|--------|--------|--------|--------|--------|--------|--------|--------|
E|--------|--------|--------|--------|--------|--------|--------|--------|--------|
A|--------|--------|--------|--------|--------|--------|--------|--------|--------|


E|--------|--------|--------|--------|--------|--------|--------|--------|--------|
B|--------|--------|--------|--------|--------|--------|--------|--------|--------|
G|--------|--------|--------|--------|--------|--------|--------|--------|--------|
D|--------|--------|--------|--------|--------|--------|--------|--------|--------|
A|--------|--------|--------|--------|--------|--------|--------|--------|--------|
E|--------|--------|--------|--------|--------|--------|--------|--------|--------|
A|--------|--------|--------|--------|--------|--------|--------|--------|--------|


E|--------|--------|--------|--------|--------|--------|--------|--------|--------|
B|--------|--------|--------|--------|--------|--------|--------|--------|--------|
G|--------|--------|--------|--------|--------|--------|--------|--------|--------|
D|--------|--------|--------|--------|--------|--------|--------|--------|--------|
A|--------|--------|--------|--------|--------|--------|--------|--------|--------|
E|--------|--------|--------|--------|--------|--------|--------|--------|--------|
A|--------|--------|--------|--------|--------|--------|--------|--------|--------|


E|--------|--------|--------|--------|--------|--------|--------|--------|--------|
B|--------|--------|--------|--------|--------|--------|--------|--------|--------|
G|--------|--------|--------|--------|--------|--------|--------|--------|--------|
D|--------|--------|--------|--------|--------|--------|--------|--------|--------|
A|--------|--------|--------|--------|--------|--------|--------|--------|--------|
E|--------|--------|--------|--------|--------|--------|--------|--------|--------|
A|--------|--------|--------|--------|--------|--------|--------|--------|--------|


E|--------|--------|--------|--------|--------|--------|--------|--------|--------|
B|--------|--------|--------|--------|--------|--------|--------|--------|--------|
G|--------|--------|--------|--------|--------|--------|--------|--------|--------|
D|--------|--------|--------|--------|--------|--------|--------|--------|--------|
A|--------|--------|--------|--------|--------|--------|--------|--------|--------|
E|--------|--------|--------|--------|--------|--------|--------|--------|--------|
A|--------|--------|--------|--------|--------|--------|--------|--------|--------|


E|--------|--------|--------|--------|--------|--------|--------|--------|--------|
B|--------|--------|--------|--------|--------|--------|--------|--------|--------|
G|--------|--------|--------|--------|--------|--------|--------|--------|--------|
D|--------|--------|--------|--------|--------|--------|--------|--------|--------|
A|--------|--------|--------|--------|--------|--------|--------|--------|--------|
E|--------|--------|--------|--------|--------|--------|--------|--------|--------|
A|--------|--------|--------|--------|--------|--------|--------|--------|--------|


E|--------|--------|--------|--------|--------|--------|--------|--------|--------|
B|--------|--------|--------|--------|--------|--------|--------|--------|--------|
G|--------|--------|--------|--------|--------|--------|--------|--------|--------|
D|--------|--------|--------|--------|--------|--------|--------|--------|--------|
A|--------|--------|--------|--------|--------|--------|--------|--------|--------|
E|--------|--------|--------|--------|--------|--------|--------|--------|--------|
A|--------|--------|--------|--------|--------|--------|--------|--------|--------|


E|--------|--------|--------|--------|--------|--------|--------|--------|--------|
B|--------|--------|--------|--------|--------|--------|--------|--------|--------|
G|--------|--------|--------|--------|--------|--------|--------|--------|--------|
D|--------|--------|--------|--------|--------|--------|--------|--------|--------|
A|--------|--------|--------|--------|--------|--------|--------|--------|--------|
E|--------|--------|--------|--------|--------|--------|--------|--------|--------|
A|--------|--------|--------|--------|--------|--------|--------|--------|--------|


E|--------|--------|--------|--------|--------|--------|--------|--------|--------|
B|--------|--------|--------|--------|--------|--------|--------|--------|--------|
G|--------|--------|--------|--------|--------|--------|--------|--------|--------|
D|--------|--------|--------|--------|--------|--------|--------|--------|--------|
A|--------|--------|--------|--------|--------|--------|--------|--------|--------|
E|--------|--------|--------|--------|--------|--------|--------|--------|--------|
A|--------|--------|--------|--------|--------|--------|--------|--------|--------|


E|--------|--------|--------|--------|--------|--------|--------|--------|--------|
B|--------|--------|--------|--------|--------|--------|--------|--------|--------|
G|--------|--------|--------|--------|--------|--------|--------|--------|--------|
D|--------|--------|--------|--------|--------|--------|--------|--------|--------|
A|--------|--------|--------|--------|--------|--------|--------|--------|--------|
E|--------|--------|--------|--------|--------|--------|--------|--------|--------|
A|--------|--------|--------|--------|--------|--------|--------|--------|--------|


E|--------|--------|--------|--------|--------|--------|--------|--------|--------|
B|--------|--------|--------|--------|--------|--------|--------|--------|--------|
G|--------|--------|--------|--------|--------|--------|--------|--------|--------|
D|--------|--------|--------|--------|--------|--------|--------|--------|--------|
A|--------|--------|--------|--------|--------|--------|--------|--------|--------|
E|--------|--------|--------|--------|--------|--------|--------|--------|--------|
A|--------|--------|--------|--------|--------|--------|--------|--------|--------|


E|--------|--------|--------|--------|--------|--------|--------|--------|--------|
B|--------|--------|--------|--------|--------|--------|--------|--------|--------|
G|--------|--------|--------|--------|--------|--------|--------|--------|--------|
D|--------|--------|--------|--------|--------|--------|--------|--------|--------|
A|--------|--------|--------|--------|--------|--------|--------|--------|--------|
E|--------|--------|--------|--------|--------|--------|--------|--------|--------|
A|--------|--------|--------|--------|--------|--------|--------|--------|--------|


E|--------|--------|--------|--------|--------|--------|--------|--------|--------|
B|--------|--------|--------|--------|--------|--------|--------|--------|--------|
G|--------|--------|--------|--------|--------|--------|--------|--------|--------|
D|--------|--------|--------|--------|--------|--------|--------|--------|--------|
A|--------|--------|--------|--------|--------|--------|--------|--------|--------|
E|--------|--------|--------|--------|--------|--------|--------|--------|--------|
A|--------|--------|--------|--------|--------|--------|--------|--------|--------|


E|--------|--------|--------|--------|--------|--------|--------|--------|--------|
B|--------|--------|--------|--------|--------|--------|--------|--------|--------|
G|--------|--------|--------|--------|--------|--------|--------|--------|--------|
D|--------|--------|--------|--------|--------|--------|--------|--------|--------|
A|--------|--------|--------|--------|--------|--------|--------|--------|--------|
E|--------|--------|--------|--------|--------|--------|--------|--------|--------|
A|--------|--------|--------|--------|--------|--------|--------|--------|--------|


E|--------|--------|--------|--------|--------|--------|--------|--------|--------|
B|--------|--------|--------|--------|--------|--------|--------|--------|--------|
G|--------|--------|--------|--------|--------|--------|--------|--------|--------|
D|--------|--------|--------|--------|--------|--------|--------|--------|--------|
A|--------|--------|--------|--------|--------|--------|--------|--------|--------|
E|--------|--------|--------|--------|--------|--------|--------|--------|--------|
A|--------|--------|--------|--------|--------|--------|--------|--------|--------|


E|--------|--------|--------|--------|--------|--------|--------|--------|--------|
B|--------|--------|--------|--------|--------|--------|--------|--------|--------|
G|--------|--------|--------|--------|--------|--------|--------|--------|--------|
D|--------|--------|--------|--------|--------|--------|--------|--------|--------|
A|--------|--------|--------|--------|--------|--------|--------|--------|--------|
E|--------|--------|--------|--------|--------|--------|--------|--------|--------|
A|--------|--------|--------|--------|--------|--------|--------|--------|--------|


E|--------|--------|--------|--------|--------|--------|--------|--------|--------|
B|--------|--------|--------|--------|--------|--------|--------|--------|--------|
G|--------|--------|--------|--------|--------|--------|--------|--------|--------|
D|--------|--------|--------|--------|--------|--------|--------|--------|--------|
A|--------|--------|--------|--------|--------|--------|--------|--------|--------|
E|--------|--------|--------|--------|--------|--------|--------|--------|--------|
A|--------|--------|--------|--------|--------|--------|--------|--------|--------|


E|--------|--------|--------|--------|--------|--------|--------|--------|--------|
B|--------|--------|--------|--------|--------|--------|--------|--------|--------|
G|--------|--------|--------|--------|--------|--------|--------|--------|--------|
D|--------|--------|--------|--------|--------|--------|--------|--------|--------|
A|--------|--------|--------|--------|--------|--------|--------|--------|--------|
E|--------|--------|--------|--------|--------|--------|--------|--------|--------|
A|--------|--------|--------|--------|--------|--------|--------|--------|--------|


E|--------|--------|--------|--------|--------|--------|
B|--------|--------|--------|--------|--------|--------|
G|--------|--------|--------|--------|--------|--------|
D|--------|--------|--------|--------|--------|--------|
A|--------|--------|--------|--------|--------|--------|
E|--------|--------|--------|--------|--------|--------|
A|--------|--------|--------|--------|--------|--------|





Track 6: Lead Guitar

E|--------|--------|--------|--------|--------|--------|--------|--------|--------|
B|--------|--------|--------|--------|--------|--------|--------|--------|--------|
G|--------|--------|--------|--------|--------|--------|--------|--------|--------|
D|--------|--------|--------|--------|--------|--------|--------|--------|--------|
A|--------|--------|--------|--------|--------|--------|--------|--------|--------|
E|--------|--------|--------|--------|--------|--------|--------|--------|--------|
A|--------|--------|--------|--------|--------|--------|--------|--------|--------|


E|--------|--------|--------|--------|--------|---------4---3---4-----|--------|--------|
B|--------|--------|--------|--------|--------|-----------------------|--------|--------|
G|--------|--------|--------|--------|--------|-----5-----------------|--------|--------|
D|--------|--------|--------|--------|--------|-3---------------------|--------|--------|
A|--------|--------|--------|--------|--------|-----------------------|--------|--------|
E|--------|--------|--------|--------|--------|-----------------------|--------|--------|
A|--------|--------|--------|--------|--------|-----------------------|--------|--------|


E|--------|--------|--------|--------|--------|--------|--------|--------|--------|
B|--------|--------|--------|--------|--------|--------|--------|--------|--------|
G|--------|--------|--------|--------|--------|--------|--------|--------|--------|
D|--------|--------|--------|--------|--------|--------|--------|--------|--------|
A|--------|--------|--------|--------|--------|--------|--------|--------|--------|
E|--------|--------|--------|--------|--------|--------|--------|--------|--------|
A|--------|--------|--------|--------|--------|--------|--------|--------|--------|


E|--------|--------|--------|--------|--------|--------|--------|--------|--------|
B|--------|--------|--------|--------|--------|--------|--------|--------|--------|
G|--------|--------|--------|--------|--------|--------|--------|--------|--------|
D|--------|--------|--------|--------|--------|--------|--------|--------|--------|
A|--------|--------|--------|--------|--------|--------|--------|--------|--------|
E|--------|--------|--------|--------|--------|--------|--------|--------|--------|
A|--------|--------|--------|--------|--------|--------|--------|--------|--------|


E|--------|--------|--------|--------|--------|--------|--------|--------|--------|
B|--------|--------|--------|--------|--------|--------|--------|--------|--------|
G|--------|--------|--------|--------|--------|--------|--------|--------|--------|
D|--------|--------|--------|--------|--------|--------|--------|--------|--------|
A|--------|--------|--------|--------|--------|--------|--------|--------|--------|
E|--------|--------|--------|--------|--------|--------|--------|--------|--------|
A|--------|--------|--------|--------|--------|--------|--------|--------|--------|


E|--------|--------|--------|--------|--------|--------|--------|--------|--------|
B|--------|--------|--------|--------|--------|--------|--------|--------|--------|
G|--------|--------|--------|--------|--------|--------|--------|--------|--------|
D|--------|--------|--------|--------|--------|--------|--------|--------|--------|
A|--------|--------|--------|--------|--------|--------|--------|--------|--------|
E|--------|--------|--------|--------|--------|--------|--------|--------|--------|
A|--------|--------|--------|--------|--------|--------|--------|--------|--------|


E|--------|--------|--------|--------|--------|--------|--------|--------|--------|
B|--------|--------|--------|--------|--------|--------|--------|--------|--------|
G|--------|--------|--------|--------|--------|--------|--------|--------|--------|
D|--------|--------|--------|--------|--------|--------|--------|--------|--------|
A|--------|--------|--------|--------|--------|--------|--------|--------|--------|
E|--------|--------|--------|--------|--------|--------|--------|--------|--------|
A|--------|--------|--------|--------|--------|--------|--------|--------|--------|


E|--------|--------|--------|--------|--------|--------|--------|--------|--------|
B|--------|--------|--------|--------|--------|--------|--------|--------|--------|
G|--------|--------|--------|--------|--------|--------|--------|--------|--------|
D|--------|--------|--------|--------|--------|--------|--------|--------|--------|
A|--------|--------|--------|--------|--------|--------|--------|--------|--------|
E|--------|--------|--------|--------|--------|--------|--------|--------|--------|
A|--------|--------|--------|--------|--------|--------|--------|--------|--------|


E|--------|--------|--------|--------|--------|--------|--------|--------|--------|
B|--------|--------|--------|--------|--------|--------|--------|--------|--------|
G|--------|--------|--------|--------|--------|--------|--------|--------|--------|
D|--------|--------|--------|--------|--------|--------|--------|--------|--------|
A|--------|--------|--------|--------|--------|--------|--------|--------|--------|
E|--------|--------|--------|--------|--------|--------|--------|--------|--------|
A|--------|--------|--------|--------|--------|--------|--------|--------|--------|


E|--------|--------|--------|--------|--------|--------|--------|--------|--------|
B|--------|--------|--------|--------|--------|--------|--------|--------|--------|
G|--------|--------|--------|--------|--------|--------|--------|--------|--------|
D|--------|--------|--------|--------|--------|--------|--------|--------|--------|
A|--------|--------|--------|--------|--------|--------|--------|--------|--------|
E|--------|--------|--------|--------|--------|--------|--------|--------|--------|
A|--------|--------|--------|--------|--------|--------|--------|--------|--------|


E|--------|--------|--------|--------|--------|--------|--------|--------|--------|
B|--------|--------|--------|--------|--------|--------|--------|--------|--------|
G|--------|--------|--------|--------|--------|--------|--------|--------|--------|
D|--------|--------|--------|--------|--------|--------|--------|--------|--------|
A|--------|--------|--------|--------|--------|--------|--------|--------|--------|
E|--------|--------|--------|--------|--------|--------|--------|--------|--------|
A|--------|--------|--------|--------|--------|--------|--------|--------|--------|


E|--------|--------|--------|--------|--------|--------|--------|--------|--------|
B|--------|--------|--------|--------|--------|--------|--------|--------|--------|
G|--------|--------|--------|--------|--------|--------|--------|--------|--------|
D|--------|--------|--------|--------|--------|--------|--------|--------|--------|
A|--------|--------|--------|--------|--------|--------|--------|--------|--------|
E|--------|--------|--------|--------|--------|--------|--------|--------|--------|
A|--------|--------|--------|--------|--------|--------|--------|--------|--------|


E|--------|--------|--------|--------|--------|--------|--------|--------|--------|
B|--------|--------|--------|--------|--------|--------|--------|--------|--------|
G|--------|--------|--------|--------|--------|--------|--------|--------|--------|
D|--------|--------|--------|--------|--------|--------|--------|--------|--------|
A|--------|--------|--------|--------|--------|--------|--------|--------|--------|
E|--------|--------|--------|--------|--------|--------|--------|--------|--------|
A|--------|--------|--------|--------|--------|--------|--------|--------|--------|


E|--------|--------|--------|--------|--------|--------|--------|--------|--------|
B|--------|--------|--------|--------|--------|--------|--------|--------|--------|
G|--------|--------|--------|--------|--------|--------|--------|--------|--------|
D|--------|--------|--------|--------|--------|--------|--------|--------|--------|
A|--------|--------|--------|--------|--------|--------|--------|--------|--------|
E|--------|--------|--------|--------|--------|--------|--------|--------|--------|
A|--------|--------|--------|--------|--------|--------|--------|--------|--------|


E|--------|--------|--------|--------|--------|--------|--------|--------|--------|
B|--------|--------|--------|--------|--------|--------|--------|--------|--------|
G|--------|--------|--------|--------|--------|--------|--------|--------|--------|
D|--------|--------|--------|--------|--------|--------|--------|--------|--------|
A|--------|--------|--------|--------|--------|--------|--------|--------|--------|
E|--------|--------|--------|--------|--------|--------|--------|--------|--------|
A|--------|--------|--------|--------|--------|--------|--------|--------|--------|


E|--------|--------|--------|--------|--------|--------|--------|--------|--------|
B|--------|--------|--------|--------|--------|--------|--------|--------|--------|
G|--------|--------|--------|--------|--------|--------|--------|--------|--------|
D|--------|--------|--------|--------|--------|--------|--------|--------|--------|
A|--------|--------|--------|--------|--------|--------|--------|--------|--------|
E|--------|--------|--------|--------|--------|--------|--------|--------|--------|
A|--------|--------|--------|--------|--------|--------|--------|--------|--------|


E|--------|--------|--------|--------|--------|--------|--------|--------|--------|
B|--------|--------|--------|--------|--------|--------|--------|--------|--------|
G|--------|--------|--------|--------|--------|--------|--------|--------|--------|
D|--------|--------|--------|--------|--------|--------|--------|--------|--------|
A|--------|--------|--------|--------|--------|--------|--------|--------|--------|
E|--------|--------|--------|--------|--------|--------|--------|--------|--------|
A|--------|--------|--------|--------|--------|--------|--------|--------|--------|


E|--------|--------|--------|--------|--------|--------|--------|--------|--------|
B|--------|--------|--------|--------|--------|--------|--------|--------|--------|
G|--------|--------|--------|--------|--------|--------|--------|--------|--------|
D|--------|--------|--------|--------|--------|--------|--------|--------|--------|
A|--------|--------|--------|--------|--------|--------|--------|--------|--------|
E|--------|--------|--------|--------|--------|--------|--------|--------|--------|
A|--------|--------|--------|--------|--------|--------|--------|--------|--------|


E|--------|--------|--------|--------|--------|--------|--------|--------|--------|
B|--------|--------|--------|--------|--------|--------|--------|--------|--------|
G|--------|--------|--------|--------|--------|--------|--------|--------|--------|
D|--------|--------|--------|--------|--------|--------|--------|--------|--------|
A|--------|--------|--------|--------|--------|--------|--------|--------|--------|
E|--------|--------|--------|--------|--------|--------|--------|--------|--------|
A|--------|--------|--------|--------|--------|--------|--------|--------|--------|


E|--------|--------|--------|--------|--------|--------|--------|--------|--------|
B|--------|--------|--------|--------|--------|--------|--------|--------|--------|
G|--------|--------|--------|--------|--------|--------|--------|--------|--------|
D|--------|--------|--------|--------|--------|--------|--------|--------|--------|
A|--------|--------|--------|--------|--------|--------|--------|--------|--------|
E|--------|--------|--------|--------|--------|--------|--------|--------|--------|
A|--------|--------|--------|--------|--------|--------|--------|--------|--------|


E|--------|--------|--------|--------|--------|--------|--------|--------|--------|
B|--------|--------|--------|--------|--------|--------|--------|--------|--------|
G|--------|--------|--------|--------|--------|--------|--------|--------|--------|
D|--------|--------|--------|--------|--------|--------|--------|--------|--------|
A|--------|--------|--------|--------|--------|--------|--------|--------|--------|
E|--------|--------|--------|--------|--------|--------|--------|--------|--------|
A|--------|--------|--------|--------|--------|--------|--------|--------|--------|


E|--------|--------|--------|--------|--------|--------|--------|--------|--------|
B|--------|--------|--------|--------|--------|--------|--------|--------|--------|
G|--------|--------|--------|--------|--------|--------|--------|--------|--------|
D|--------|--------|--------|--------|--------|--------|--------|--------|--------|
A|--------|--------|--------|--------|--------|--------|--------|--------|--------|
E|--------|--------|--------|--------|--------|--------|--------|--------|--------|
A|--------|--------|--------|--------|--------|--------|--------|--------|--------|


E|--------|--------|--------|--------|--------|--------|--------|--------|--------|
B|--------|--------|--------|--------|--------|--------|--------|--------|--------|
G|--------|--------|--------|--------|--------|--------|--------|--------|--------|
D|--------|--------|--------|--------|--------|--------|--------|--------|--------|
A|--------|--------|--------|--------|--------|--------|--------|--------|--------|
E|--------|--------|--------|--------|--------|--------|--------|--------|--------|
A|--------|--------|--------|--------|--------|--------|--------|--------|--------|


E|--------|--------|--------|--------|--------|--------|--------|--------|--------|
B|--------|--------|--------|--------|--------|--------|--------|--------|--------|
G|--------|--------|--------|--------|--------|--------|--------|--------|--------|
D|--------|--------|--------|--------|--------|--------|--------|--------|--------|
A|--------|--------|--------|--------|--------|--------|--------|--------|--------|
E|--------|--------|--------|--------|--------|--------|--------|--------|--------|
A|--------|--------|--------|--------|--------|--------|--------|--------|--------|


E|--------|--------|--------|--------|--------|--------|--------|--------|--------|
B|--------|--------|--------|--------|--------|--------|--------|--------|--------|
G|--------|--------|--------|--------|--------|--------|--------|--------|--------|
D|--------|--------|--------|--------|--------|--------|--------|--------|--------|
A|--------|--------|--------|--------|--------|--------|--------|--------|--------|
E|--------|--------|--------|--------|--------|--------|--------|--------|--------|
A|--------|--------|--------|--------|--------|--------|--------|--------|--------|


E|--------|--------|--------|--------|--------|--------|--------|--------|--------|
B|--------|--------|--------|--------|--------|--------|--------|--------|--------|
G|--------|--------|--------|--------|--------|--------|--------|--------|--------|
D|--------|--------|--------|--------|--------|--------|--------|--------|--------|
A|--------|--------|--------|--------|--------|--------|--------|--------|--------|
E|--------|--------|--------|--------|--------|--------|--------|--------|--------|
A|--------|--------|--------|--------|--------|--------|--------|--------|--------|


E|--------|--------|--------|--------|--------|--------|--------|--------|--------|
B|--------|--------|--------|--------|--------|--------|--------|--------|--------|
G|--------|--------|--------|--------|--------|--------|--------|--------|--------|
D|--------|--------|--------|--------|--------|--------|--------|--------|--------|
A|--------|--------|--------|--------|--------|--------|--------|--------|--------|
E|--------|--------|--------|--------|--------|--------|--------|--------|--------|
A|--------|--------|--------|--------|--------|--------|--------|--------|--------|


E|--------|--------|--------|--------|--------|--------|--------|
B|--------|--------|--------|--------|--------|--------|--------|
G|--------|--------|--------|--------|--------|--------|--------|
D|--------|--------|--------|--------|--------|--------|--------|
A|--------|--------|--------|--------|--------|--------|--------|
E|--------|--------|--------|--------|--------|--------|--------|
A|--------|--------|--------|--------|--------|--------|--------|





Track 7: Lead Guitar

E|--------|--------|--------|--------|--------|--------|--------|--------|--------|
B|--------|--------|--------|--------|--------|--------|--------|--------|--------|
G|--------|--------|--------|--------|--------|--------|--------|--------|--------|
D|--------|--------|--------|--------|--------|--------|--------|--------|--------|
A|--------|--------|--------|--------|--------|--------|--------|--------|--------|
E|--------|--------|--------|--------|--------|--------|--------|--------|--------|
A|--------|--------|--------|--------|--------|--------|--------|--------|--------|


E|--------|--------|--------|--------|--------|--------|---------4---3---4-----|---------4---3---6-----|
B|--------|--------|--------|--------|--------|--------|-----------------------|-----------------------|
G|--------|--------|--------|--------|--------|--------|-----5-----------------|-----5-----------------|
D|--------|--------|--------|--------|--------|--------|-3---------------------|-3---------------------|
A|--------|--------|--------|--------|--------|--------|-----------------------|-----------------------|
E|--------|--------|--------|--------|--------|--------|-----------------------|-----------------------|
A|--------|--------|--------|--------|--------|--------|-----------------------|-----------------------|


E|---------4---3---------|---------4---3---4-----|---------4---3---4-----|---------4---3---6-----|
B|-----------------6-----|-----------------------|-----------------------|-----------------------|
G|-----5-----------------|-----5-----------------|-----5-----------------|-----5-----------------|
D|-3---------------------|-3---------------------|-3---------------------|-3---------------------|
A|-----------------------|-----------------------|-----------------------|-----------------------|
E|-----------------------|-----------------------|-----------------------|-----------------------|
A|-----------------------|-----------------------|-----------------------|-----------------------|


E|---------4---3---------|---------4---3---6-----|---------4---3---------|--------|
B|-----------------6-----|-----------------------|-----------------6-----|--------|
G|-----5-----------------|-----5-----------------|-----5-----------------|--------|
D|-3---------------------|-3---------------------|-3---------------------|--------|
A|-----------------------|-----------------------|-----------------------|--------|
E|-----------------------|-----------------------|-----------------------|--------|
A|-----------------------|-----------------------|-----------------------|--------|


E|--------|--------|--------|--------|--------|--------|--------|--------|--------|
B|--------|--------|--------|--------|--------|--------|--------|--------|--------|
G|--------|--------|--------|--------|--------|--------|--------|--------|--------|
D|--------|--------|--------|--------|--------|--------|--------|--------|--------|
A|--------|--------|--------|--------|--------|--------|--------|--------|--------|
E|--------|--------|--------|--------|--------|--------|--------|--------|--------|
A|--------|--------|--------|--------|--------|--------|--------|--------|--------|


E|--------|--------|--------|--------|--------|--------|--------|--------|--------|
B|--------|--------|--------|--------|--------|--------|--------|--------|--------|
G|--------|--------|--------|--------|--------|--------|--------|--------|--------|
D|--------|--------|--------|--------|--------|--------|--------|--------|--------|
A|--------|--------|--------|--------|--------|--------|--------|--------|--------|
E|--------|--------|--------|--------|--------|--------|--------|--------|--------|
A|--------|--------|--------|--------|--------|--------|--------|--------|--------|


E|--------|--------|--------|--------|--------|--------|--------|--------|--------|
B|--------|--------|--------|--------|--------|--------|--------|--------|--------|
G|--------|--------|--------|--------|--------|--------|--------|--------|--------|
D|--------|--------|--------|--------|--------|--------|--------|--------|--------|
A|--------|--------|--------|--------|--------|--------|--------|--------|--------|
E|--------|--------|--------|--------|--------|--------|--------|--------|--------|
A|--------|--------|--------|--------|--------|--------|--------|--------|--------|


E|--------|--------|--------|--------|--------|--------|--------|--------|--------|
B|--------|--------|--------|--------|--------|--------|--------|--------|--------|
G|--------|--------|--------|--------|--------|--------|--------|--------|--------|
D|--------|--------|--------|--------|--------|--------|--------|--------|--------|
A|--------|--------|--------|--------|--------|--------|--------|--------|--------|
E|--------|--------|--------|--------|--------|--------|--------|--------|--------|
A|--------|--------|--------|--------|--------|--------|--------|--------|--------|


E|--------|--------|--------|--------|--------|--------|--------|--------|--------|
B|--------|--------|--------|--------|--------|--------|--------|--------|--------|
G|--------|--------|--------|--------|--------|--------|--------|--------|--------|
D|--------|--------|--------|--------|--------|--------|--------|--------|--------|
A|--------|--------|--------|--------|--------|--------|--------|--------|--------|
E|--------|--------|--------|--------|--------|--------|--------|--------|--------|
A|--------|--------|--------|--------|--------|--------|--------|--------|--------|


E|--------|--------|--------|--------|--------|--------|--------|--------|--------|
B|--------|--------|--------|--------|--------|--------|--------|--------|--------|
G|--------|--------|--------|--------|--------|--------|--------|--------|--------|
D|--------|--------|--------|--------|--------|--------|--------|--------|--------|
A|--------|--------|--------|--------|--------|--------|--------|--------|--------|
E|--------|--------|--------|--------|--------|--------|--------|--------|--------|
A|--------|--------|--------|--------|--------|--------|--------|--------|--------|


E|--------|--------|--------|--------|--------|--------|--------|--------|--------|
B|--------|--------|--------|--------|--------|--------|--------|--------|--------|
G|--------|--------|--------|--------|--------|--------|--------|--------|--------|
D|--------|--------|--------|--------|--------|--------|--------|--------|--------|
A|--------|--------|--------|--------|--------|--------|--------|--------|--------|
E|--------|--------|--------|--------|--------|--------|--------|--------|--------|
A|--------|--------|--------|--------|--------|--------|--------|--------|--------|


E|--------|--------|--------|--------|--------|--------|--------|--------|--------|
B|--------|--------|--------|--------|--------|--------|--------|--------|--------|
G|--------|--------|--------|--------|--------|--------|--------|--------|--------|
D|--------|--------|--------|--------|--------|--------|--------|--------|--------|
A|--------|--------|--------|--------|--------|--------|--------|--------|--------|
E|--------|--------|--------|--------|--------|--------|--------|--------|--------|
A|--------|--------|--------|--------|--------|--------|--------|--------|--------|


E|--------|--------|--------|--------|--------|--------|--------|--------|--------|
B|--------|--------|--------|--------|--------|--------|--------|--------|--------|
G|--------|--------|--------|--------|--------|--------|--------|--------|--------|
D|--------|--------|--------|--------|--------|--------|--------|--------|--------|
A|--------|--------|--------|--------|--------|--------|--------|--------|--------|
E|--------|--------|--------|--------|--------|--------|--------|--------|--------|
A|--------|--------|--------|--------|--------|--------|--------|--------|--------|


E|--------|--------|--------|--------|--------|--------|--------|--------|--------|
B|--------|--------|--------|--------|--------|--------|--------|--------|--------|
G|--------|--------|--------|--------|--------|--------|--------|--------|--------|
D|--------|--------|--------|--------|--------|--------|--------|--------|--------|
A|--------|--------|--------|--------|--------|--------|--------|--------|--------|
E|--------|--------|--------|--------|--------|--------|--------|--------|--------|
A|--------|--------|--------|--------|--------|--------|--------|--------|--------|


E|--------|--------|--------|--------|--------|--------|--------|--------|--------|
B|--------|--------|--------|--------|--------|--------|--------|--------|--------|
G|--------|--------|--------|--------|--------|--------|--------|--------|--------|
D|--------|--------|--------|--------|--------|--------|--------|--------|--------|
A|--------|--------|--------|--------|--------|--------|--------|--------|--------|
E|--------|--------|--------|--------|--------|--------|--------|--------|--------|
A|--------|--------|--------|--------|--------|--------|--------|--------|--------|


E|--------|--------|--------|--------|--------|--------|--------|--------|--------|
B|--------|--------|--------|--------|--------|--------|--------|--------|--------|
G|--------|--------|--------|--------|--------|--------|--------|--------|--------|
D|--------|--------|--------|--------|--------|--------|--------|--------|--------|
A|--------|--------|--------|--------|--------|--------|--------|--------|--------|
E|--------|--------|--------|--------|--------|--------|--------|--------|--------|
A|--------|--------|--------|--------|--------|--------|--------|--------|--------|


E|--------|--------|--------|--------|--------|--------|--------|--------|--------|
B|--------|--------|--------|--------|--------|--------|--------|--------|--------|
G|--------|--------|--------|--------|--------|--------|--------|--------|--------|
D|--------|--------|--------|--------|--------|--------|--------|--------|--------|
A|--------|--------|--------|--------|--------|--------|--------|--------|--------|
E|--------|--------|--------|--------|--------|--------|--------|--------|--------|
A|--------|--------|--------|--------|--------|--------|--------|--------|--------|


E|--------|--------|--------|--------|--------|--------|--------|--------|--------|
B|--------|--------|--------|--------|--------|--------|--------|--------|--------|
G|--------|--------|--------|--------|--------|--------|--------|--------|--------|
D|--------|--------|--------|--------|--------|--------|--------|--------|--------|
A|--------|--------|--------|--------|--------|--------|--------|--------|--------|
E|--------|--------|--------|--------|--------|--------|--------|--------|--------|
A|--------|--------|--------|--------|--------|--------|--------|--------|--------|


E|--------|--------|--------|--------|--------|--------|--------|--------|--------|
B|--------|--------|--------|--------|--------|--------|--------|--------|--------|
G|--------|--------|--------|--------|--------|--------|--------|--------|--------|
D|--------|--------|--------|--------|--------|--------|--------|--------|--------|
A|--------|--------|--------|--------|--------|--------|--------|--------|--------|
E|--------|--------|--------|--------|--------|--------|--------|--------|--------|
A|--------|--------|--------|--------|--------|--------|--------|--------|--------|


E|--------|--------|--------|--------|--------|--------|--------|--------|--------|
B|--------|--------|--------|--------|--------|--------|--------|--------|--------|
G|--------|--------|--------|--------|--------|--------|--------|--------|--------|
D|--------|--------|--------|--------|--------|--------|--------|--------|--------|
A|--------|--------|--------|--------|--------|--------|--------|--------|--------|
E|--------|--------|--------|--------|--------|--------|--------|--------|--------|
A|--------|--------|--------|--------|--------|--------|--------|--------|--------|


E|--------|--------|--------|--------|--------|--------|--------|--------|--------|
B|--------|--------|--------|--------|--------|--------|--------|--------|--------|
G|--------|--------|--------|--------|--------|--------|--------|--------|--------|
D|--------|--------|--------|--------|--------|--------|--------|--------|--------|
A|--------|--------|--------|--------|--------|--------|--------|--------|--------|
E|--------|--------|--------|--------|--------|--------|--------|--------|--------|
A|--------|--------|--------|--------|--------|--------|--------|--------|--------|


E|--------|--------|--------|--------|--------|--------|--------|--------|--------|
B|--------|--------|--------|--------|--------|--------|--------|--------|--------|
G|--------|--------|--------|--------|--------|--------|--------|--------|--------|
D|--------|--------|--------|--------|--------|--------|--------|--------|--------|
A|--------|--------|--------|--------|--------|--------|--------|--------|--------|
E|--------|--------|--------|--------|--------|--------|--------|--------|--------|
A|--------|--------|--------|--------|--------|--------|--------|--------|--------|


E|--------|--------|--------|--------|--------|--------|--------|--------|--------|
B|--------|--------|--------|--------|--------|--------|--------|--------|--------|
G|--------|--------|--------|--------|--------|--------|--------|--------|--------|
D|--------|--------|--------|--------|--------|--------|--------|--------|--------|
A|--------|--------|--------|--------|--------|--------|--------|--------|--------|
E|--------|--------|--------|--------|--------|--------|--------|--------|--------|
A|--------|--------|--------|--------|--------|--------|--------|--------|--------|


E|--------|--------|--------|--------|--------|--------|--------|--------|--------|
B|--------|--------|--------|--------|--------|--------|--------|--------|--------|
G|--------|--------|--------|--------|--------|--------|--------|--------|--------|
D|--------|--------|--------|--------|--------|--------|--------|--------|--------|
A|--------|--------|--------|--------|--------|--------|--------|--------|--------|
E|--------|--------|--------|--------|--------|--------|--------|--------|--------|
A|--------|--------|--------|--------|--------|--------|--------|--------|--------|


E|--------|--------|--------|--------|--------|--------|--------|--------|--------|
B|--------|--------|--------|--------|--------|--------|--------|--------|--------|
G|--------|--------|--------|--------|--------|--------|--------|--------|--------|
D|--------|--------|--------|--------|--------|--------|--------|--------|--------|
A|--------|--------|--------|--------|--------|--------|--------|--------|--------|
E|--------|--------|--------|--------|--------|--------|--------|--------|--------|
A|--------|--------|--------|--------|--------|--------|--------|--------|--------|


E|--------|--------|--------|--------|--------|--------|--------|--------|--------|
B|--------|--------|--------|--------|--------|--------|--------|--------|--------|
G|--------|--------|--------|--------|--------|--------|--------|--------|--------|
D|--------|--------|--------|--------|--------|--------|--------|--------|--------|
A|--------|--------|--------|--------|--------|--------|--------|--------|--------|
E|--------|--------|--------|--------|--------|--------|--------|--------|--------|
A|--------|--------|--------|--------|--------|--------|--------|--------|--------|


E|--------|--------|--------|--------|--------|--------|--------|--------|--------|
B|--------|--------|--------|--------|--------|--------|--------|--------|--------|
G|--------|--------|--------|--------|--------|--------|--------|--------|--------|
D|--------|--------|--------|--------|--------|--------|--------|--------|--------|
A|--------|--------|--------|--------|--------|--------|--------|--------|--------|
E|--------|--------|--------|--------|--------|--------|--------|--------|--------|
A|--------|--------|--------|--------|--------|--------|--------|--------|--------|


E|--------|--------|--------|--------|--------|--------|--------|--------|--------|
B|--------|--------|--------|--------|--------|--------|--------|--------|--------|
G|--------|--------|--------|--------|--------|--------|--------|--------|--------|
D|--------|--------|--------|--------|--------|--------|--------|--------|--------|
A|--------|--------|--------|--------|--------|--------|--------|--------|--------|
E|--------|--------|--------|--------|--------|--------|--------|--------|--------|
A|--------|--------|--------|--------|--------|--------|--------|--------|--------|


E|--------|--------|--------|--------|--------|--------|--------|--------|
B|--------|--------|--------|--------|--------|--------|--------|--------|
G|--------|--------|--------|--------|--------|--------|--------|--------|
D|--------|--------|--------|--------|--------|--------|--------|--------|
A|--------|--------|--------|--------|--------|--------|--------|--------|
E|--------|--------|--------|--------|--------|--------|--------|--------|
A|--------|--------|--------|--------|--------|--------|--------|--------|





Track 8: Lead Guitar

E|--------|--------|--------|--------|--------|--------|--------|--------|--------|
B|--------|--------|--------|--------|--------|--------|--------|--------|--------|
G|--------|--------|--------|--------|--------|--------|--------|--------|--------|
D|--------|--------|--------|--------|--------|--------|--------|--------|--------|
A|--------|--------|--------|--------|--------|--------|--------|--------|--------|
E|--------|--------|--------|--------|--------|--------|--------|--------|--------|
A|--------|--------|--------|--------|--------|--------|--------|--------|--------|


E|--------|--------|--------|--------|--------|--------|--------|--------|--------|
B|--------|--------|--------|--------|--------|--------|--------|--------|--------|
G|--------|--------|--------|--------|--------|--------|--------|--------|--------|
D|--------|--------|--------|--------|--------|--------|--------|--------|--------|
A|--------|--------|--------|--------|--------|--------|--------|--------|--------|
E|--------|--------|--------|--------|--------|--------|--------|--------|--------|
A|--------|--------|--------|--------|--------|--------|--------|--------|--------|


E|--------|--------|--------|--------|--------|--------|--------|--------|--------|
B|--------|--------|--------|--------|--------|--------|--------|--------|--------|
G|--------|--------|--------|--------|--------|--------|--------|--------|--------|
D|--------|--------|--------|--------|--------|--------|--------|--------|--------|
A|--------|--------|--------|--------|--------|--------|--------|--------|--------|
E|--------|--------|--------|--------|--------|--------|--------|--------|--------|
A|--------|--------|--------|--------|--------|--------|--------|--------|--------|


E|--------|--------|--------|--------|--------|--------|--------|--------|--------|
B|--------|--------|--------|--------|--------|--------|--------|--------|--------|
G|--------|--------|--------|--------|--------|--------|--------|--------|--------|
D|--------|--------|--------|--------|--------|--------|--------|--------|--------|
A|--------|--------|--------|--------|--------|--------|--------|--------|--------|
E|--------|--------|--------|--------|--------|--------|--------|--------|--------|
A|--------|--------|--------|--------|--------|--------|--------|--------|--------|


E|--------|--------|--------|--------|--------|--------|--------|--------|--------|
B|--------|--------|--------|--------|--------|--------|--------|--------|--------|
G|--------|--------|--------|--------|--------|--------|--------|--------|--------|
D|--------|--------|--------|--------|--------|--------|--------|--------|--------|
A|--------|--------|--------|--------|--------|--------|--------|--------|--------|
E|--------|--------|--------|--------|--------|--------|--------|--------|--------|
A|--------|--------|--------|--------|--------|--------|--------|--------|--------|


E|--------|--------|--------|--------|--------|--------|--------|--------|--------|
B|--------|--------|--------|--------|--------|--------|--------|--------|--------|
G|--------|--------|--------|--------|--------|--------|--------|--------|--------|
D|--------|--------|--------|--------|--------|--------|--------|--------|--------|
A|--------|--------|--------|--------|--------|--------|--------|--------|--------|
E|--------|--------|--------|--------|--------|--------|--------|--------|--------|
A|--------|--------|--------|--------|--------|--------|--------|--------|--------|


E|--------|--------|--------|--------|--------|--------|--------|--------|--------|
B|--------|--------|--------|--------|--------|--------|--------|--------|--------|
G|--------|--------|--------|--------|--------|--------|--------|--------|--------|
D|--------|--------|--------|--------|--------|--------|--------|--------|--------|
A|--------|--------|--------|--------|--------|--------|--------|--------|--------|
E|--------|--------|--------|--------|--------|--------|--------|--------|--------|
A|--------|--------|--------|--------|--------|--------|--------|--------|--------|


E|--------|--------|--------|--------|--------|--------|--------|--------|--------|
B|--------|--------|--------|--------|--------|--------|--------|--------|--------|
G|--------|--------|--------|--------|--------|--------|--------|--------|--------|
D|--------|--------|--------|--------|--------|--------|--------|--------|--------|
A|--------|--------|--------|--------|--------|--------|--------|--------|--------|
E|--------|--------|--------|--------|--------|--------|--------|--------|--------|
A|--------|--------|--------|--------|--------|--------|--------|--------|--------|


E|--------|--------|--------|--------|--------|--------|--------|--------|--------|
B|--------|--------|--------|--------|--------|--------|--------|--------|--------|
G|--------|--------|--------|--------|--------|--------|--------|--------|--------|
D|--------|--------|--------|--------|--------|--------|--------|--------|--------|
A|--------|--------|--------|--------|--------|--------|--------|--------|--------|
E|--------|--------|--------|--------|--------|--------|--------|--------|--------|
A|--------|--------|--------|--------|--------|--------|--------|--------|--------|


E|--------|--------|--------|--------|--------|--------|--------|--------|--------|
B|--------|--------|--------|--------|--------|--------|--------|--------|--------|
G|--------|--------|--------|--------|--------|--------|--------|--------|--------|
D|--------|--------|--------|--------|--------|--------|--------|--------|--------|
A|--------|--------|--------|--------|--------|--------|--------|--------|--------|
E|--------|--------|--------|--------|--------|--------|--------|--------|--------|
A|--------|--------|--------|--------|--------|--------|--------|--------|--------|


E|--------|--------|--------|--------|--------|--------|--------|--------|--------|
B|--------|--------|--------|--------|--------|--------|--------|--------|--------|
G|--------|--------|--------|--------|--------|--------|--------|--------|--------|
D|--------|--------|--------|--------|--------|--------|--------|--------|--------|
A|--------|--------|--------|--------|--------|--------|--------|--------|--------|
E|--------|--------|--------|--------|--------|--------|--------|--------|--------|
A|--------|--------|--------|--------|--------|--------|--------|--------|--------|


E|--------|--------|--------|--------|--------|--------|--------|--------|--------|
B|--------|--------|--------|--------|--------|--------|--------|--------|--------|
G|--------|--------|--------|--------|--------|--------|--------|--------|--------|
D|--------|--------|--------|--------|--------|--------|--------|--------|--------|
A|--------|--------|--------|--------|--------|--------|--------|--------|--------|
E|--------|--------|--------|--------|--------|--------|--------|--------|--------|
A|--------|--------|--------|--------|--------|--------|--------|--------|--------|


E|--------|--------|--------|--------|--------|--------|--------|--------|--------|
B|--------|--------|--------|--------|--------|--------|--------|--------|--------|
G|--------|--------|--------|--------|--------|--------|--------|--------|--------|
D|--------|--------|--------|--------|--------|--------|--------|--------|--------|
A|--------|--------|--------|--------|--------|--------|--------|--------|--------|
E|--------|--------|--------|--------|--------|--------|--------|--------|--------|
A|--------|--------|--------|--------|--------|--------|--------|--------|--------|


E|--------|--------|--------|--------|--------|--------|--------|--------|--------|
B|--------|--------|--------|--------|--------|--------|--------|--------|--------|
G|--------|--------|--------|--------|--------|--------|--------|--------|--------|
D|--------|--------|--------|--------|--------|--------|--------|--------|--------|
A|--------|--------|--------|--------|--------|--------|--------|--------|--------|
E|--------|--------|--------|--------|--------|--------|--------|--------|--------|
A|--------|--------|--------|--------|--------|--------|--------|--------|--------|


E|--------|--------|--------|--------|--------|--------|--------|--------|--------|
B|--------|--------|--------|--------|--------|--------|--------|--------|--------|
G|--------|--------|--------|--------|--------|--------|--------|--------|--------|
D|--------|--------|--------|--------|--------|--------|--------|--------|--------|
A|--------|--------|--------|--------|--------|--------|--------|--------|--------|
E|--------|--------|--------|--------|--------|--------|--------|--------|--------|
A|--------|--------|--------|--------|--------|--------|--------|--------|--------|


E|--------|--------|--------|--------|--------|--------|--------|--------|--------|
B|--------|--------|--------|--------|--------|--------|--------|--------|--------|
G|--------|--------|--------|--------|--------|--------|--------|--------|--------|
D|--------|--------|--------|--------|--------|--------|--------|--------|--------|
A|--------|--------|--------|--------|--------|--------|--------|--------|--------|
E|--------|--------|--------|--------|--------|--------|--------|--------|--------|
A|--------|--------|--------|--------|--------|--------|--------|--------|--------|


E|--------|--------|--------|--------|--------|--------|--------|--------|--------|
B|--------|--------|--------|--------|--------|--------|--------|--------|--------|
G|--------|--------|--------|--------|--------|--------|--------|--------|--------|
D|--------|--------|--------|--------|--------|--------|--------|--------|--------|
A|--------|--------|--------|--------|--------|--------|--------|--------|--------|
E|--------|--------|--------|--------|--------|--------|--------|--------|--------|
A|--------|--------|--------|--------|--------|--------|--------|--------|--------|


E|--------|--------|--------|--------|--------|--------|--------|--------|--------|
B|--------|--------|--------|--------|--------|--------|--------|--------|--------|
G|--------|--------|--------|--------|--------|--------|--------|--------|--------|
D|--------|--------|--------|--------|--------|--------|--------|--------|--------|
A|--------|--------|--------|--------|--------|--------|--------|--------|--------|
E|--------|--------|--------|--------|--------|--------|--------|--------|--------|
A|--------|--------|--------|--------|--------|--------|--------|--------|--------|


E|--------|--------|--------|--------|--------|--------|--------|--------|--------|
B|--------|--------|--------|--------|--------|--------|--------|--------|--------|
G|--------|--------|--------|--------|--------|--------|--------|--------|--------|
D|--------|--------|--------|--------|--------|--------|--------|--------|--------|
A|--------|--------|--------|--------|--------|--------|--------|--------|--------|
E|--------|--------|--------|--------|--------|--------|--------|--------|--------|
A|--------|--------|--------|--------|--------|--------|--------|--------|--------|


E|--------|--------|--------|--------|--------|--------|--------|--------|--------|
B|--------|--------|--------|--------|--------|--------|--------|--------|--------|
G|--------|--------|--------|--------|--------|--------|--------|--------|--------|
D|--------|--------|--------|--------|--------|--------|--------|--------|--------|
A|--------|--------|--------|--------|--------|--------|--------|--------|--------|
E|--------|--------|--------|--------|--------|--------|--------|--------|--------|
A|--------|--------|--------|--------|--------|--------|--------|--------|--------|


E|--------|--------|--------|--------|--------|--------|--------|--------|--------|
B|--------|--------|--------|--------|--------|--------|--------|--------|--------|
G|--------|--------|--------|--------|--------|--------|--------|--------|--------|
D|--------|--------|--------|--------|--------|--------|--------|--------|--------|
A|--------|--------|--------|--------|--------|--------|--------|--------|--------|
E|--------|--------|--------|--------|--------|--------|--------|--------|--------|
A|--------|--------|--------|--------|--------|--------|--------|--------|--------|


E|--------|--------|--------|--------|--------|--------|--------|--------|--------|
B|--------|--------|--------|--------|--------|--------|--------|--------|--------|
G|--------|--------|--------|--------|--------|--------|--------|--------|--------|
D|--------|--------|--------|--------|--------|--------|--------|--------|--------|
A|--------|--------|--------|--------|--------|--------|--------|--------|--------|
E|--------|--------|--------|--------|--------|--------|--------|--------|--------|
A|--------|--------|--------|--------|--------|--------|--------|--------|--------|


E|--------|--------|--------|--------|--------|--------|--------|--------|--------|
B|--------|--------|--------|--------|--------|--------|--------|--------|--------|
G|--------|--------|--------|--------|--------|--------|--------|--------|--------|
D|--------|--------|--------|--------|--------|--------|--------|--------|--------|
A|--------|--------|--------|--------|--------|--------|--------|--------|--------|
E|--------|--------|--------|--------|--------|--------|--------|--------|--------|
A|--------|--------|--------|--------|--------|--------|--------|--------|--------|


E|--------|--------|--------|--------|--------|--------|--------|--------|--------|
B|--------|--------|--------|--------|--------|--------|--------|--------|--------|
G|--------|--------|--------|--------|--------|--------|--------|--------|--------|
D|--------|--------|--------|--------|--------|--------|--------|--------|--------|
A|--------|--------|--------|--------|--------|--------|--------|--------|--------|
E|--------|--------|--------|--------|--------|--------|--------|--------|--------|
A|--------|--------|--------|--------|--------|--------|--------|--------|--------|


E|--------|--------|--------|--------|--------|--------|--------|--------|--------|
B|--------|--------|--------|--------|--------|--------|--------|--------|--------|
G|--------|--------|--------|--------|--------|--------|--------|--------|--------|
D|--------|--------|--------|--------|--------|--------|--------|--------|--------|
A|--------|--------|--------|--------|--------|--------|--------|--------|--------|
E|--------|--------|--------|--------|--------|--------|--------|--------|--------|
A|--------|--------|--------|--------|--------|--------|--------|--------|--------|


E|--------|--------|--------|--------|--------|--------|--------|--------|--------|
B|--------|--------|--------|--------|--------|--------|--------|--------|--------|
G|--------|--------|--------|--------|--------|--------|--------|--------|--------|
D|--------|--------|--------|--------|--------|--------|--------|--------|--------|
A|--------|--------|--------|--------|--------|--------|--------|--------|--------|
E|--------|--------|--------|--------|--------|--------|--------|--------|--------|
A|--------|--------|--------|--------|--------|--------|--------|--------|--------|


E|--------|--------|--------|--------|--------|--------|--------|--------|--------|
B|--------|--------|--------|--------|--------|--------|--------|--------|--------|
G|--------|--------|--------|--------|--------|--------|--------|--------|--------|
D|--------|--------|--------|--------|--------|--------|--------|--------|--------|
A|--------|--------|--------|--------|--------|--------|--------|--------|--------|
E|--------|--------|--------|--------|--------|--------|--------|--------|--------|
A|--------|--------|--------|--------|--------|--------|--------|--------|--------|


E|--------|--------|--------|--------|--------|--------|
B|--------|--------|--------|--------|--------|--------|
G|--------|--------|--------|--------|--------|--------|
D|--------|--------|--------|--------|--------|--------|
A|--------|--------|--------|--------|--------|--------|
E|--------|--------|--------|--------|--------|--------|
A|--------|--------|--------|--------|--------|--------|





Track 9: Lead Guitar

E|--------|--------|--------|--------|--------|--------|--------|--------|--------|
B|--------|--------|--------|--------|--------|--------|--------|--------|--------|
G|--------|--------|--------|--------|--------|--------|--------|--------|--------|
D|--------|--------|--------|--------|--------|--------|--------|--------|--------|
A|--------|--------|--------|--------|--------|--------|--------|--------|--------|
E|--------|--------|--------|--------|--------|--------|--------|--------|--------|
A|--------|--------|--------|--------|--------|--------|--------|--------|--------|


E|--------|--------|--------|--------|--------|--------|--------|--------|--------|
B|--------|--------|--------|--------|--------|--------|--------|--------|--------|
G|--------|--------|--------|--------|--------|--------|--------|--------|--------|
D|--------|--------|--------|--------|--------|--------|--------|--------|--------|
A|--------|--------|--------|--------|--------|--------|--------|--------|--------|
E|--------|--------|--------|--------|--------|--------|--------|--------|--------|
A|--------|--------|--------|--------|--------|--------|--------|--------|--------|


E|--------|--------|--------|--------|--------|--------|--------|--------|--------|
B|--------|--------|--------|--------|--------|--------|--------|--------|--------|
G|--------|--------|--------|--------|--------|--------|--------|--------|--------|
D|--------|--------|--------|--------|--------|--------|--------|--------|--------|
A|--------|--------|--------|--------|--------|--------|--------|--------|--------|
E|--------|--------|--------|--------|--------|--------|--------|--------|--------|
A|--------|--------|--------|--------|--------|--------|--------|--------|--------|


E|--------|--------|--------|--------|--------|--------|--------|--------|--------|
B|--------|--------|--------|--------|--------|--------|--------|--------|--------|
G|--------|--------|--------|--------|--------|--------|--------|--------|--------|
D|--------|--------|--------|--------|--------|--------|--------|--------|--------|
A|--------|--------|--------|--------|--------|--------|--------|--------|--------|
E|--------|--------|--------|--------|--------|--------|--------|--------|--------|
A|--------|--------|--------|--------|--------|--------|--------|--------|--------|


E|--------|--------|--------|--------|--------|--------|--------|--------|--------|
B|--------|--------|--------|--------|--------|--------|--------|--------|--------|
G|--------|--------|--------|--------|--------|--------|--------|--------|--------|
D|--------|--------|--------|--------|--------|--------|--------|--------|--------|
A|--------|--------|--------|--------|--------|--------|--------|--------|--------|
E|--------|--------|--------|--------|--------|--------|--------|--------|--------|
A|--------|--------|--------|--------|--------|--------|--------|--------|--------|


E|--------|--------|--------|--------|--------|--------|--------|--------|--------|
B|--------|--------|--------|--------|--------|--------|--------|--------|--------|
G|--------|--------|--------|--------|--------|--------|--------|--------|--------|
D|--------|--------|--------|--------|--------|--------|--------|--------|--------|
A|--------|--------|--------|--------|--------|--------|--------|--------|--------|
E|--------|--------|--------|--------|--------|--------|--------|--------|--------|
A|--------|--------|--------|--------|--------|--------|--------|--------|--------|


E|--------|--------|--------|--------|--------|--------|--------|--------|--------|
B|--------|--------|--------|--------|--------|--------|--------|--------|--------|
G|--------|--------|--------|--------|--------|--------|--------|--------|--------|
D|--------|--------|--------|--------|--------|--------|--------|--------|--------|
A|--------|--------|--------|--------|--------|--------|--------|--------|--------|
E|--------|--------|--------|--------|--------|--------|--------|--------|--------|
A|--------|--------|--------|--------|--------|--------|--------|--------|--------|


E|--------|--------|--------|--------|--------|--------|--------|--------|--------|
B|--------|--------|--------|--------|--------|--------|--------|--------|--------|
G|--------|--------|--------|--------|--------|--------|--------|--------|--------|
D|--------|--------|--------|--------|--------|--------|--------|--------|--------|
A|--------|--------|--------|--------|--------|--------|--------|--------|--------|
E|--------|--------|--------|--------|--------|--------|--------|--------|--------|
A|--------|--------|--------|--------|--------|--------|--------|--------|--------|


E|--------|--------|--------|--------|--------|--------|--------|--------|--------|
B|--------|--------|--------|--------|--------|--------|--------|--------|--------|
G|--------|--------|--------|--------|--------|--------|--------|--------|--------|
D|--------|--------|--------|--------|--------|--------|--------|--------|--------|
A|--------|--------|--------|--------|--------|--------|--------|--------|--------|
E|--------|--------|--------|--------|--------|--------|--------|--------|--------|
A|--------|--------|--------|--------|--------|--------|--------|--------|--------|


E|--------|--------|--------|--------|--------|--------|--------|--------|--------|
B|--------|--------|--------|--------|--------|--------|--------|--------|--------|
G|--------|--------|--------|--------|--------|--------|--------|--------|--------|
D|--------|--------|--------|--------|--------|--------|--------|--------|--------|
A|--------|--------|--------|--------|--------|--------|--------|--------|--------|
E|--------|--------|--------|--------|--------|--------|--------|--------|--------|
A|--------|--------|--------|--------|--------|--------|--------|--------|--------|


E|--------|--------|--------|--------|--------|--------|--------|--------|--------|
B|--------|--------|--------|--------|--------|--------|--------|--------|--------|
G|--------|--------|--------|--------|--------|--------|--------|--------|--------|
D|--------|--------|--------|--------|--------|--------|--------|--------|--------|
A|--------|--------|--------|--------|--------|--------|--------|--------|--------|
E|--------|--------|--------|--------|--------|--------|--------|--------|--------|
A|--------|--------|--------|--------|--------|--------|--------|--------|--------|


E|--------|--------|--------|--------|--------|--------|--------|--------|--------|
B|--------|--------|--------|--------|--------|--------|--------|--------|--------|
G|--------|--------|--------|--------|--------|--------|--------|--------|--------|
D|--------|--------|--------|--------|--------|--------|--------|--------|--------|
A|--------|--------|--------|--------|--------|--------|--------|--------|--------|
E|--------|--------|--------|--------|--------|--------|--------|--------|--------|
A|--------|--------|--------|--------|--------|--------|--------|--------|--------|


E|--------|--------|--------|--------|--------|--------|--------|--------|--------|
B|--------|--------|--------|--------|--------|--------|--------|--------|--------|
G|--------|--------|--------|--------|--------|--------|--------|--------|--------|
D|--------|--------|--------|--------|--------|--------|--------|--------|--------|
A|--------|--------|--------|--------|--------|--------|--------|--------|--------|
E|--------|--------|--------|--------|--------|--------|--------|--------|--------|
A|--------|--------|--------|--------|--------|--------|--------|--------|--------|


E|--------|--------|--------|--------|--------|--------|--------|--------|--------|
B|--------|--------|--------|--------|--------|--------|--------|--------|--------|
G|--------|--------|--------|--------|--------|--------|--------|--------|--------|
D|--------|--------|--------|--------|--------|--------|--------|--------|--------|
A|--------|--------|--------|--------|--------|--------|--------|--------|--------|
E|--------|--------|--------|--------|--------|--------|--------|--------|--------|
A|--------|--------|--------|--------|--------|--------|--------|--------|--------|


E|--------|--------|--------|--------|--------|--------|--------|-------------|--------|
B|--------|--------|--------|--------|--------|--------|--------|-2-----4-----|--------|
G|--------|--------|--------|--------|--------|--------|-1------|-------------|--------|
D|--------|--------|--------|--------|--------|--------|--------|-------------|--------|
A|--------|--------|--------|--------|--------|--------|--------|-------------|--------|
E|--------|--------|--------|--------|--------|--------|--------|-------------|--------|
A|--------|--------|--------|--------|--------|--------|--------|-------------|--------|


E|--------|--------|--------|--------|--------|--------|--------|--------|--------|
B|--------|--------|--------|--------|--------|--------|--------|--------|--------|
G|--------|--------|--------|--------|--------|--------|--------|--------|--------|
D|--------|--------|--------|--------|--------|--------|--------|--------|--------|
A|--------|--------|--------|--------|--------|--------|--------|--------|--------|
E|--------|--------|--------|--------|--------|--------|--------|--------|--------|
A|--------|--------|--------|--------|--------|--------|--------|--------|--------|


E|--------|--------|--------|--------|--------|--------|--------|--------|--------|
B|--------|--------|--------|--------|--------|--------|--------|--------|--------|
G|--------|--------|--------|--------|--------|--------|--------|--------|--------|
D|--------|--------|--------|--------|--------|--------|--------|--------|--------|
A|--------|--------|--------|--------|--------|--------|--------|--------|--------|
E|--------|--------|--------|--------|--------|--------|--------|--------|--------|
A|--------|--------|--------|--------|--------|--------|--------|--------|--------|


E|--------|--------|--------|--------|--------|--------|--------|--------|--------|
B|--------|--------|--------|--------|--------|--------|--------|--------|--------|
G|--------|--------|--------|--------|--------|--------|--------|--------|--------|
D|--------|--------|--------|--------|--------|--------|--------|--------|--------|
A|--------|--------|--------|--------|--------|--------|--------|--------|--------|
E|--------|--------|--------|--------|--------|--------|--------|--------|--------|
A|--------|--------|--------|--------|--------|--------|--------|--------|--------|


E|--------|--------|--------|--------|--------|--------|--------|--------|--------|
B|--------|--------|--------|--------|--------|--------|--------|--------|--------|
G|--------|--------|--------|--------|--------|--------|--------|--------|--------|
D|--------|--------|--------|--------|--------|--------|--------|--------|--------|
A|--------|--------|--------|--------|--------|--------|--------|--------|--------|
E|--------|--------|--------|--------|--------|--------|--------|--------|--------|
A|--------|--------|--------|--------|--------|--------|--------|--------|--------|


E|--------|--------|--------|--------|--------|--------|--------|--------|--------|
B|--------|--------|--------|--------|--------|--------|--------|--------|--------|
G|--------|--------|--------|--------|--------|--------|--------|--------|--------|
D|--------|--------|--------|--------|--------|--------|--------|--------|--------|
A|--------|--------|--------|--------|--------|--------|--------|--------|--------|
E|--------|--------|--------|--------|--------|--------|--------|--------|--------|
A|--------|--------|--------|--------|--------|--------|--------|--------|--------|


E|--------|--------|--------|--------|--------|--------|--------|--------|--------|
B|--------|--------|--------|--------|--------|--------|--------|--------|--------|
G|--------|--------|--------|--------|--------|--------|--------|--------|--------|
D|--------|--------|--------|--------|--------|--------|--------|--------|--------|
A|--------|--------|--------|--------|--------|--------|--------|--------|--------|
E|--------|--------|--------|--------|--------|--------|--------|--------|--------|
A|--------|--------|--------|--------|--------|--------|--------|--------|--------|


E|--------|--------|--------|--------|--------|--------|--------|--------|--------|
B|--------|--------|--------|--------|--------|--------|--------|--------|--------|
G|--------|--------|--------|--------|--------|--------|--------|--------|--------|
D|--------|--------|--------|--------|--------|--------|--------|--------|--------|
A|--------|--------|--------|--------|--------|--------|--------|--------|--------|
E|--------|--------|--------|--------|--------|--------|--------|--------|--------|
A|--------|--------|--------|--------|--------|--------|--------|--------|--------|


E|--------|--------|--------|--------|--------|--------|--------|--------|--------|
B|--------|--------|--------|--------|--------|--------|--------|--------|--------|
G|--------|--------|--------|--------|--------|--------|--------|--------|--------|
D|--------|--------|--------|--------|--------|--------|--------|--------|--------|
A|--------|--------|--------|--------|--------|--------|--------|--------|--------|
E|--------|--------|--------|--------|--------|--------|--------|--------|--------|
A|--------|--------|--------|--------|--------|--------|--------|--------|--------|


E|--------|--------|--------|--------|--------|--------|--------|--------|--------|
B|--------|--------|--------|--------|--------|--------|--------|--------|--------|
G|--------|--------|--------|--------|--------|--------|--------|--------|--------|
D|--------|--------|--------|--------|--------|--------|--------|--------|--------|
A|--------|--------|--------|--------|--------|--------|--------|--------|--------|
E|--------|--------|--------|--------|--------|--------|--------|--------|--------|
A|--------|--------|--------|--------|--------|--------|--------|--------|--------|


E|--------|--------|--------|--------|--------|--------|--------|--------|--------|
B|--------|--------|--------|--------|--------|--------|--------|--------|--------|
G|--------|--------|--------|--------|--------|--------|--------|--------|--------|
D|--------|--------|--------|--------|--------|--------|--------|--------|--------|
A|--------|--------|--------|--------|--------|--------|--------|--------|--------|
E|--------|--------|--------|--------|--------|--------|--------|--------|--------|
A|--------|--------|--------|--------|--------|--------|--------|--------|--------|


E|--------|--------|--------|--------|--------|--------|--------|--------|--------|
B|--------|--------|--------|--------|--------|--------|--------|--------|--------|
G|--------|--------|--------|--------|--------|--------|--------|--------|--------|
D|--------|--------|--------|--------|--------|--------|--------|--------|--------|
A|--------|--------|--------|--------|--------|--------|--------|--------|--------|
E|--------|--------|--------|--------|--------|--------|--------|--------|--------|
A|--------|--------|--------|--------|--------|--------|--------|--------|--------|


E|--------|--------|--------|--------|--------|--------|--------|--------|--------|
B|--------|--------|--------|--------|--------|--------|--------|--------|--------|
G|--------|--------|--------|--------|--------|--------|--------|--------|--------|
D|--------|--------|--------|--------|--------|--------|--------|--------|--------|
A|--------|--------|--------|--------|--------|--------|--------|--------|--------|
E|--------|--------|--------|--------|--------|--------|--------|--------|--------|
A|--------|--------|--------|--------|--------|--------|--------|--------|--------|


E|--------|--------|--------|--------|--------|--------|
B|--------|--------|--------|--------|--------|--------|
G|--------|--------|--------|--------|--------|--------|
D|--------|--------|--------|--------|--------|--------|
A|--------|--------|--------|--------|--------|--------|
E|--------|--------|--------|--------|--------|--------|
A|--------|--------|--------|--------|--------|--------|





Track 10: Lead Guitar

E|--------|--------|--------|--------|--------|--------|--------|--------|--------|
B|--------|--------|--------|--------|--------|--------|--------|--------|--------|
G|--------|--------|--------|--------|--------|--------|--------|--------|--------|
D|--------|--------|--------|--------|--------|--------|--------|--------|--------|
A|--------|--------|--------|--------|--------|--------|--------|--------|--------|
E|--------|--------|--------|--------|--------|--------|--------|--------|--------|
A|--------|--------|--------|--------|--------|--------|--------|--------|--------|


E|--------|--------|--------|--------|--------|--------|--------|--------|--------|
B|--------|--------|--------|--------|--------|--------|--------|--------|--------|
G|--------|--------|--------|--------|--------|--------|--------|--------|--------|
D|--------|--------|--------|--------|--------|--------|--------|--------|--------|
A|--------|--------|--------|--------|--------|--------|--------|--------|--------|
E|--------|--------|--------|--------|--------|--------|--------|--------|--------|
A|--------|--------|--------|--------|--------|--------|--------|--------|--------|


E|--------|--------|--------|--------|--------|--------|--------|--------|--------|
B|--------|--------|--------|--------|--------|--------|--------|--------|--------|
G|--------|--------|--------|--------|--------|--------|--------|--------|--------|
D|--------|--------|--------|--------|--------|--------|--------|--------|--------|
A|--------|--------|--------|--------|--------|--------|--------|--------|--------|
E|--------|--------|--------|--------|--------|--------|--------|--------|--------|
A|--------|--------|--------|--------|--------|--------|--------|--------|--------|


E|--------|--------|--------|--------|--------|--------|--------|--------|--------|
B|--------|--------|--------|--------|--------|--------|--------|--------|--------|
G|--------|--------|--------|--------|--------|--------|--------|--------|--------|
D|--------|--------|--------|--------|--------|--------|--------|--------|--------|
A|--------|--------|--------|--------|--------|--------|--------|--------|--------|
E|--------|--------|--------|--------|--------|--------|--------|--------|--------|
A|--------|--------|--------|--------|--------|--------|--------|--------|--------|


E|--------|--------|--------|--------|--------|--------|--------|--------|--------|
B|--------|--------|--------|--------|--------|--------|--------|--------|--------|
G|--------|--------|--------|--------|--------|--------|--------|--------|--------|
D|--------|--------|--------|--------|--------|--------|--------|--------|--------|
A|--------|--------|--------|--------|--------|--------|--------|--------|--------|
E|--------|--------|--------|--------|--------|--------|--------|--------|--------|
A|--------|--------|--------|--------|--------|--------|--------|--------|--------|


E|--------|--------|--------|--------|--------|--------|--------|--------|--------|
B|--------|--------|--------|--------|--------|--------|--------|--------|--------|
G|--------|--------|--------|--------|--------|--------|--------|--------|--------|
D|--------|--------|--------|--------|--------|--------|--------|--------|--------|
A|--------|--------|--------|--------|--------|--------|--------|--------|--------|
E|--------|--------|--------|--------|--------|--------|--------|--------|--------|
A|--------|--------|--------|--------|--------|--------|--------|--------|--------|


E|--------|--------|--------|--------|--------|--------|--------|--------|--------|
B|--------|--------|--------|--------|--------|--------|--------|--------|--------|
G|--------|--------|--------|--------|--------|--------|--------|--------|--------|
D|--------|--------|--------|--------|--------|--------|--------|--------|--------|
A|--------|--------|--------|--------|--------|--------|--------|--------|--------|
E|--------|--------|--------|--------|--------|--------|--------|--------|--------|
A|--------|--------|--------|--------|--------|--------|--------|--------|--------|


E|--------|--------|--------|--------|--------|--------|--------|--------|--------|
B|--------|--------|--------|--------|--------|--------|--------|--------|--------|
G|--------|--------|--------|--------|--------|--------|--------|--------|--------|
D|--------|--------|--------|--------|--------|--------|--------|--------|--------|
A|--------|--------|--------|--------|--------|--------|--------|--------|--------|
E|--------|--------|--------|--------|--------|--------|--------|--------|--------|
A|--------|--------|--------|--------|--------|--------|--------|--------|--------|


E|--------|--------|--------|--------|--------|--------|--------|--------|--------|
B|--------|--------|--------|--------|--------|--------|--------|--------|--------|
G|--------|--------|--------|--------|--------|--------|--------|--------|--------|
D|--------|--------|--------|--------|--------|--------|--------|--------|--------|
A|--------|--------|--------|--------|--------|--------|--------|--------|--------|
E|--------|--------|--------|--------|--------|--------|--------|--------|--------|
A|--------|--------|--------|--------|--------|--------|--------|--------|--------|


E|--------|--------|--------|--------|--------|--------|--------|--------|--------|
B|--------|--------|--------|--------|--------|--------|--------|--------|--------|
G|--------|--------|--------|--------|--------|--------|--------|--------|--------|
D|--------|--------|--------|--------|--------|--------|--------|--------|--------|
A|--------|--------|--------|--------|--------|--------|--------|--------|--------|
E|--------|--------|--------|--------|--------|--------|--------|--------|--------|
A|--------|--------|--------|--------|--------|--------|--------|--------|--------|


E|--------|--------|--------|--------|--------|--------|--------|--------|--------|
B|--------|--------|--------|--------|--------|--------|--------|--------|--------|
G|--------|--------|--------|--------|--------|--------|--------|--------|--------|
D|--------|--------|--------|--------|--------|--------|--------|--------|--------|
A|--------|--------|--------|--------|--------|--------|--------|--------|--------|
E|--------|--------|--------|--------|--------|--------|--------|--------|--------|
A|--------|--------|--------|--------|--------|--------|--------|--------|--------|


E|--------|--------|--------|--------|--------|--------|--------|--------|--------|
B|--------|--------|--------|--------|--------|--------|--------|--------|--------|
G|--------|--------|--------|--------|--------|--------|--------|--------|--------|
D|--------|--------|--------|--------|--------|--------|--------|--------|--------|
A|--------|--------|--------|--------|--------|--------|--------|--------|--------|
E|--------|--------|--------|--------|--------|--------|--------|--------|--------|
A|--------|--------|--------|--------|--------|--------|--------|--------|--------|


E|--------|--------|--------|--------|--------|--------|--------|--------|--------|
B|--------|--------|--------|--------|--------|--------|--------|--------|--------|
G|--------|--------|--------|--------|--------|--------|--------|--------|--------|
D|--------|--------|--------|--------|--------|--------|--------|--------|--------|
A|--------|--------|--------|--------|--------|--------|--------|--------|--------|
E|--------|--------|--------|--------|--------|--------|--------|--------|--------|
A|--------|--------|--------|--------|--------|--------|--------|--------|--------|


E|--------|--------|--------|--------|--------|--------|--------|--------|--------|
B|--------|--------|--------|--------|--------|--------|--------|--------|--------|
G|--------|--------|--------|--------|--------|--------|--------|--------|--------|
D|--------|--------|--------|--------|--------|--------|--------|--------|--------|
A|--------|--------|--------|--------|--------|--------|--------|--------|--------|
E|--------|--------|--------|--------|--------|--------|--------|--------|--------|
A|--------|--------|--------|--------|--------|--------|--------|--------|--------|


E|--------|--------|--------|--------|--------|--------|--------|--------|--------|
B|--------|--------|--------|--------|--------|--------|--------|--------|--------|
G|--------|--------|--------|--------|--------|--------|--------|--------|--------|
D|--------|--------|--------|--------|--------|--------|--------|--------|--------|
A|--------|--------|--------|--------|--------|--------|--------|--------|--------|
E|--------|--------|--------|--------|--------|--------|--------|--------|--------|
A|--------|--------|--------|--------|--------|--------|--------|--------|--------|


E|--------|--------|--------|--------|--------|--------|--------|--------|--------|
B|--------|--------|--------|--------|--------|--------|--------|--------|--------|
G|--------|--------|--------|--------|--------|--------|--------|--------|--------|
D|--------|--------|--------|--------|--------|--------|--------|--------|--------|
A|--------|--------|--------|--------|--------|--------|--------|--------|--------|
E|--------|--------|--------|--------|--------|--------|--------|--------|--------|
A|--------|--------|--------|--------|--------|--------|--------|--------|--------|


E|--------|--------|--------|--------|--------|--------|--------|--------|--------|
B|--------|--------|--------|--------|--------|--------|--------|--------|--------|
G|--------|--------|--------|--------|--------|--------|--------|--------|--------|
D|--------|--------|--------|--------|--------|--------|--------|--------|--------|
A|--------|--------|--------|--------|--------|--------|--------|--------|--------|
E|--------|--------|--------|--------|--------|--------|--------|--------|--------|
A|--------|--------|--------|--------|--------|--------|--------|--------|--------|


E|--------|--------|--------|--------|--------|--------|--------|--------|--------|
B|--------|--------|--------|--------|--------|--------|--------|--------|--------|
G|--------|--------|--------|--------|--------|--------|--------|--------|--------|
D|--------|--------|--------|--------|--------|--------|--------|--------|--------|
A|--------|--------|--------|--------|--------|--------|--------|--------|--------|
E|--------|--------|--------|--------|--------|--------|--------|--------|--------|
A|--------|--------|--------|--------|--------|--------|--------|--------|--------|


E|--------|--------|--------|--------|--------|--------|--------|--------|--------|
B|--------|--------|--------|--------|--------|--------|--------|--------|--------|
G|--------|--------|--------|--------|--------|--------|--------|--------|--------|
D|--------|--------|--------|--------|--------|--------|--------|--------|--------|
A|--------|--------|--------|--------|--------|--------|--------|--------|--------|
E|--------|--------|--------|--------|--------|--------|--------|--------|--------|
A|--------|--------|--------|--------|--------|--------|--------|--------|--------|


E|--------|--------|--------|--------|--------|--------|--------|--------|--------|
B|--------|--------|--------|--------|--------|--------|--------|--------|--------|
G|--------|--------|--------|--------|--------|--------|--------|--------|--------|
D|--------|--------|--------|--------|--------|--------|--------|--------|--------|
A|--------|--------|--------|--------|--------|--------|--------|--------|--------|
E|--------|--------|--------|--------|--------|--------|--------|--------|--------|
A|--------|--------|--------|--------|--------|--------|--------|--------|--------|


E|--------|--------|--------|--------|--------|--------|--------|--------|--------|
B|--------|--------|--------|--------|--------|--------|--------|--------|--------|
G|--------|--------|--------|--------|--------|--------|--------|--------|--------|
D|--------|--------|--------|--------|--------|--------|--------|--------|--------|
A|--------|--------|--------|--------|--------|--------|--------|--------|--------|
E|--------|--------|--------|--------|--------|--------|--------|--------|--------|
A|--------|--------|--------|--------|--------|--------|--------|--------|--------|


E|--------|--------|--------|--------|--------|--------|--------|--------|--------|
B|--------|--------|--------|--------|--------|--------|--------|--------|--------|
G|--------|--------|--------|--------|--------|--------|--------|--------|--------|
D|--------|--------|--------|--------|--------|--------|--------|--------|--------|
A|--------|--------|--------|--------|--------|--------|--------|--------|--------|
E|--------|--------|--------|--------|--------|--------|--------|--------|--------|
A|--------|--------|--------|--------|--------|--------|--------|--------|--------|


E|--------|--------|--------|--------|--------|--------|--------|--------|--------|
B|--------|--------|--------|--------|--------|--------|--------|--------|--------|
G|--------|--------|--------|--------|--------|--------|--------|--------|--------|
D|--------|--------|--------|--------|--------|--------|--------|--------|--------|
A|--------|--------|--------|--------|--------|--------|--------|--------|--------|
E|--------|--------|--------|--------|--------|--------|--------|--------|--------|
A|--------|--------|--------|--------|--------|--------|--------|--------|--------|


E|--------|--------|--------|--------|--------|--------|--------|--------|--------|
B|--------|--------|--------|--------|--------|--------|--------|--------|--------|
G|--------|--------|--------|--------|--------|--------|--------|--------|--------|
D|--------|--------|--------|--------|--------|--------|--------|--------|--------|
A|--------|--------|--------|--------|--------|--------|--------|--------|--------|
E|--------|--------|--------|--------|--------|--------|--------|--------|--------|
A|--------|--------|--------|--------|--------|--------|--------|--------|--------|


E|--------|--------|--------|--------|--------|--------|--------|--------|--------|
B|--------|--------|--------|--------|--------|--------|--------|--------|--------|
G|--------|--------|--------|--------|--------|--------|--------|--------|--------|
D|--------|--------|--------|--------|--------|--------|--------|--------|--------|
A|--------|--------|--------|--------|--------|--------|--------|--------|--------|
E|--------|--------|--------|--------|--------|--------|--------|--------|--------|
A|--------|--------|--------|--------|--------|--------|--------|--------|--------|


E|--------|--------|--------|--------|--------|--------|--------|--------|--------|
B|--------|--------|--------|--------|--------|--------|--------|--------|--------|
G|--------|--------|--------|--------|--------|--------|--------|--------|--------|
D|--------|--------|--------|--------|--------|--------|--------|--------|--------|
A|--------|--------|--------|--------|--------|--------|--------|--------|--------|
E|--------|--------|--------|--------|--------|--------|--------|--------|--------|
A|--------|--------|--------|--------|--------|--------|--------|--------|--------|


E|--------|--------|--------|--------|--------|--------|--------|--------|--------|
B|--------|--------|--------|--------|--------|--------|--------|--------|--------|
G|--------|--------|--------|--------|--------|--------|--------|--------|--------|
D|--------|--------|--------|--------|--------|--------|--------|--------|--------|
A|--------|--------|--------|--------|--------|--------|--------|--------|--------|
E|--------|--------|--------|--------|--------|--------|--------|--------|--------|
A|--------|--------|--------|--------|--------|--------|--------|--------|--------|


E|--------|--------|--------|--------|--------|--------|
B|--------|--------|--------|--------|--------|--------|
G|--------|--------|--------|--------|--------|--------|
D|--------|--------|--------|--------|--------|--------|
A|--------|--------|--------|--------|--------|--------|
E|--------|--------|--------|--------|--------|--------|
A|--------|--------|--------|--------|--------|--------|





Track 11: Bass

F#|----------------------------------|----------------------------------|---------------------------|
C#|----------------------------------|----------------------------------|---------------------------|
G#|----------------------------------|----------------------------------|---------------------------|
D#|-2----2---2---2---2---2--2--2--2--|-3----3---3---3---3---3--3--3--3--|-0---2---2----0---2---2----|


F#|---------------------------|----------------------------------|----------------------------------|
C#|---------------------------|----------------------------------|----------------------------------|
G#|---------------------------|----------------------------------|----------------------------------|
D#|-0---2---2----0---2---2----|-2----2---2---2---2---2--2--2--2--|-3----3---3---3---3---3--3--3--3--|


F#|-------------|-------------|-------------------------------------------------|-------------------------------------------------|
C#|-4-----------|-------------|-------------------------------------------------|-------------------------------------------------|
G#|-------4-----|-------3-----|-------------------------------------------------|-------------------------------------------------|
D#|-------------|-5-----------|-2--2--2--2--2--2--2--2--2--2--2--2--2--2--2--2--|-2--2--2--2--2--2--2--2--2--2--2--2--2--2--2--2--|


F#|-------------------------------------------------|-------------------------------------------------|
C#|-------------------------------------------------|-------------------------------------------------|
G#|-------------------------------------------------|-------------------------------------------------|
D#|-2--2--2--2--2--2--2--2--2--2--2--2--2--2--2--2--|-2--2--2--2--2--2--2--2--2--2--2--2--2--2--2--2--|


F#|-------------|-------------|--------|--------|--------|--------|--------|--------|
C#|-4-----------|-------------|--------|--------|--------|--------|--------|--------|
G#|-------4-----|-------3-----|--------|--------|--------|--------|--------|--------|
D#|-------------|-5-----------|-2------|-2------|-2------|-2------|-2------|-2------|


F#|--------|--------|--------|--------|---------------------------|---------------------------|
C#|--------|--------|--------|--------|---------------------------|---------------------------|
G#|--------|--------|--------|--------|---------------------------|---------------------------|
D#|-2------|-2------|-2------|-2------|-0---2---2----0---2---2----|-0---2---2----0---2---2----|


F#|-------------------------------------------------|-------------------------------------------------|
C#|-------------------------------------------------|-------------------------------------------------|
G#|-3--3--3--3--3--3--3--3--3--3--3--3--3--3--3--3--|-3--3--3--3--3--3--3--3--3--3--3--3--3--3--3--3--|
D#|-------------------------------------------------|-------------------------------------------------|


F#|-------------------------------------------------|-------------------------------------------------|
C#|-------------------------------------------------|-------------------------------------------------|
G#|-------------------------------------------------|-------------------------------------------------|
D#|-2--2--2--2--2--2--2--2--2--2--2--2--2--2--2--2--|-2--2--2--2--2--2--2--2--2--2--2--2--2--2--2--2--|


F#|-------------------------------------------------|---------------------|-------------------------------------------------|
C#|-------------------------------------------------|-2----1--------------|-------------------------------------------------|
G#|-------------------------------------------------|-----------2----0----|-------------------------------------------------|
D#|-2--2--2--2--2--2--2--2--2--2--2--2--2--2--2--2--|---------------------|-2--2--2--2--2--2--2--2--2--2--2--2--2--2--2--2--|


F#|-------------------------------------------------|-------------------------------------------------|
C#|-------------------------------------------------|-------------------------------------------------|
G#|-------------------------------------------------|-------------------------------------------------|
D#|-2--2--2--2--2--2--2--2--2--2--2--2--2--2--2--2--|-2--2--2--2--4--4--4--4--5--5--5--5--7--7--7--7--|


F#|-------------------------------------------------|---------------------------------------------|
C#|-------------------------------------------------|---------------------------------------------|
G#|-9--9--9--9--8--8--8--8--------------0--0--0--0--|---------------------------------------------|
D#|-------------------------9--9--9--9--------------|-7---8---8--8--8--8--8--8--8--8--8--8--8--8--|


F#|-------------------------------------------------|---------------------------------------------|
C#|-------------------------------------------------|---------------------------------------------|
G#|-------------------------------------------------|---------------------------------------------|
D#|-8--8--8--8--8--8--8--8--8--8--8--8--8--8--8--8--|-8---7---7--7--7--7--7--7--7--7--7--7--7--7--|


F#|-------------------------------------------------|---------------------------------------------|
C#|-------------------------------------------------|---------------------------------------------|
G#|-------------------------------------------------|---------------------------------------------|
D#|-7--7--7--7--7--7--7--7--7--7--7--7--7--7--7--7--|-7---8---8--8--8--8--8--8--8--8--8--8--8--8--|


F#|-------------------------------------------------|-------------|-------------|---------------------------------------------|
C#|-------------------------------------------------|-------------|-------------|---------------------------------------------|
G#|-------------------------------------------------|-9-----------|-0-----------|---------------------------------------------|
D#|-8--8--8--8--8--8--8--8--8--8--8--8--8--8--8--8--|-------9-----|-------7-----|-7---8---8--8--8--8--8--8--8--8--8--8--8--8--|


F#|-------------------------------------------------|---------------------------------------------|
C#|-------------------------------------------------|---------------------------------------------|
G#|-------------------------------------------------|---------------------------------------------|
D#|-8--8--8--8--8--8--8--8--8--8--8--8--8--8--8--8--|-8---7---7--7--7--7--7--7--7--7--7--7--7--7--|


F#|-------------------------------------------------|---------------------------------------------|
C#|-------------------------------------------------|---------------------------------------------|
G#|-------------------------------------------------|---------------------------------------------|
D#|-7--7--7--7--7--7--7--7--7--7--7--7--7--7--7--7--|-7---8---8--8--8--8--8--8--8--8--8--8--8--8--|


F#|-------------------------------------------------|-------------|-------------|-------------|
C#|-------------------------------------------------|-------------|-------------|-------------|
G#|-------------------------------------------------|-9-----------|-0-----------|-------------|
D#|-8--8--8--8--8--8--8--8--8--8--8--8--8--8--8--8--|-------9-----|-------7-----|-2------2----|


F#|-------------|-------------|-------------|-------------|-------------|-------------|
C#|-------------|-------------|-------------|-------------|-------------|-------------|
G#|-------------|-------------|-0-----------|-------------|-3------3----|-4------4----|
D#|-2------2----|-2------2----|-------0-----|-2------2----|-------------|-------------|


F#|----------------|-----------------|-----------------|------------------------------|
C#|----------------|-----------------|-----------------|------------------------------|
G#|-4------5---4---|-5-----5----5----|-----------------|------------------------------|
D#|----------------|-----------------|-7-----7----7----|-9---9---9---9---9----9---9---|


F#|---------------------|----------------------------------|----------------------------------|
C#|---------------------|----------------------------------|-0----0---0---0--0--0--0--0---0---|
G#|---------------------|----------------------------------|----------------------------------|
D#|-9----9----9----9----|-2----2---2---2--2--2--2--2---2---|----------------------------------|


F#|----------------------------------|---------------------------------|----------------------------------|
C#|----------------------------------|---------------------------------|----------------------------------|
G#|-4----4---4---4--4--4--4--4---4---|---------------------------------|----------------------------------|
D#|----------------------------------|-5---5---5---5---0---0---0---0---|-2----2---2---2--2--2--2--2---2---|


F#|----------------------------------|----------------------------------|---------------------------------|
C#|----------------------------------|----------------------------------|---------------------------------|
G#|-3----3---3---3--3--3--3--3---3---|-4----4---4---4--4--4--4--4---4---|-4---4---4---4---4---4---4---4---|
D#|----------------------------------|----------------------------------|---------------------------------|


F#|-------------------------------------------------|-------------------------------------------------|
C#|-------------------------------------------------|-------------------------------------------------|
G#|-5--5--5--5--5--5--5--5--5--5--5--5--5--5--5--5--|-------------------------------------------------|
D#|-------------------------------------------------|-7--7--7--7--7--7--7--7--7--7--7--7--7--7--7--7--|


F#|-------------------------------------------------|-------------------------------------------------|
C#|-------------------------------------------------|-------------------------------------------------|
G#|-------------------------------------------------|-------------------------------------------------|
D#|-9--9--9--9--9--9--9--9--9--9--9--9--9--9--9--9--|-9--9--9--9--9--9--9--9--9--9--9--9--9--9--9--9--|


F#|-------------------------------------------------|-------------------------------------------------|
C#|-------------------------------------------------|-------------------------------------------------|
G#|-------------------------------------------------|-------------------------------------------------|
D#|-10-10-10-10-10-10-10-10-10-10-10-10-10-10-10-10-|-7--7--7--7--7--7--7--7--7--7--7--7--7--7--7--7--|


F#|-------------------------------------------------|---------------------------------|
C#|-------------------------------------------------|---------------------------------|
G#|-------------------------------------------------|---------------------------------|
D#|-9--9--9--9--9--9--9--9--9--9--9--9--9--9--9--9--|-9---9---9---9---9---9---7---5---|


F#|-------------------------------------------------|-------------------------------------------------|
C#|-------------------------------------------------|-------------------------------------------------|
G#|-------------------------------------------------|-------------------------------------------------|
D#|-2--2--2--2--2--2--2--2--2--2--2--2--2--2--2--2--|-2--2--2--2--2--2--2--2--2--2--2--2--2--2--2--2--|


F#|-------------------------------------------------|-------------------------------------------------|
C#|-------------------------------------------------|-------------------------------------------------|
G#|-------------------------------------------------|-------------------------------------------------|
D#|-2--2--2--2--2--2--2--2--2--2--2--2--2--2--2--2--|-2--2--2--2--2--2--2--2--2--2--2--2--2--2--2--2--|


F#|-------------|-------------|-------------------------------------------------|-------------------------------------------------|
C#|-4-----------|-------------|-------------------------------------------------|-------------------------------------------------|
G#|-------4-----|-------------|-------------------------------------------------|-------------------------------------------------|
D#|-------------|-5-----7-----|-9--9--9--9--9--9--9--9--9--9--9--9--9--9--9--9--|-9--9--9--9--9--9--9--9--9--9--9--9--9--9--9--9--|


F#|-------------------------------------------------|-------------------------------------------------|
C#|-------------------------------------------------|-------------------------------------------------|
G#|-------------------------------------------------|-------------------------------------------------|
D#|-9--9--9--9--9--9--9--9--9--9--9--9--9--9--9--9--|-3--3--3--3--3--3--3--3--3--3--3--3--3--3--3--3--|


F#|-------------------------------------------------|-------------------------------------------------|
C#|-------------------------------------------------|-------------------------------------------------|
G#|-4--4--4--4--4--4--4--4--4--4--4--4--4--4--4--4--|-4--4--4--4--4--4--4--4--4--4--4--4--4--4--4--4--|
D#|-------------------------------------------------|-------------------------------------------------|


F#|-------------------------------------------------|-------------------------------------------------|
C#|-------------------------------------------------|-------------------------------------------------|
G#|-4--4--4--4--4--4--4--4--4--4--4--4--4--4--4--4--|-5--5--5--5--5--5--5--5--7--7--7--7--7--7--7--7--|
D#|-------------------------------------------------|-------------------------------------------------|


F#|-------------------------------------------------|-------------------------------------------------|
C#|-------------------------------------------------|-0--0--0--0--0--0--0--0--0--0--0--0--0--0--0--0--|
G#|-------------------------------------------------|-------------------------------------------------|
D#|-2--2--2--2--2--2--2--2--2--2--2--2--2--2--2--2--|-------------------------------------------------|


F#|-------------------------------------------------|-------------------------------------------------|
C#|-------------------------------------------------|-------------------------------------------------|
G#|-------------------------------------------------|-4--4--4--4--4--4--4--4--4--4--4--4--4--4--4--4--|
D#|-4--4--4--4--4--4--4--4--4--4--4--4--4--4--4--4--|-------------------------------------------------|


F#|-------------------------------------------------|-------------------------------------------------|
C#|-------------------------------------------------|-0--0--0--0--0--0--0--0--0--0--0--0--0--0--0--0--|
G#|-------------------------------------------------|-------------------------------------------------|
D#|-2--2--2--2--2--2--2--2--2--2--2--2--2--2--2--2--|-------------------------------------------------|


F#|-------------------------------------------------|-------------------------------------------------|
C#|-------------------------------------------------|-------------------------------------------------|
G#|-------------------------------------------------|-4--4--4--4--4--4--4--4--4--4--4--4--4--4--4--4--|
D#|-4--4--4--4--4--4--4--4--4--4--4--4--4--4--4--4--|-------------------------------------------------|


F#|-------------------------------------------------|-------------------------------------------------|
C#|-------------------------------------------------|-------------------------------------------------|
G#|-------------------------------------------------|-------------------------------------------------|
D#|-2--2--2--2--2--2--2--2--2--2--2--2--2--2--2--2--|-2--2--2--2--2--2--2--2--2--2--2--2--2--2--2--2--|


F#|---------------------------------|---------------------------------|-------------------------------------------------|
C#|---------------------------------|---------------------------------|-------------------------------------------------|
G#|-0---0---0---0---0---0---0---0---|---------------------------------|-------------------------------------------------|
D#|---------------------------------|-0---0---0---0---1---1---1---1---|-2--2--2--2--2--2--2--2--2--2--2--2--2--2--2--2--|


F#|-----------------------------------|---------------------------------|---------------------------------|
C#|-----------------------------------|---------------------------------|---------------------------------|
G#|-----------------------------------|---------------------------------|-7---7---7---7---7---7---7---7---|
D#|-2--2--2--2--2--2--2--2--2----4----|-5---5---5---5---5---5---5---5---|---------------------------------|


F#|---------------------------------|---------------------------------|---------------------------------|
C#|---------------------------------|---------------------------------|---------------------------------|
G#|-5---5---5---5---5---5---5---5---|-5---5---5---5---5---5---5---5---|-5---5---5---5---5---5---5---5---|
D#|---------------------------------|---------------------------------|---------------------------------|


F#|---------------------------------|-----------------------------------------|-----------------------------------------|
C#|---------------------------------|-----------------------------------------|-----------------------------------------|
G#|-5---5---5---5---5---5---5---5---|-4---4---4--4--4--4--5---5---5--5--5--5--|-4---4---4--4--4--4--3---3---3--3--3--3--|
D#|---------------------------------|-----------------------------------------|-----------------------------------------|


F#|-----------------------------------------|-----------------------------------------|
C#|-----------------------------------------|-----------------------------------------|
G#|-4---4---4--4--4--4--5---5---5--5--5--5--|-4---4---4--4--4--4--3---3---3--3--3--3--|
D#|-----------------------------------------|-----------------------------------------|


F#|---------------------------------|---------------------------------|---------------------------------|
C#|---------------------------------|---------------------------------|---------------------------------|
G#|-0---0---0---0---0---0---0---0---|---------------------------------|---------------------------------|
D#|---------------------------------|-0---0---0---0---0---0---0---0---|-2---2---2---2---2---2---2---2---|


F#|---------------------------------|---------------------------------|---------------------------------|
C#|---------------------------------|---------------------------------|---------------------------------|
G#|---------------------------------|-0---0---0---0---0---0---0---0---|---------------------------------|
D#|-2---2---2---2---2---2---2---2---|---------------------------------|-0---0---0---0---0---0---0---0---|


F#|-------------|-------------|-------------|-------------|-------------|-------------|
C#|-------------|-------------|-------------|-------------|-------------|-------------|
G#|-------------|-------------|-------------|-0-----------|-------------|-3------3----|
D#|-2------2----|-2------2----|-2------2----|-------0-----|-2------2----|-------------|


F#|-------------|----------------|-----------------|-----------------|------------------------------|
C#|-------------|----------------|-----------------|-----------------|------------------------------|
G#|-4------4----|-4------5---4---|-5-----5----5----|-----------------|------------------------------|
D#|-------------|----------------|-----------------|-7-----7----7----|-9---9---9---9---9----9---9---|


F#|---------------------|----------------------------------|----------------------------------|
C#|---------------------|----------------------------------|-0----0---0---0--0--0--0--0---0---|
G#|---------------------|----------------------------------|----------------------------------|
D#|-9----9----9----9----|-2----2---2---2--2--2--2--2---2---|----------------------------------|


F#|----------------------------------|---------------------------------|----------------------------------|
C#|----------------------------------|---------------------------------|----------------------------------|
G#|-4----4---4---4--4--4--4--4---4---|---------------------------------|----------------------------------|
D#|----------------------------------|-5---5---5---5---0---0---0---0---|-2----2---2---2--2--2--2--2---2---|


F#|----------------------------------|----------------------------------|---------------------------------|
C#|----------------------------------|----------------------------------|---------------------------------|
G#|-3----3---3---3--3--3--3--3---3---|-4----4---4---4--4--4--4--4---4---|-4---4---4---4---4---4---4---4---|
D#|----------------------------------|----------------------------------|---------------------------------|


F#|-------------------------------------------------|-------------------------------------------------|
C#|-------------------------------------------------|-------------------------------------------------|
G#|-5--5--5--5--5--5--5--5--5--5--5--5--5--5--5--5--|-------------------------------------------------|
D#|-------------------------------------------------|-7--7--7--7--7--7--7--7--7--7--7--7--7--7--7--7--|


F#|-------------------------------------------------|-------------------------------------------------|
C#|-------------------------------------------------|-------------------------------------------------|
G#|-------------------------------------------------|-------------------------------------------------|
D#|-9--9--9--9--9--9--9--9--9--9--9--9--9--9--9--9--|-9--9--9--9--9--9--9--9--9--9--9--9--9--9--9--9--|


F#|-------------------------------------------------|-------------------------------------------------|
C#|-------------------------------------------------|-------------------------------------------------|
G#|-------------------------------------------------|-------------------------------------------------|
D#|-10-10-10-10-10-10-10-10-10-10-10-10-10-10-10-10-|-7--7--7--7--7--7--7--7--7--7--7--7--7--7--7--7--|


F#|-------------------------------------------------|---------------------------------|
C#|-------------------------------------------------|---------------------------------|
G#|-------------------------------------------------|---------------------------------|
D#|-9--9--9--9--9--9--9--9--9--9--9--9--9--9--9--9--|-9---9---9---9---9---9---7---5---|


F#|-------------------------------------------------|-----------------------------|
C#|-------------------------------------------------|-------------------------2---|
G#|-------------------------------------------------|------0----2---3----4--------|
D#|-2--2--2--2--2--2--2--2--2--2--2--2--2--2--2--2--|-2---------------------------|


F#|-------------------------------------------------|-----------------------------|
C#|-------------------------------------------------|-------------------------2---|
G#|-------------------------------------------------|------0----2---3----4--------|
D#|-2--2--2--2--2--2--2--2--2--2--2--2--2--2--2--2--|-2---------------------------|


F#|-------------------------------------------------|-------------------------------------------------|
C#|-------------------------------------------------|-------------------------------------------------|
G#|-2--2--2--2--2--2--2--2--2--2--2--2--2--2--2--2--|-2--2--2--2--2--2--2--2--2--2--2--2--2--2--2--2--|
D#|-------------------------------------------------|-------------------------------------------------|


F#|-------------------------------------------------|-------------------------------------------------|
C#|-------------------------------------------------|-------------------------------------------------|
G#|-------------------------------------------------|-------------------------------------------------|
D#|-2--2--2--2--2--2--2--2--2--2--2--2--2--2--2--2--|-2--2--2--2--2--2--2--2--2--2--2--2--2--2--2--2--|


F#|-------------------------------------------------|-------------------------------------------------|
C#|-------------------------------------------------|-------------------------------------------------|
G#|-4--4--4--4--4--4--4--4--4--4--4--4--4--4--4--4--|-4--4--4--4--4--4--4--4--4--4--4--4--4--4--4--4--|
D#|-------------------------------------------------|-------------------------------------------------|


F#|-------------------------------------------------|-------------------------------------------------|
C#|-------------------------------------------------|-------------------------------------------------|
G#|-2--2--2--2--2--2--2--2--2--2--2--2--2--2--2--2--|-2--2--2--2--2--2--2--2--2--2--2--2--2--2--2--2--|
D#|-------------------------------------------------|-------------------------------------------------|


F#|-------------------------------------------------|-----------------------------|
C#|-------------------------------------------------|-------------------------2---|
G#|-------------------------------------------------|------0----2---3----4--------|
D#|-2--2--2--2--2--2--2--2--2--2--2--2--2--2--2--2--|-2---------------------------|


F#|-------------------------------------------------|-----------------------------|
C#|-------------------------------------------------|-------------------------2---|
G#|-------------------------------------------------|------0----2---3----4--------|
D#|-2--2--2--2--2--2--2--2--2--2--2--2--2--2--2--2--|-2---------------------------|


F#|-------------------------------------------------|-------------------------------------------------|
C#|-------------------------------------------------|-------------------------------------------------|
G#|-------------------------------------------------|-------------------------------------------------|
D#|-2--2--2--2--2--2--2--2--2--2--2--2--2--2--2--2--|-2--2--2--2--2--2--2--2--2--2--2--2--2--2--2--2--|


F#|-------------------------------------------------|-------------------------------------------------|
C#|-0--0--0--0--0--0--0--0--0--0--0--0--0--0--0--0--|-0--0--0--0--0--0--0--0--0--0--0--0--0--0--0--0--|
G#|-------------------------------------------------|-------------------------------------------------|
D#|-------------------------------------------------|-------------------------------------------------|


F#|-------------------------------------------------|-------------------------------------------------|
C#|-1--1--1--1--1--1--1--1--1--1--1--1--1--1--1--1--|-1--1--1--1--1--1--1--1--1--1--1--1--1--1--1--1--|
G#|-------------------------------------------------|-------------------------------------------------|
D#|-------------------------------------------------|-------------------------------------------------|


F#|-------------------------------------------------|-------------------------------------------------|
C#|-2--2--2--2--2--2--2--2--2--2--2--2--2--2--2--2--|-2--2--2--2--2--2--2--2--2--2--2--2--2--2--2--2--|
G#|-------------------------------------------------|-------------------------------------------------|
D#|-------------------------------------------------|-------------------------------------------------|


F#|-------------------------------------------------|-------------------------------------------------|
C#|-------------------------------------------------|-------------------------------------------------|
G#|-------------------------------------------------|-------------------------------------------------|
D#|-2--2--2--2--2--2--2--2--2--2--2--2--2--2--2--2--|-2--2--2--2--2--2--2--2--2--2--2--2--2--2--2--2--|


F#|-------------------------------------------------|-------------------------------------------------|
C#|-0--0--0--0--0--0--0--0--0--0--0--0--0--0--0--0--|-0--0--0--0--0--0--0--0--0--0--0--0--0--0--0--0--|
G#|-------------------------------------------------|-------------------------------------------------|
D#|-------------------------------------------------|-------------------------------------------------|


F#|-------------------------------------------------|-------------------------------------------------|
C#|-------------------------------------------------|-------------------------------------------------|
G#|-2--2--2--2--2--2--2--2--2--2--2--2--2--2--2--2--|-2--2--2--2--2--2--2--2--2--2--2--2--2--2--2--2--|
D#|-------------------------------------------------|-------------------------------------------------|


F#|---------------------------------|---------------------------------|-------------------------------------------------|
C#|---------------------------------|---------------------------------|-------------------------------------------------|
G#|-4---4---4---4---2---2---2---2---|-0---0---0---0-------------------|-------------------------------------------------|
D#|---------------------------------|-----------------4---4---4---4---|-2--2--2--2--2--2--2--2--2--2--2--2--2--2--2--2--|


F#|-------------------------------------------------|-------------------------------------------------|
C#|-2--2--2--2--2--2--2--2--2--2--2--2--2--2--2--2--|-0--0--0--0--0--0--0--0--0--0--0--0--0--0--0--0--|
G#|-------------------------------------------------|-------------------------------------------------|
D#|-------------------------------------------------|-------------------------------------------------|


F#|-------------------------------------------------|-------------------------------------------------|
C#|-------------------------------------------------|-------------------------------------------------|
G#|-4--4--4--4--4--4--4--4--4--4--4--4--4--4--4--4--|-------------------------------------------------|
D#|-------------------------------------------------|-2--2--2--2--2--2--2--2--2--2--2--2--2--2--2--2--|


F#|-------------------------------------------------|-------------------------------------------------|
C#|-2--2--2--2--2--2--2--2--2--2--2--2--2--2--2--2--|-0--0--0--0--0--0--0--0--0--0--0--0--0--0--0--0--|
G#|-------------------------------------------------|-------------------------------------------------|
D#|-------------------------------------------------|-------------------------------------------------|


F#|-------------------------------------------------|-------------------------------------------------|
C#|-------------------------------------------------|-------------------------------------------------|
G#|-4--4--4--4--4--4--4--4--4--4--4--4--4--4--4--4--|-------------------------------------------------|
D#|-------------------------------------------------|-2--2--2--2--2--2--2--2--2--2--2--2--2--2--2--2--|


F#|-------------------------------------------------|-------------------------------------------------|
C#|-2--2--2--2--2--2--2--2--2--2--2--2--2--2--2--2--|-------------------------------------------------|
G#|-------------------------------------------------|-------------------------------------------------|
D#|-------------------------------------------------|-2--2--2--2--2--2--2--2--2--2--2--2--2--2--2--2--|


F#|-------------------------------------------------|---------------------------------|
C#|-2--2--2--2--2--2--2--2--2--2--2--2--2--2--2--2--|-0---0---0---0-------------------|
G#|-------------------------------------------------|-----------------2---2---2---2---|
D#|-------------------------------------------------|---------------------------------|


F#|---------------------------------|-------------------------------------------------|
C#|---------------------------------|-------------------------------------------------|
G#|-4---4---4---4---4---4---4---4---|-------------------------------------------------|
D#|---------------------------------|-2--2--2--2--2--2--2--2--2--2--2--2--2--2--2--2--|


F#|-------------------------------------------------|-------------------------------------------------|
C#|-2--2--2--2--2--2--2--2--2--2--2--2--2--2--2--2--|-------------------------------------------------|
G#|-------------------------------------------------|-------------------------------------------------|
D#|-------------------------------------------------|-2--2--2--2--2--2--2--2--2--2--2--2--2--2--2--2--|


F#|-------------------------------------------------|---------------------------------|
C#|-2--2--2--2--2--2--2--2--2--2--2--2--2--2--2--2--|-0---0---0---0-------------------|
G#|-------------------------------------------------|-----------------2---2---2---2---|
D#|-------------------------------------------------|---------------------------------|


F#|---------------------------------|-------------------------------|-----------------------------------|
C#|---------------------------------|-------------------------------|-2--2--2--2--2---------------------|
G#|-4---4---2---2---0---0-----------|-------------------------------|------------------2--2--2--2--2----|
D#|-------------------------4---4---|-2--2--2--2--2--2--2--2--2-----|-----------------------------------|


F#|-------------------------------|-----------------------------------|-------------------------------|
C#|-------------------------------|-0--0--0--0--0---------------------|-------------------------------|
G#|-------------------------------|------------------0--0--0--0--0----|-------------------------------|
D#|-2--2--2--2--2--2--2--2--2-----|-----------------------------------|-2--2--2--2--2--2--2--2--2-----|


F#|-----------------------------------|-------------------------------|-----------------------------------|
C#|-2--2--2--2--2---------------------|-------------------------------|-0--0--0--0--0---------------------|
G#|------------------2--2--2--2--2----|-------------------------------|------------------0--0--0--0--0----|
D#|-----------------------------------|-2--2--2--2--2--2--2--2--2-----|-----------------------------------|


F#|-------------|-------------|-------------|-------------|-------------|-------------|
C#|-------------|-------------|-------------|-------------|-------------|-------------|
G#|-------------|-------------|-------------|-0-----------|-------------|-3------3----|
D#|-2------2----|-2------2----|-2------2----|-------0-----|-2------2----|-------------|


F#|-------------|----------------|-----------------|-----------------|------------------------------|
C#|-------------|----------------|-----------------|-----------------|------------------------------|
G#|-4------4----|-4------5---4---|-5-----5----5----|-----------------|------------------------------|
D#|-------------|----------------|-----------------|-7-----7----7----|-9---9---9---9---9----9---9---|


F#|---------------------|----------------------------------|----------------------------------|
C#|---------------------|----------------------------------|-0----0---0---0--0--0--0--0---0---|
G#|---------------------|----------------------------------|----------------------------------|
D#|-9----9----9----9----|-2----2---2---2--2--2--2--2---2---|----------------------------------|


F#|----------------------------------|---------------------------------|----------------------------------|
C#|----------------------------------|---------------------------------|----------------------------------|
G#|-4----4---4---4--4--4--4--4---4---|---------------------------------|----------------------------------|
D#|----------------------------------|-5---5---5---5---0---0---0---0---|-2----2---2---2--2--2--2--2---2---|


F#|----------------------------------|----------------------------------|---------------------------------|
C#|----------------------------------|----------------------------------|---------------------------------|
G#|-3----3---3---3--3--3--3--3---3---|-4----4---4---4--4--4--4--4---4---|-4---4---4---4---4---4---4---4---|
D#|----------------------------------|----------------------------------|---------------------------------|


F#|-------------------------------------------------|-------------------------------------------------|
C#|-------------------------------------------------|-------------------------------------------------|
G#|-5--5--5--5--5--5--5--5--5--5--5--5--5--5--5--5--|-------------------------------------------------|
D#|-------------------------------------------------|-7--7--7--7--7--7--7--7--7--7--7--7--7--7--7--7--|


F#|-------------------------------------------------|-------------------------------------------------|
C#|-------------------------------------------------|-------------------------------------------------|
G#|-------------------------------------------------|-------------------------------------------------|
D#|-9--9--9--9--9--9--9--9--9--9--9--9--9--9--9--9--|-9--9--9--9--9--9--9--9--9--9--9--9--9--9--9--9--|


F#|-------------------------------------------------|-------------------------------------------------|
C#|-------------------------------------------------|-------------------------------------------------|
G#|-------------------------------------------------|-------------------------------------------------|
D#|-10-10-10-10-10-10-10-10-10-10-10-10-10-10-10-10-|-7--7--7--7--7--7--7--7--7--7--7--7--7--7--7--7--|


F#|-------------------------------------------------|---------------------------------|
C#|-------------------------------------------------|---------------------------------|
G#|-------------------------------------------------|---------------------------------|
D#|-9--9--9--9--9--9--9--9--9--9--9--9--9--9--9--9--|-9---9---9---9---9---9---7---5---|


F#|-------------------------------------------------|-------------------------------------------------|
C#|-------------------------------------------------|-------------------------------------------------|
G#|-------------------------------------------------|-------------------------------------------------|
D#|-2--2--2--2--2--2--2--2--2--2--2--2--2--2--2--2--|-2--2--2--2--2--2--2--2--2--2--0--0--0--0--0--0--|


F#|-------------------------------------------------|-------------------------------------------------|
C#|-------------------------------------------------|-------------------------------------------------|
G#|-------------------------------------------------|-------------------------------0--0--0--0--0--0--|
D#|-2--2--2--2--2--2--2--2--2--2--2--2--2--2--2--2--|-2--2--2--2--2--2--2--2--2--2--------------------|


F#|-------------------------------------------------|-------------------------------------------------|
C#|-------------------------------------------------|-------------------------------------------------|
G#|-------------------------------------------------|-------------------------------------------------|
D#|-2--2--2--2--2--2--2--2--2--2--2--2--2--2--2--2--|-2--2--2--2--2--2--2--2--2--2--0--0--0--0--0--0--|


F#|-------------|-------------|-----------------|
C#|-4-----------|-------------|-----------------|
G#|-------4-----|-------------|-----------------|
D#|-------------|-5-----7-----|-2---------------|