Menu:

 

Search:

 

blind guardian - ashes to ashes:

 



Title: Ashes To Ashes
Artist: 
Album: Somewhere Far Beyond
Author: Blind Guardian


Track 1: Rhythm Guitar

D#|-----------------------------------|-----------------------------------|-----------------------------------|
A#|-----------------------------------|-----------------------------------|-----------------------------------|
F#|-----------------------------------|-----------------------------------|-----------------------------------|
C#|-7-------7-------7-------7---------|-6-------6-------6-------6---------|-7-------7-------7-------7---------|
G#|-----5-------5-------5-------5--5--|-----5-------5-------5-------5--5--|-----5-------5-------5-------5--5--|
D#|-----------------------------------|-----------------------------------|-----------------------------------|


D#|-----------------------------------|-------------|--------------|-----------------------------------------|
A#|-----------------------------------|-------------|--------------|-----------------------------------------|
F#|-----------------------------------|-7-----------|--------------|-----------------------------------------|
C#|-6-------6-------6-------6---------|-7------6----|-6------------|-----9--9--9---8--8--8---7--7--7---------|
G#|-----5-------5-------5-------5--5--|-5------6----|-6------7--7--|-7---------------------------------10-10-|
D#|-----------------------------------|--------4----|-4------------|-----------------------------------------|


D#|-----------------------------------------|-----------------------------------------|
A#|-----------------------------------------|-----------------------------------------|
F#|-----------------------------------------|-----------------------------------------|
C#|-----------------------------------------|-----9--9--9---8--8--8---7--7--7---------|
G#|-10--10-10-10--8--8--8---10-10-10--7--7--|-7---------------------------------10-10-|
D#|-----------------------------------------|-----------------------------------------|


D#|-----------------------------------------|------------------------|---------------------|
A#|-----------------------------------------|------------------------|---------------------|
F#|-----------------------------------------|------------------------|---------------------|
C#|-----------------------------------------|------------------------|---------------------|
G#|-10--10-10-10--8--8--8---10-10-10--7--7--|-----2----2----2----2---|-----1----1----1-----|
D#|-----------------------------------------|-0----------------------|---------------------|


D#|------------------------|---------------------|------------------------|---------------------|
A#|------------------------|---------------------|------------------------|---------------------|
F#|------------------------|---------------------|-----4----4----4----4---|-----3----3----3-----|
C#|------------------------|---------------------|-2----------------------|---------------------|
G#|-----2----2----2----2---|-----1----1----1-----|-----2----2----2----2---|-----1----1----1-----|
D#|-0----------------------|---------------------|-0----------------------|---------------------|


D#|------------------------|---------------------|-----------------------------------|
A#|------------------------|---------------------|-----------------------------------|
F#|-----4----4----4----4---|-----3----3----3-----|-----------------------------------|
C#|-5----------------------|---------------------|-9-------9-------9-------9---------|
G#|-----2----2----2----2---|-----1----1----1-----|-----7-------7-------7-------7--7--|
D#|-3----------------------|---------------------|-----------------------------------|


D#|-----------------------------------|-----------------------------------|-----------------------------------|
A#|-----------------------------------|-----------------------------------|-----------------------------------|
F#|-----------------------------------|-----------------------------------|-----------------------------------|
C#|-8-------8-------8-------8---------|-9-------9-------9-------9---------|-8-------8-------8-------8---------|
G#|-----6-------6-------6-------6--6--|-----7-------7-------7-------7--7--|-----6-------6-------6-------6--6--|
D#|-----------------------------------|-----------------------------------|-----------------------------------|


D#|-----------------------------------|-----------------------------------|-----------------------------------|
A#|-----------------------------------|-----------------------------------|-----------------------------------|
F#|-----------------------------------|-----------------------------------|-----------------------------------|
C#|-9-------9-------9-------9---------|-8-------8-------8-------8---------|-9-------9-------9-------9---------|
G#|-----7-------7-------7-------7--7--|-----6-------6-------6-------6--6--|-----7-------7-------7-------7--7--|
D#|-----------------------------------|-----------------------------------|-----------------------------------|


D#|-----------------------------------|-----------------------------------------------|
A#|-----------------------------------|-----------------------------------------------|
F#|-----------------------------------|-----------------------------------------------|
C#|-8-------8-------8-------8---------|-5---------------------------------------------|
G#|-----6-------6-------6-------6--6--|-5---------------------------------------------|
D#|-----------------------------------|-3---3--3--3--3--3--3--3--3--3--3--3--3--3--3--|


D#|-----------------------------------------------|--------|--------|-----------------------------------------------|
A#|-----------------------------------------------|--------|--------|-----------------------------------------------|
F#|-----------------------------------------------|-5------|-5------|-----------------------------------------------|
C#|-7---------------------------------------------|-5------|-5------|-2---------------------------------------------|
G#|-7---------------------------------------------|-3------|-3------|-2---------------------------------------------|
D#|-5---5--5--5--5--5--5--5--5--5--5--5--5--5--5--|--------|--------|-0---0--0--0--0--0--0--0--0--0--0--0--0--0--0--|


D#|-----------------------------------------------|-----------------------------------------------|
A#|-----------------------------------------------|-----------------------------------------------|
F#|-----------------------------------------------|-5---------------------------------------------|
C#|-3---------------------------------------------|-5---------------------------------------------|
G#|-3---------------------------------------------|-3---3--3--3--3--3--3--3--3--3--3--3--3--3--3--|
D#|-1---1--1--1--1--1--1--1--1--1--1--1--1--1--1--|-----------------------------------------------|


D#|-----------------------------------------------|-----------------------------------------------|
A#|-----------------------------------------------|-----------------------------------------------|
F#|-4---------------------------------------------|-----------------------------------------------|
C#|-4---------------------------------------------|-2---------------------------------------------|
G#|-2---2--2--2--2--2--2--2--2--2--2--2--2--2--2--|-2---------------------------------------------|
D#|-----------------------------------------------|-0---0--0--0--0--0--0--0--0--0--0--0--0--0--0--|


D#|-----------------------------------------------|-----------------------------------------------|
A#|-----------------------------------------------|-----------------------------------------------|
F#|-----------------------------------------------|-5---------------------------------------------|
C#|-3---------------------------------------------|-5---------------------------------------------|
G#|-3---------------------------------------------|-3---3--3--3--3--3--3--3--3--3--3--3--3--3--3--|
D#|-1---1--1--1--1--1--1--1--1--1--1--1--1--1--1--|-----------------------------------------------|


D#|-----------------------------------------------|-----------------|-----------------------------------------------|
A#|-----------------------------------------------|-----------------|-----------------------------------------------|
F#|-4---------------------------------------------|-5-----4---3-----|-3---------------------------------------------|
C#|-4---------------------------------------------|-5-----4---3-----|-3---------------------------------------------|
G#|-2---2--2--2--2--2--2--2--2--2--2--2--2--2--2--|-3-----2---1-----|-1---1--1--1--1--1--1--1--1--1--1--1--1--1--1--|
D#|-----------------------------------------------|-----------------|-----------------------------------------------|


D#|-----------------|--------|-----------------|-----------------------------------------------|
A#|-----------------|--------|-----------------|-----------------------------------------------|
F#|-5-----4---3-----|--------|-5-----4---3-----|-3---------------------------------------------|
C#|-5-----4---3-----|-2------|-5-----4---3-----|-3---------------------------------------------|
G#|-3-----2---1-----|-2------|-3-----2---1-----|-1---1--1--1--1--1--1--1--1--1--1--1--1--1--1--|
D#|-----------------|-0------|-----------------|-----------------------------------------------|


D#|-----------------|--------|--------|--------|--------|--------|--------|--------|
A#|-----------------|--------|--------|--------|--------|--------|--------|--------|
F#|-5-----4---3-----|--------|--------|--------|-3------|-3------|--------|--------|
C#|-5-----4---3-----|-2------|-2------|-2------|-3------|-3------|-2------|-2------|
G#|-3-----2---1-----|-2------|-2------|-2------|-1------|-1------|-2------|-2------|
D#|-----------------|-0------|-0------|-0------|--------|--------|-0------|-0------|


D#|--------|--------------|-----------------------------------------|-----------------------------------------|
A#|--------|--------------|-----------------------------------------|-----------------------------------------|
F#|-3------|-3------------|-----9--9--9---8--8--8---7--7--7---------|-----------------------------------------|
C#|-3------|-3------7--7--|-7---------------------------------10-10-|-10--10-10-10--8--8--8---10-10-10--7--7--|
G#|-1------|-1------------|-----7--7--7---6--6--6---5--5--5---------|-----------------------------------------|
D#|--------|--------5--5--|-5---------------------------------8--8--|-8---8--8--8---6--6--6---8--8--8---5--5--|


D#|-----------------------------------------|-----------------------------------------|
A#|-----------------------------------------|-----------------------------------------|
F#|-----9--9--9---8--8--8---7--7--7---------|-----------------------------------------|
C#|-7---------------------------------10-10-|-10--10-10-10--8--8--8---10-10-10--7--7--|
G#|-----7--7--7---6--6--6---5--5--5---------|-----------------------------------------|
D#|-5---------------------------------8--8--|-8---8--8--8---6--6--6---8--8--8---5--5--|


D#|-----------------------------------------------|-----------------------------------------------|
A#|-----------------------------------------------|-----------------------------------------------|
F#|-2---------------------------------------------|-5---------------------------------------------|
C#|-2---------------------------------------------|-5---------------------------------------------|
G#|-0---0--0--0--0--0--0--0--0--0--0--0--0--0--0--|-3---3--3--3--3--3--3--3--3--3--3--3--3--3--3--|
D#|-----------------------------------------------|-----------------------------------------------|


D#|-----------------------------------------------|-----------------------|-----------------------------------------------|
A#|-----------------------------------------------|-----------------------|-----------------------------------------------|
F#|-----------------------------------------------|-----------------------|-2---------------------------------------------|
C#|-5---------------------------------------------|-------9-----8----7----|-2---------------------------------------------|
G#|-5---------------------------------------------|-------7-----6----5----|-0---0--0--0--0--0--0--0--0--0--0--0--0--0--0--|
D#|-3---3--3--3--3--3--3--3--3--3--3--3--3--3--3--|-3--3------------------|-----------------------------------------------|


D#|-----------------------------------------------|-----------------------------------------------|
A#|-----------------------------------------------|-----------------------------------------------|
F#|-5---------------------------------------------|-----------------------------------------------|
C#|-5---------------------------------------------|-5---------------------------------------------|
G#|-3---3--3--3--3--3--3--3--3--3--3--3--3--3--3--|-5---------------------------------------------|
D#|-----------------------------------------------|-3---3--3--3--3--3--3--3--3--3--3--3--3--3--3--|


D#|-----------------------|---------------------------------|---------------------------------|
A#|-----------------------|---------------------------------|---------------------------------|
F#|-----------------------|-2-------------------------------|-5-------------------------------|
C#|-------9-----10---12---|-2-------------------------------|-5-------------------------------|
G#|-------7-----8----10---|-0---0---0---0---0---0---0---0---|-3---3---3---3---3---3---3---3---|
D#|-3--3------------------|---------------------------------|---------------------------------|


D#|---------------------------------|---------------------------------|---------------------------------|
A#|---------------------------------|---------------------------------|---------------------------------|
F#|---------------------------------|---------------------------------|-2-------------------------------|
C#|-2-------------------------------|-5-------------------------------|-2-------------------------------|
G#|-2-------------------------------|-5-------------------------------|-0---0---0---0---0---0---0---0---|
D#|-0---0---0---0---0---0---0---0---|-3---3---3---3---3---3---3---3---|---------------------------------|


D#|---------------------------------|---------------------------------|---------------------------------|
A#|---------------------------------|---------------------------------|---------------------------------|
F#|-5-------------------------------|---------------------------------|---------------------------------|
C#|-5-------------------------------|-2-------------------------------|-5-------------------------------|
G#|-3---3---3---3---3---3---3---3---|-2-------------------------------|-5-------------------------------|
D#|---------------------------------|-0---0---0---0---0---0---0---0---|-3---3---3---3---3---3---3---3---|


D#|-----------------------------------------------|-----------------------------------------------|
A#|-----------------------------------------------|-----------------------------------------------|
F#|-2---------------------------------------------|-5---------------------------------------------|
C#|-2---------------------------------------------|-5---------------------------------------------|
G#|-0---0--0--0--0--0--0--0--0--0--0--0--0--0--0--|-3---3--3--3--3--3--3--3--3--3--3--3--3--3--3--|
D#|-----------------------------------------------|-----------------------------------------------|


D#|-----------------------------------------------|-----------------------------------------------|
A#|-----------------------------------------------|-----------------------------------------------|
F#|-----------------------------------------------|-----------------------------------------------|
C#|-2---------------------------------------------|-5---------------------------------------------|
G#|-2---------------------------------------------|-5---------------------------------------------|
D#|-0---0--0--0--0--0--0--0--0--0--0--0--0--0--0--|-3---3--3--3--3--3--3--3--3--3--3--3--3--3--3--|


D#|-----------------------------------------------|-----------------------------------------------|
A#|-----------------------------------------------|-----------------------------------------------|
F#|-2---------------------------------------------|-5---------------------------------------------|
C#|-2---------------------------------------------|-5---------------------------------------------|
G#|-0---0--0--0--0--0--0--0--0--0--0--0--0--0--0--|-3---3--3--3--3--3--3--3--3--3--3--3--3--3--3--|
D#|-----------------------------------------------|-----------------------------------------------|


D#|-------------|--------|-----------------------------------------------|-----------------------------------------------|
A#|-------------|--------|-----------------------------------------------|-----------------------------------------------|
F#|-------------|--------|-2---------------------------------------------|-5---------------------------------------------|
C#|-2-----------|--------|-2---------------------------------------------|-5---------------------------------------------|
G#|-2-----------|--------|-0---0--0--0--0--0--0--0--0--0--0--0--0--0--0--|-3---3--3--3--3--3--3--3--3--3--3--3--3--3--3--|
D#|-0-----------|--------|-----------------------------------------------|-----------------------------------------------|


D#|-----------------------------------------------|-----------------------------------------------|
A#|-----------------------------------------------|-----------------------------------------------|
F#|-----------------------------------------------|-----------------------------------------------|
C#|-2---------------------------------------------|-5---------------------------------------------|
G#|-2---------------------------------------------|-5---------------------------------------------|
D#|-0---0--0--0--0--0--0--0--0--0--0--0--0--0--0--|-3---3--3--3--3--3--3--3--3--3--3--3--3--3--3--|


D#|-----------------------------------------------|-----------------------------------------------|
A#|-----------------------------------------------|-----------------------------------------------|
F#|-2---------------------------------------------|-5---------------------------------------------|
C#|-2---------------------------------------------|-5---------------------------------------------|
G#|-0---0--0--0--0--0--0--0--0--0--0--0--0--0--0--|-3---3--3--3--3--3--3--3--3--3--3--3--3--3--3--|
D#|-----------------------------------------------|-----------------------------------------------|


D#|--------|--------|------------------------|---------------------|------------------------|
A#|--------|--------|------------------------|---------------------|------------------------|
F#|--------|--------|------------------------|---------------------|------------------------|
C#|-2------|-5------|------------------------|---------------------|------------------------|
G#|-2------|-5------|-----7----7----7----7---|-----6----6----6-----|-----7----7----7----7---|
D#|-0------|-3------|-5----------------------|---------------------|-5----------------------|


D#|---------------------|-----------------------------------------------|-----------------------------------------------|
A#|---------------------|-----------------------------------------------|-----------------------------------------------|
F#|---------------------|-----------------------------------------------|-----------------------------------------------|
C#|---------------------|-2---------------------------------------------|-3---------------------------------------------|
G#|-----6----6----6-----|-2---------------------------------------------|-3---------------------------------------------|
D#|---------------------|-0---0--0--0--0--0--0--0--0--0--0--0--0--0--0--|-1---1--1--1--1--1--1--1--1--1--1--1--1--1--1--|


D#|-----------------------------------------------|-----------------------------------------------|
A#|-----------------------------------------------|-----------------------------------------------|
F#|-7---------------------------------------------|-9---------------------------------------------|
C#|-7---------------------------------------------|-9---------------------------------------------|
G#|-5---5--5--5--5--5--5--5--5--5--5--5--5--5--5--|-7---7--7--7--7--7--7--7--7--7--7--7--7--7--7--|
D#|-----------------------------------------------|-----------------------------------------------|


D#|---------------------|-------------|---------------------|-----------------------------------------------|
A#|---------------------|-------------|---------------------|-----------------------------------------------|
F#|-10---9----7----9----|-10-----7----|-7----10---7----7----|-9---------------------------------------------|
C#|-10---9----7----9----|-10-----7----|-7----10---7----7----|-9---------------------------------------------|
G#|-8----7----5----7----|-8------5----|-5----8----5----5----|-7---7--7--7--7--7--7--7--7--7--7--7--7--7--7--|
D#|---------------------|-------------|---------------------|-----------------------------------------------|


D#|-----------------------------------------------|-----------------------------------------------|
A#|-----------------------------------------------|-----------------------------------------------|
F#|-5---------------------------------------------|-2---------------------------------------------|
C#|-5---------------------------------------------|-2---------------------------------------------|
G#|-3---3--3--3--3--3--3--3--3--3--3--3--3--3--3--|-0---0--0--0--0--0--0--0--0--0--0--0--0--0--0--|
D#|-----------------------------------------------|-----------------------------------------------|


D#|-----------------------------------------------|-----------------------------------------------|
A#|-----------------------------------------------|-----------------------------------------------|
F#|-4---------------------------------------------|-5---------------------------------------------|
C#|-4---------------------------------------------|-5---------------------------------------------|
G#|-2---2--2--2--2--2--2--2--2--2--2--2--2--2--2--|-3---3--3--3--3--3--3--3--3--3--3--3--3--3--3--|
D#|-----------------------------------------------|-----------------------------------------------|


D#|-----------------------------------------------|--------|--------|-----------------------------------------------|
A#|-----------------------------------------------|--------|--------|-----------------------------------------------|
F#|-2---------------------------------------------|-4------|-4------|-9---------------------------------------------|
C#|-2---------------------------------------------|-4------|-4------|-9---------------------------------------------|
G#|-0---0--0--0--0--0--0--0--0--0--0--0--0--0--0--|-2------|-2------|-7---7--7--7--7--7--7--7--7--7--7--7--7--7--7--|
D#|-----------------------------------------------|--------|--------|-----------------------------------------------|


D#|-----------------------------------------------|-----------------------------------------------|
A#|-----------------------------------------------|-----------------------------------------------|
F#|-5---------------------------------------------|-2---------------------------------------------|
C#|-5---------------------------------------------|-2---------------------------------------------|
G#|-3---3--3--3--3--3--3--3--3--3--3--3--3--3--3--|-0---0--0--0--0--0--0--0--0--0--0--0--0--0--0--|
D#|-----------------------------------------------|-----------------------------------------------|


D#|-----------------------------------------------|-----------------------------------------------|
A#|-----------------------------------------------|-----------------------------------------------|
F#|-4---------------------------------------------|-5---------------------------------------------|
C#|-4---------------------------------------------|-5---------------------------------------------|
G#|-2---2--2--2--2--2--2--2--2--2--2--2--2--2--2--|-3---3--3--3--3--3--3--3--3--3--3--3--3--3--3--|
D#|-----------------------------------------------|-----------------------------------------------|


D#|-----------------------------------------------|--------|--------|-------------|
A#|-----------------------------------------------|--------|--------|-------------|
F#|-2---------------------------------------------|-4------|-4------|-------2-----|
C#|-2---------------------------------------------|-4------|-4------|-2-----2-----|
G#|-0---0--0--0--0--0--0--0--0--0--0--0--0--0--0--|-2------|-2------|-2-----0-----|
D#|-----------------------------------------------|--------|--------|-0-----------|


D#|--------|-------------|-------------|-------------|-------------|----------------|
A#|--------|-------------|-------------|-------------|-------------|----------------|
F#|--------|-2-----4-----|-5-----2-----|-------------|-------------|----------------|
C#|-5------|-2-----4-----|-5-----2-----|-2-----5-----|-7-----9-----|-7--------------|
G#|-5------|-0-----2-----|-3-----0-----|-2-----5-----|-7-----9-----|-7------5---5---|
D#|-3------|-------------|-------------|-0-----3-----|-5-----7-----|-5--------------|


D#|--------|-------------------------------------------|-------------------------------------------|
A#|--------|-------------------------------------------|-------------------------------------------|
F#|-7------|-------------------------------------------|-------------------------------------------|
C#|-7------|-2---------------2---------------2---------|-5---------------5---------------5---------|
G#|-5------|-2---------------2---------------2---------|-5---------------5---------------5---------|
D#|--------|-0---0--0--0--0--0---0--0--0--0--0---0--0--|-3---3--3--3--3--3---3--3--3--3--3---3--3--|


D#|-------------------------------------------|-------------------------------------------|
A#|-------------------------------------------|-------------------------------------------|
F#|-4---------------4---------------4---------|-7---------------7---------------7---------|
C#|-4---------------4---------------4---------|-7---------------7---------------7---------|
G#|-2---2--2--2--2--2---2--2--2--2--2---2--2--|-5---5--5--5--5--5---5--5--5--5--5---5--5--|
D#|-------------------------------------------|-------------------------------------------|


D#|-------------------------------------------|-------------------------------------------|
A#|-------------------------------------------|-------------------------------------------|
F#|-------------------------------------------|-------------------------------------------|
C#|-2---------------2---------------2---------|-5---------------5---------------5---------|
G#|-2---------------2---------------2---------|-5---------------5---------------5---------|
D#|-0---0--0--0--0--0---0--0--0--0--0---0--0--|-3---3--3--3--3--3---3--3--3--3--3---3--3--|


D#|-------------------------------------------|-------------------------------------------|
A#|-------------------------------------------|-------------------------------------------|
F#|-4---------------4---------------4---------|-7---------------7---------------7---------|
C#|-4---------------4---------------4---------|-7---------------7---------------7---------|
G#|-2---2--2--2--2--2---2--2--2--2--2---2--2--|-5---5--5--5--5--5---5--5--5--5--5---5--5--|
D#|-------------------------------------------|-------------------------------------------|


D#|---------------------------------|---------------------------------|---------------------------------|
A#|---------------------------------|---------------------------------|---------------------------------|
F#|-2-------------------------------|-5-------------------------------|---------------------------------|
C#|-2-------------------------------|-5-------------------------------|-2-------------------------------|
G#|-0---0---0---0---0---0---0---0---|-3---3---3---3---3---3---3---3---|-2-------------------------------|
D#|---------------------------------|---------------------------------|-0---0---0---0---0---0---0---0---|


D#|---------------------------------|---------------------------------|---------------------------------|
A#|---------------------------------|---------------------------------|---------------------------------|
F#|---------------------------------|-2-------------------------------|-5-------------------------------|
C#|-5-------------------------------|-2-------------------------------|-5-------------------------------|
G#|-5-------------------------------|-0---0---0---0---0---0---0---0---|-3---3---3---3---3---3---3---3---|
D#|-3---3---3---3---3---3---3---3---|---------------------------------|---------------------------------|


D#|---------------------------------|---------------------------------|-----------------------------------------------|
A#|---------------------------------|---------------------------------|-----------------------------------------------|
F#|---------------------------------|---------------------------------|-2---------------------------------------------|
C#|-2-------------------------------|-5-------------------------------|-2---------------------------------------------|
G#|-2-------------------------------|-5-------------------------------|-0---0--0--0--0--0--0--0--0--0--0--0--0--0--0--|
D#|-0---0---0---0---0---0---0---0---|-3---3---3---3---3---3---3---3---|-----------------------------------------------|


D#|-----------------------------------------------|-----------------------------------------------|
A#|-----------------------------------------------|-----------------------------------------------|
F#|-5---------------------------------------------|-----------------------------------------------|
C#|-5---------------------------------------------|-2---------------------------------------------|
G#|-3---3--3--3--3--3--3--3--3--3--3--3--3--3--3--|-2---------------------------------------------|
D#|-----------------------------------------------|-0---0--0--0--0--0--0--0--0--0--0--0--0--0--0--|


D#|-----------------------------------------------|-----------------------------------------------|
A#|-----------------------------------------------|-----------------------------------------------|
F#|-----------------------------------------------|-2---------------------------------------------|
C#|-5---------------------------------------------|-2---------------------------------------------|
G#|-5---------------------------------------------|-0---0--0--0--0--0--0--0--0--0--0--0--0--0--0--|
D#|-3---3--3--3--3--3--3--3--3--3--3--3--3--3--3--|-----------------------------------------------|


D#|-----------------------------------------------|-------------|--------|---------------------|
A#|-----------------------------------------------|-------------|--------|---------------------|
F#|-5---------------------------------------------|-------------|--------|-------9---8---7-----|
C#|-5---------------------------------------------|-2-----------|--------|-7-----9---8---7-----|
G#|-3---3--3--3--3--3--3--3--3--3--3--3--3--3--3--|-2-----------|--------|-7-----7---6---5-----|
D#|-----------------------------------------------|-0-----------|--------|-5-------------------|


D#|---------------------|----------------------------------------|----------------------------------------|
A#|---------------------|----------------------------------------|----------------------------------------|
F#|-------9---8---7-----|-4---------------------------------10---|-4---------------------------------10---|
C#|-7-----9---8---7-----|-4---------------------------------10---|-4---------------------------------10---|
G#|-7-----7---6---5-----|-2---2--2--2--2--2--2--2--2--2--2--8----|-2---2--2--2--2--2--2--2--2--2--2--8----|
D#|-5-------------------|----------------------------------------|----------------------------------------|


D#|---------------------|---------------------|----------------------------------------|
A#|---------------------|---------------------|----------------------------------------|
F#|-------9---8---7-----|-------9---8---7-----|-4---------------------------------10---|
C#|-7-----9---8---7-----|-7-----9---8---7-----|-4---------------------------------10---|
G#|-7-----7---6---5-----|-7-----7---6---5-----|-2---2--2--2--2--2--2--2--2--2--2--8----|
D#|-5-------------------|-5-------------------|----------------------------------------|


D#|----------------------------------------|-------------|-------------|-------------|
A#|----------------------------------------|-------------|-------------|-------------|
F#|-4---------------------------------10---|-------10----|-7-----9-----|-------10----|
C#|-4---------------------------------10---|-7-----10----|-7-----9-----|-7-----10----|
G#|-2---2--2--2--2--2--2--2--2--2--2--8----|-7-----8-----|-5-----7-----|-7-----8-----|
D#|----------------------------------------|-5-----------|-------------|-5-----------|


D#|-------------|-----------------------|--------|-----------------------|--------|
A#|-------------|-----------------------|--------|-----------------------|--------|
F#|-7-----9-----|-4---4---4---3---3-----|-3------|-4---4---4---3---3-----|-3------|
C#|-7-----9-----|-4---4---4---3---3-----|-3------|-4---4---4---3---3-----|-3------|
G#|-5-----7-----|-2---2---2---1---1-----|-1------|-2---2---2---1---1-----|-1------|
D#|-------------|-----------------------|--------|-----------------------|--------|


D#|------------------------------|---------------------------------|------------------------------|
A#|------------------------------|---------------------------------|------------------------------|
F#|-7----------------------------|---------------------------------|------------------------------|
C#|-7----------------------------|---------------------------------|-8----------------------------|
G#|-5----5---5---5---5---5---5---|-5---5---5---5---5---5---5---5---|-8----------------------------|
D#|------------------------------|---------------------------------|-6----6---6---6---6---6---6---|


D#|------------------------------|------------------------------|---------------------------------|
A#|------------------------------|------------------------------|---------------------------------|
F#|------------------------------|-7----------------------------|---------------------------------|
C#|-5----------------------------|-7----------------------------|---------------------------------|
G#|-5----------------------------|-5----5---5---5---5---5---5---|-5---5---5---5---5---5---5---5---|
D#|-3----3---3---3---3---3---3---|------------------------------|---------------------------------|


D#|------------------------------|------------------------------|-----------------------------------------------|
A#|------------------------------|------------------------------|-----------------------------------------------|
F#|------------------------------|------------------------------|-4---------------------------------------------|
C#|-3----------------------------|-5----------------------------|-4---------------------------------------------|
G#|-3----------------------------|-5----------------------------|-2---2--2--2--2--2--2--2--2--2--2--2--2--2--2--|
D#|-1----1---1---1---1---1---1---|-3----3---3---3---3---3---3---|-----------------------------------------------|


D#|-----------------------------------------------|-----------------------------------------------|
A#|-----------------------------------------------|-----------------------------------------------|
F#|-7---------------------------------------------|-----------------------------------------------|
C#|-7---------------------------------------------|-8---------------------------------------------|
G#|-5---5--5--5--5--5--5--5--5--5--5--5--5--5--5--|-8---------------------------------------------|
D#|-----------------------------------------------|-6---6--6--6--6--6--6--6--6--6--6--6--6--6--6--|


D#|-----------------------------------------------|-----------------------------------------------|
A#|-----------------------------------------------|-----------------------------------------------|
F#|-----------------------------------------------|-4---------------------------------------------|
C#|-5---------------------------------------------|-4---------------------------------------------|
G#|-5---------------------------------------------|-2---2--2--2--2--2--2--2--2--2--2--2--2--2--2--|
D#|-3---3--3--3--3--3--3--3--3--3--3--3--3--3--3--|-----------------------------------------------|


D#|-----------------------------------------------|-----------------------------------------------|
A#|-----------------------------------------------|-----------------------------------------------|
F#|-7---------------------------------------------|-----------------------------------------------|
C#|-7---------------------------------------------|-8---------------------------------------------|
G#|-5---5--5--5--5--5--5--5--5--5--5--5--5--5--5--|-8---------------------------------------------|
D#|-----------------------------------------------|-6---6--6--6--6--6--6--6--6--6--6--6--6--6--6--|


D#|-----------------------------------------------|---------------------|---------------------|
A#|-----------------------------------------------|---------------------|---------------------|
F#|-----------------------------------------------|-9-------------------|-9-------------------|
C#|-5---------------------------------------------|-9-----9---8---7-----|-9-----9---8---7-----|
G#|-5---------------------------------------------|-7-----9---8---7-----|-7-----9---8---7-----|
D#|-3---3--3--3--3--3--3--3--3--3--3--3--3--3--3--|-------7---6---5-----|-------7---6---5-----|


D#|-19-15-12-15-19-15-20-15-19-15-12-15-19-15-20-15-|-19-15-12-15-19-15-20-15-19-15-12-15-19-15-20-15-|
A#|-------------------------------------------------|-------------------------------------------------|
F#|-------------------------------------------------|-------------------------------------------------|
C#|-------------------------------------------------|-------------------------------------------------|
G#|-------------------------------------------------|-------------------------------------------------|
D#|-------------------------------------------------|-------------------------------------------------|


D#|-----------------------------------------------|-----------------------------------------------|
A#|-----------------------------------------------|-----------------------------------------------|
F#|-----------------------------------------------|-----------------------------------------------|
C#|-2---------------------------------------------|-3---------------------------------------------|
G#|-2---------------------------------------------|-3---------------------------------------------|
D#|-0---0--0--0--0--0--0--0--0--0--0--0--0--0--0--|-1---1--1--1--1--1--1--1--1--1--1--1--1--1--1--|


D#|-----------------------------------------------|-----------------------------------------------|
A#|-----------------------------------------------|-----------------------------------------------|
F#|-5---------------------------------------------|-4---------------------------------------------|
C#|-5---------------------------------------------|-4---------------------------------------------|
G#|-3---3--3--3--3--3--3--3--3--3--3--3--3--3--3--|-2---2--2--2--2--2--2--2--2--2--2--2--2--2--2--|
D#|-----------------------------------------------|-----------------------------------------------|


D#|-----------------------------------------------|-----------------------------------------------|
A#|-----------------------------------------------|-----------------------------------------------|
F#|-----------------------------------------------|-----------------------------------------------|
C#|-2---------------------------------------------|-3---------------------------------------------|
G#|-2---------------------------------------------|-3---------------------------------------------|
D#|-0---0--0--0--0--0--0--0--0--0--0--0--0--0--0--|-1---1--1--1--1--1--1--1--1--1--1--1--1--1--1--|


D#|-----------------------------------------------|-----------------------------------------------|
A#|-----------------------------------------------|-----------------------------------------------|
F#|-5---------------------------------------------|-4---------------------------------------------|
C#|-5---------------------------------------------|-4---------------------------------------------|
G#|-3---3--3--3--3--3--3--3--3--3--3--3--3--3--3--|-2---2--2--2--2--2--2--2--2--2--2--2--2--2--2--|
D#|-----------------------------------------------|-----------------------------------------------|


D#|-----------------------------------------------|-----------------------------------------------|
A#|-----------------------------------------------|-----------------------------------------------|
F#|-----------------------------------------------|-----------------------------------------------|
C#|-2---------------------------------------------|-5---------------------------------------------|
G#|-2---------------------------------------------|-5---------------------------------------------|
D#|-0---0--0--0--0--0--0--0--0--0--0--0--0--0--0--|-3---3--3--3--3--3--3--3--3--3--3--3--3--3--3--|


D#|-----------------------------------------------|-----------------------------------------------|
A#|-----------------------------------------------|-----------------------------------------------|
F#|-4---------------------------------------------|-7---------------------------------------------|
C#|-4---------------------------------------------|-7---------------------------------------------|
G#|-2---2--2--2--2--2--2--2--2--2--2--2--2--2--2--|-5---5--5--5--5--5--5--5--5--5--5--5--5--5--5--|
D#|-----------------------------------------------|-----------------------------------------------|


D#|-----------------------------------------------|-----------------------------------------------|
A#|-----------------------------------------------|-----------------------------------------------|
F#|-----------------------------------------------|-----------------------------------------------|
C#|-2---------------------------------------------|-5---------------------------------------------|
G#|-2---------------------------------------------|-5---------------------------------------------|
D#|-0---0--0--0--0--0--0--0--0--0--0--0--0--0--0--|-3---3--3--3--3--3--3--3--3--3--3--3--3--3--3--|


D#|-----------------------------------------------|-----------------------------------------------|
A#|-----------------------------------------------|-----------------------------------------------|
F#|-4---------------------------------------------|-7---------------------------------------------|
C#|-4---------------------------------------------|-7---------------------------------------------|
G#|-2---2--2--2--2--2--2--2--2--2--2--2--2--2--2--|-5---5--5--5--5--5--5--5--5--5--5--5--5--5--5--|
D#|-----------------------------------------------|-----------------------------------------------|


D#|-----------------------------------------------|-----------------------------------------------|
A#|-----------------------------------------------|-----------------------------------------------|
F#|-----------------------------------------------|-10--------------------------------------------|
C#|-7---------------------------------------------|-10--------------------------------------------|
G#|-7---------------------------------------------|-8---8--8--8--8--8--8--8--8--8--8--8--8--8--8--|
D#|-5---5--5--5--5--5--5--5--5--5--5--5--5--5--5--|-----------------------------------------------|


D#|-----------------------------------------------|---------------------------------------------|
A#|-----------------------------------------------|---------------------------------------------|
F#|-11--------------------------------------------|-7---------------------9---------------------|
C#|-11--------------------------------------------|-7---------------------9---------------------|
G#|-9---9--9--9--9--9--9--9--9--9--9--9--9--9--9--|-5---5--5--5--5--5--5--7---7--7--7--7--7--7--|
D#|-----------------------------------------------|---------------------------------------------|


D#|--------------------------------------|------------------------|-----------------------------------------------|
A#|--------------------------------------|------------------------|-----------------------------------------------|
F#|--------------------------------------|----------7----9----11--|-11--------------------------------------------|
C#|-7---------------------------7----9---|-----10---7----9----11--|-11--------------------------------------------|
G#|-7---------------------------7----9---|-----10---5----7----9---|-9---9--9--9--9--9--9--9--9--9--9--9--9--9--9--|
D#|-5---5--5--5--5--5--5--5--5--5----7---|-----8------------------|-----------------------------------------------|


D#|---------------------------------------------|-----------------------------------------------|
A#|---------------------------------------------|-----------------------------------------------|
F#|-7---------------------9---------------------|-2---------------------------------------------|
C#|-7---------------------9---------------------|-2---------------------------------------------|
G#|-5---5--5--5--5--5--5--7---7--7--7--7--7--7--|-0---0--0--0--0--0--0--0--0--0--0--0--0--0--0--|
D#|---------------------------------------------|-----------------------------------------------|


D#|-----------------------------------------------|-----------------------------------------------|
A#|-----------------------------------------------|-----------------------------------------------|
F#|-5---------------------------------------------|-----------------------------------------------|
C#|-5---------------------------------------------|-5---------------------------------------------|
G#|-3---3--3--3--3--3--3--3--3--3--3--3--3--3--3--|-5---------------------------------------------|
D#|-----------------------------------------------|-3---3--3--3--3--3--3--3--3--3--3--3--3--3--3--|


D#|-----------------------|-----------------------------------------------|-----------------------------------------------|
A#|-----------------------|-----------------------------------------------|-----------------------------------------------|
F#|-----------------------|-2---------------------------------------------|-5---------------------------------------------|
C#|-------9-----8----7----|-2---------------------------------------------|-5---------------------------------------------|
G#|-------7-----6----5----|-0---0--0--0--0--0--0--0--0--0--0--0--0--0--0--|-3---3--3--3--3--3--3--3--3--3--3--3--3--3--3--|
D#|-3--3------------------|-----------------------------------------------|-----------------------------------------------|


D#|-----------------------------------------------|-----------------------|---------------------------------|
A#|-----------------------------------------------|-----------------------|---------------------------------|
F#|-----------------------------------------------|-----------------------|-2-------------------------------|
C#|-5---------------------------------------------|-------9-----10---12---|-2-------------------------------|
G#|-5---------------------------------------------|-------7-----8----10---|-0---0---0---0---0---0---0---0---|
D#|-3---3--3--3--3--3--3--3--3--3--3--3--3--3--3--|-3--3------------------|---------------------------------|


D#|---------------------------------|---------------------------------|---------------------------------|
A#|---------------------------------|---------------------------------|---------------------------------|
F#|-5-------------------------------|---------------------------------|---------------------------------|
C#|-5-------------------------------|-2-------------------------------|-5-------------------------------|
G#|-3---3---3---3---3---3---3---3---|-2-------------------------------|-5-------------------------------|
D#|---------------------------------|-0---0---0---0---0---0---0---0---|-3---3---3---3---3---3---3---3---|


D#|---------------------------------|---------------------------------|---------------------------------|
A#|---------------------------------|---------------------------------|---------------------------------|
F#|-2-------------------------------|-5-------------------------------|---------------------------------|
C#|-2-------------------------------|-5-------------------------------|-2-------------------------------|
G#|-0---0---0---0---0---0---0---0---|-3---3---3---3---3---3---3---3---|-2-------------------------------|
D#|---------------------------------|---------------------------------|-0---0---0---0---0---0---0---0---|


D#|---------------------------------|-----------------------------------------------|
A#|---------------------------------|-----------------------------------------------|
F#|---------------------------------|-2---------------------------------------------|
C#|-5-------------------------------|-2---------------------------------------------|
G#|-5-------------------------------|-0---0--0--0--0--0--0--0--0--0--0--0--0--0--0--|
D#|-3---3---3---3---3---3---3---3---|-----------------------------------------------|


D#|-----------------------------------------------|-----------------------------------------------|
A#|-----------------------------------------------|-----------------------------------------------|
F#|-5---------------------------------------------|-----------------------------------------------|
C#|-5---------------------------------------------|-2---------------------------------------------|
G#|-3---3--3--3--3--3--3--3--3--3--3--3--3--3--3--|-2---------------------------------------------|
D#|-----------------------------------------------|-0---0--0--0--0--0--0--0--0--0--0--0--0--0--0--|


D#|-----------------------------------------------|-----------------------------------------------|
A#|-----------------------------------------------|-----------------------------------------------|
F#|-----------------------------------------------|-2---------------------------------------------|
C#|-5---------------------------------------------|-2---------------------------------------------|
G#|-5---------------------------------------------|-0---0--0--0--0--0--0--0--0--0--0--0--0--0--0--|
D#|-3---3--3--3--3--3--3--3--3--3--3--3--3--3--3--|-----------------------------------------------|


D#|-----------------------------------------------|-------------|--------|-----------------------------------------------|
A#|-----------------------------------------------|-------------|--------|-----------------------------------------------|
F#|-5---------------------------------------------|-------------|--------|-2---------------------------------------------|
C#|-5---------------------------------------------|-2-----------|--------|-2---------------------------------------------|
G#|-3---3--3--3--3--3--3--3--3--3--3--3--3--3--3--|-2-----------|--------|-0---0--0--0--0--0--0--0--0--0--0--0--0--0--0--|
D#|-----------------------------------------------|-0-----------|--------|-----------------------------------------------|


D#|-----------------------------------------------|-----------------------------------------------|
A#|-----------------------------------------------|-----------------------------------------------|
F#|-5---------------------------------------------|-----------------------------------------------|
C#|-5---------------------------------------------|-2---------------------------------------------|
G#|-3---3--3--3--3--3--3--3--3--3--3--3--3--3--3--|-2---------------------------------------------|
D#|-----------------------------------------------|-0---0--0--0--0--0--0--0--0--0--0--0--0--0--0--|


D#|-----------------------------------------------|-----------------------------------------------|
A#|-----------------------------------------------|-----------------------------------------------|
F#|-----------------------------------------------|-2---------------------------------------------|
C#|-5---------------------------------------------|-2---------------------------------------------|
G#|-5---------------------------------------------|-0---0--0--0--0--0--0--0--0--0--0--0--0--0--0--|
D#|-3---3--3--3--3--3--3--3--3--3--3--3--3--3--3--|-----------------------------------------------|


D#|-----------------------------------------------|--------|--------|-----------------------------------|
A#|-----------------------------------------------|--------|--------|-----------------------------------|
F#|-5---------------------------------------------|--------|--------|-----------------------------------|
C#|-5---------------------------------------------|-2------|-5------|-----------------------------------|
G#|-3---3--3--3--3--3--3--3--3--3--3--3--3--3--3--|-2------|-5------|-7-------7-------7-------7---------|
D#|-----------------------------------------------|-0------|-3------|-----5-------5-------5-------5--5--|


D#|-----------------------------------|-----------------------------------|-----------------------------------|
A#|-----------------------------------|-----------------------------------|-----------------------------------|
F#|-----------------------------------|-----------------------------------|-----------------------------------|
C#|-----------------------------------|-----------------------------------|-----------------------------------|
G#|-6-------6-------6-------6---------|-7-------7-------7-------7---------|-6-------6-------6-------6---------|
D#|-----5-------5-------5-------5--5--|-----5-------5-------5-------5--5--|-----5-------5-------5-------5--5--|


D#|-----------------------------------|-----------------------------------|-----------------------------------|
A#|-----------------------------------|-----------------------------------|-----------------------------------|
F#|-----------------------------------|-----------------------------------|-----------------------------------|
C#|-----------------------------------|-----------------------------------|-----------------------------------|
G#|-7-------7-------7-------7---------|-6-------6-------6-------6---------|-7-------7-------7-------7---------|
D#|-----5-------5-------5-------5--5--|-----5-------5-------5-------5--5--|-----5-------5-------5-------5--5--|


D#|-----------------------------------|-----------------------------------|-----------------------------------|
A#|-----------------------------------|-----------------------------------|-----------------------------------|
F#|-----------------------------------|-----------------------------------|-----------------------------------|
C#|-----------------------------------|-----------------------------------|-----------------------------------|
G#|-6-------6-------6-------6---------|-7-------7-------7-------7---------|-6-------6-------6-------6---------|
D#|-----5-------5-------5-------5--5--|-----5-------5-------5-------5--5--|-----5-------5-------5-------5--5--|


D#|-----------------------------------|-----------------|
A#|-----------------------------------|-----------------|
F#|-----------------------------------|-----------------|
C#|-----------------------------------|-7----7----------|
G#|-7-------7-------7-------7---------|-7----7----------|
D#|-----5-------5-------5-------5--5--|-5----5----------|





Track 2: Lead Guitar 1

D#|-----------------------------------|-----------------------------------|-----------------------------------|
A#|-10------10------10------10--------|-9-------9-------9-------9---------|-10------10------10------10--------|
F#|-----7-------7-------7-------7--7--|-----7-------7-------7-------7--7--|-----7-------7-------7-------7--7--|
C#|-----------------------------------|-----------------------------------|-----------------------------------|
G#|-----------------------------------|-----------------------------------|-----------------------------------|
D#|-----------------------------------|-----------------------------------|-----------------------------------|


D#|-----------------------------------|------------------------------|--------|--------|
A#|-9-------9-------9-------9---------|-----10------10------10--9----|-9------|--------|
F#|-----7-------7-------7-------7--7--|-7-------7-------7------------|--------|--------|
C#|-----------------------------------|------------------------------|--------|-2------|
G#|-----------------------------------|------------------------------|--------|-2------|
D#|-----------------------------------|------------------------------|--------|-0------|


D#|-------------|--------|-------------|------------|--------|------------|--------|
A#|-------------|--------|-------------|------------|--------|------------|--------|
F#|-------------|--------|-------------|------------|--------|------------|--------|
C#|-5-----3-----|-2------|-5-----3-----|-2----------|--------|-2----------|--------|
G#|-5-----3-----|-2------|-5-----3-----|-2----------|--------|-2----------|--------|
D#|-3-----1-----|-0------|-3-----1-----|-0----------|--------|-0----------|--------|


D#|-------------|--------|--------|--------|-----------------------------------|-----------------------------------|
A#|-------------|--------|--------|--------|-----------------------------------|-----------------------------------|
F#|-------4-----|-3------|--------|-3------|-----------------------------------|-----------------------------------|
C#|-2-----4-----|-3------|-5------|-3------|-----------------------------------|-----------------------------------|
G#|-2-----2-----|-1------|-5------|-1------|-7-------7-------7-------7---------|-6-------6-------6-------6---------|
D#|-0-----------|--------|-3------|--------|-----7-------7-------7-------7--7--|-----6-------6-------6-------6--6--|


D#|-----------------------------------|-----------------------------------|-----------------------------------|
A#|-----------------------------------|-----------------------------------|-----------------------------------|
F#|-----------------------------------|-----------------------------------|-----------------------------------|
C#|-----------------------------------|-----------------------------------|-----------------------------------|
G#|-7-------7-------7-------7---------|-6-------6-------6-------6---------|-7-------7-------7-------7---------|
D#|-----7-------7-------7-------7--7--|-----6-------6-------6-------6--6--|-----7-------7-------7-------7--7--|


D#|-----------------------------------|-----------------------------------|-----------------------------------|
A#|-----------------------------------|-----------------------------------|-----------------------------------|
F#|-----------------------------------|-----------------------------------|-----------------------------------|
C#|-----------------------------------|-----------------------------------|-----------------------------------|
G#|-6-------6-------6-------6---------|-7-------7-------7-------7---------|-6-------6-------6-------6---------|
D#|-----6-------6-------6-------6--6--|-----7-------7-------7-------7--7--|-----6-------6-------6-------6--6--|


D#|----------------17----------------------17-------|----------------17----------------------17-------|
A#|-20-19-17-19-20----20-19-20-19-17-19-20----20-19-|-20-19-17-19-20----20-19-20-19-17-19-20----20-19-|
F#|-------------------------------------------------|-------------------------------------------------|
C#|-------------------------------------------------|-------------------------------------------------|
G#|-------------------------------------------------|-------------------------------------------------|
D#|-------------------------------------------------|-------------------------------------------------|


D#|-------------------------------------------------|-------------------------------|
A#|-15-15-17-17-------15-15-------------------------|-------------------8--8--8-----|
F#|-------------17-17-------16-16-17-17-14-14-16-16-|-------14-14-------------------|
C#|-------------------------------------------------|-17-17-------16-16-17-17-14----|
G#|-------------------------------------------------|-------------------------------|
D#|-------------------------------------------------|-------------------------------|


D#|--------|--------|--------|--------|--------|--------|--------|--------|-----------------|
A#|--------|--------|--------|--------|--------|--------|--------|--------|-----------------|
F#|--------|--------|--------|--------|--------|--------|--------|--------|-----------------|
C#|--------|--------|--------|--------|--------|--------|--------|--------|-10----9---8-----|
G#|--------|--------|--------|--------|--------|--------|--------|--------|-----------------|
D#|--------|--------|--------|--------|--------|--------|--------|--------|-----------------|


D#|-18-15-11-15-18-15-11-15-18-15-11-15-18-15-11-15-|-20----19--18----|-19-----|-20----19--18----|
A#|-------------------------------------------------|-----------------|--------|-----------------|
F#|-------------------------------------------------|-----------------|--------|-----------------|
C#|-------------------------------------------------|-10----9---8-----|--------|-10----9---8-----|
G#|-------------------------------------------------|-----------------|--------|-----------------|
D#|-------------------------------------------------|-----------------|-12-----|-----------------|


D#|-18-15-11-15-18-15-11-15-18-15-11-15-18-15-11-15-|-20----19--18----|-19-----|-15-0--0--0--14-0--0--0--15-0--0--0--14-0--0--0--|
A#|-------------------------------------------------|-----------------|--------|-------------------------------------------------|
F#|-------------------------------------------------|-----------------|--------|-------------------------------------------------|
C#|-------------------------------------------------|-10----9---8-----|--------|-------------------------------------------------|
G#|-------------------------------------------------|-----------------|--------|-------------------------------------------------|
D#|-------------------------------------------------|-----------------|-12-----|-------------------------------------------------|


D#|-15-0--0--0--14-0--0--0--15-0--0--0--14-0--0--0--|-15-0--0--0--12-0--0--0--15-0--0--0--12-0--0--0--|
A#|-------------------------------------------------|-------------------------------------------------|
F#|-------------------------------------------------|-------------------------------------------------|
C#|-------------------------------------------------|-------------------------------------------------|
G#|-------------------------------------------------|-------------------------------------------------|
D#|-------------------------------------------------|-------------------------------------------------|


D#|-15-0--0--0--12-0--0--0--15-0--0--0--12-0--0--0--|-15-0--0--0--14-0--0--0--15-0--0--0--14-0--0--0--|
A#|-------------------------------------------------|-------------------------------------------------|
F#|-------------------------------------------------|-------------------------------------------------|
C#|-------------------------------------------------|-------------------------------------------------|
G#|-------------------------------------------------|-------------------------------------------------|
D#|-------------------------------------------------|-------------------------------------------------|


D#|-15-0--0--0--14-0--0--0--15-0--0--0--14-0--0--0--|-15-0--0--0--12-0--0--0--15-0--0--0--12-0--0--0--|
A#|-------------------------------------------------|-------------------------------------------------|
F#|-------------------------------------------------|-------------------------------------------------|
C#|-------------------------------------------------|-------------------------------------------------|
G#|-------------------------------------------------|-------------------------------------------------|
D#|-------------------------------------------------|-------------------------------------------------|


D#|-15-0--0--0--12-0--0--0--15-0--0--0--12-0--0--0--|--------|-------------|--------|
A#|-------------------------------------------------|--------|-------------|--------|
F#|-------------------------------------------------|-2------|-5-----3-----|-2------|
C#|-------------------------------------------------|-2------|-5-----3-----|-2------|
G#|-------------------------------------------------|-0------|-3-----1-----|-0------|
D#|-------------------------------------------------|--------|-------------|--------|


D#|-------------|--------|--------|--------|--------|--------|--------|--------|--------|
A#|-------------|--------|--------|--------|--------|--------|--------|--------|--------|
F#|-5-----3-----|--------|--------|--------|--------|--------|--------|--------|--------|
C#|-5-----3-----|--------|--------|--------|--------|--------|--------|--------|--------|
G#|-3-----1-----|--------|--------|--------|--------|--------|--------|--------|--------|
D#|-------------|--------|--------|--------|--------|--------|--------|--------|--------|


D#|--------|--------|--------|--------|--------|--------|--------|--------|--------|
A#|--------|--------|--------|--------|--------|--------|--------|--------|--------|
F#|--------|--------|--------|--------|--------|--------|--------|--------|--------|
C#|--------|--------|--------|--------|--------|--------|--------|--------|--------|
G#|--------|--------|--------|--------|--------|--------|--------|--------|--------|
D#|--------|--------|--------|--------|--------|--------|--------|--------|--------|


D#|--------|--------|--------|--------|--------|--------|--------|--------|--------|
A#|--------|--------|--------|--------|--------|--------|--------|--------|--------|
F#|--------|--------|--------|--------|--------|--------|--------|--------|--------|
C#|--------|--------|--------|--------|--------|--------|--------|--------|--------|
G#|--------|--------|--------|--------|--------|--------|--------|--------|--------|
D#|--------|--------|--------|--------|--------|--------|--------|--------|--------|


D#|--------|--------|--------|--------|--------|--------|--------|--------|--------|
A#|--------|--------|--------|--------|--------|--------|--------|--------|--------|
F#|--------|--------|--------|--------|--------|--------|-2------|-2------|-2------|
C#|--------|--------|--------|--------|--------|--------|-2------|-2------|-2------|
G#|--------|--------|--------|--------|--------|--------|-0------|-0------|-0------|
D#|--------|--------|--------|--------|--------|--------|--------|--------|--------|


D#|--------|----------------|-------------|-----------------|-----------------|---------------------|
A#|--------|-15-----15--17--|-18----15----|-15----17---18---|-18----17--17----|-18---17---15---17---|
F#|-2------|----------------|-------------|-----------------|-----------------|---------------------|
C#|-2------|-12-----12--14--|-15----12----|-12----14---15---|-15----14--14----|---------------------|
G#|-0------|----------------|-------------|-----------------|-----------------|---------------------|
D#|--------|----------------|-------------|-----------------|-----------------|---------------------|


D#|-------------|-----------15---15---|-------------|--------|--------|--------|--------|
A#|-18-----15---|-15---18-------------|-17-----17---|--------|--------|--------|--------|
F#|-------------|---------------------|-------------|--------|--------|--------|--------|
C#|-------------|---------------------|-------------|--------|--------|--------|--------|
G#|-------------|---------------------|-------------|--------|--------|--------|--------|
D#|-------------|---------------------|-------------|--------|--------|--------|--------|


D#|--------|---------------------------------|---------------------------|--------|
A#|--------|---------------------------------|---------------------------|--------|
F#|--------|---------------------------------|---------------------------|--------|
C#|--------|-----4-------5-------4-----------|-----4-------5-------4-----|--------|
G#|--------|-2---------------------------2---|---------------------------|--------|
D#|--------|---------------------------------|---------------------------|--------|


D#|--------|--------|--------|--------|--------|---------------------------------|
A#|--------|--------|--------|--------|--------|---------------------------------|
F#|--------|--------|--------|--------|--------|---------------------------------|
C#|--------|--------|--------|--------|--------|-----4-------5-------4-----------|
G#|--------|--------|--------|--------|--------|-2---------------------------2---|
D#|--------|--------|--------|--------|--------|---------------------------------|


D#|---------------------------|--------|--------|--------|--------|--------|--------|
A#|---------------------------|--------|--------|--------|--------|--------|--------|
F#|---------------------------|--------|--------|--------|--------|--------|--------|
C#|-----4-------5-------4-----|--------|--------|--------|--------|--------|--------|
G#|---------------------------|--------|--------|--------|--------|--------|--------|
D#|---------------------------|--------|--------|--------|--------|--------|--------|


D#|--------|--------|-15----17----19---|-15-----|-10----12----14---|-10-----|-15----17----19---|
A#|--------|--------|------------------|--------|------------------|--------|------------------|
F#|--------|--------|-12----14----16---|-12-----|-7-----9-----11---|-7------|-12----14----16---|
C#|--------|--------|------------------|--------|------------------|--------|------------------|
G#|--------|--------|------------------|--------|------------------|--------|------------------|
D#|--------|--------|------------------|--------|------------------|--------|------------------|


D#|-15-----|-12----14----15---|-15--17-----|--------|--------|--------|--------|--------|
A#|--------|------------------|------------|--------|--------|--------|--------|--------|
F#|-12-----|-9-----11----12---|-12--14-----|--------|--------|--------|--------|--------|
C#|--------|------------------|------------|--------|--------|--------|--------|--------|
G#|--------|------------------|------------|--------|--------|--------|--------|--------|
D#|--------|------------------|------------|--------|--------|--------|--------|--------|


D#|--------|--------|--------|--------|--------|--------|--------|--------|--------|
A#|--------|--------|--------|--------|--------|--------|--------|--------|--------|
F#|--------|--------|--------|--------|--------|--------|--------|--------|--------|
C#|--------|--------|--------|--------|--------|--------|--------|--------|--------|
G#|--------|--------|--------|--------|--------|--------|--------|--------|--------|
D#|--------|--------|--------|--------|--------|--------|--------|--------|--------|


D#|--------|--------|--------|--------|-19-20-20-20-20-20-20-20-20-19-17-20-19--17--15--|
A#|--------|--------|-20-----|-20-----|-------------------------------------------------|
F#|--------|--------|--------|--------|-------------------------------------------------|
C#|--------|--------|--------|--------|-------------------------------------------------|
G#|--------|--------|--------|--------|-------------------------------------------------|
D#|--------|--------|--------|--------|-------------------------------------------------|


D#|-19-20-20-20-20-20-20-20-20--19--20--20---|--------|--------|-19-20-20-20-20-20-20-20-20-19-17-20-19--17--15--|
A#|------------------------------------------|-20-----|-20-----|-------------------------------------------------|
F#|------------------------------------------|--------|--------|-------------------------------------------------|
C#|------------------------------------------|--------|--------|-------------------------------------------------|
G#|------------------------------------------|--------|--------|-------------------------------------------------|
D#|------------------------------------------|--------|--------|-------------------------------------------------|


D#|-19-20-20-20-20-20-20-20-20--19--20--20---|-20-17----17-20-17-22-17-20-17----17-20-17-22-17-|
A#|------------------------------------------|-------20----------------------20----------------|
F#|------------------------------------------|-------------------------------------------------|
C#|------------------------------------------|-------------------------------------------------|
G#|------------------------------------------|-------------------------------------------------|
D#|------------------------------------------|-------------------------------------------------|


D#|-20-17----17-20-17-22-17-20-19-17----17----------|-20-17----17-20-17-22-17-20-17----17-20-17-22-17-|
A#|-------20-------------------------20----20-17-20-|-------20----------------------20----------------|
F#|-------------------------------------------------|-------------------------------------------------|
C#|-------------------------------------------------|-------------------------------------------------|
G#|-------------------------------------------------|-------------------------------------------------|
D#|-------------------------------------------------|-------------------------------------------------|


D#|-20-17----17-20-17-22-17-20-19-17----17----------|-----------------------|--------|
A#|-------20-------------------------20----20-17-20-|-19--19--19--18--18----|-18-----|
F#|-------------------------------------------------|-----------------------|--------|
C#|-------------------------------------------------|-----------------------|--------|
G#|-------------------------------------------------|-----------------------|--------|
D#|-------------------------------------------------|-----------------------|--------|


D#|------------------------|-15-----|-15-----15--13--|-15--15-13-12------12------------12--|
A#|-19--19--19-------------|--------|----------------|---------------15-----15-13--15------|
F#|------------------------|--------|----------------|-------------------------------------|
C#|------------------------|--------|----------------|-------------------------------------|
G#|------------------------|--------|----------------|-------------------------------------|
D#|------------------------|--------|----------------|-------------------------------------|


D#|-12---12---12--------------|-----------------|--------------------|------------------------------|
A#|---------------15--13--15--|-15--------------|--------------------|------15--17--18--17----------|
F#|---------------------------|-------12--------|----------12--14----|-14-------------------19--17--|
C#|---------------------------|------------14---|-15---15------------|------------------------------|
G#|---------------------------|-----------------|--------------------|------------------------------|
D#|---------------------------|-----------------|--------------------|------------------------------|


D#|-------------|-------------|-------------------------------------------------------------|
A#|-------20----|-20----17----|-12--0--0--13--0--0--12--0--0--10--0--0--12--0--0--13--0--0--|
F#|-15----------|-------------|-------------------------------------------------------------|
C#|-------------|-------------|-------------------------------------------------------------|
G#|-------------|-------------|-------------------------------------------------------------|
D#|-------------|-------------|-------------------------------------------------------------|


D#|-------------------------------------------------------------|-------------------------------------------------|
A#|-12--0--0--13--0--0--12--0--0--10--0--0--12--0--0--13--0--0--|-15-0--0--13-0--0--12-0--13-0--0--12-0--0--10-0--|
F#|-------------------------------------------------------------|-------------------------------------------------|
C#|-------------------------------------------------------------|-------------------------------------------------|
G#|-------------------------------------------------------------|-------------------------------------------------|
D#|-------------------------------------------------------------|-------------------------------------------------|


D#|-------------------------------------------------|-------------------------------------------------------------|
A#|-12-0--0--10-0--0--8--0--10-0--0--8--0--0--5--0--|-12--0--0--13--0--0--12--0--0--10--0--0--12--0--0--13--0--0--|
F#|-------------------------------------------------|-------------------------------------------------------------|
C#|-------------------------------------------------|-------------------------------------------------------------|
G#|-------------------------------------------------|-------------------------------------------------------------|
D#|-------------------------------------------------|-------------------------------------------------------------|


D#|-------------------------------------------------------------|-------------------------------------------------|
A#|-12--0--0--13--0--0--12--0--0--10--0--0--12--0--0--13--0--0--|-15-0--0--13-0--0--12-0--13-0--0--12-0--0--10-0--|
F#|-------------------------------------------------------------|-------------------------------------------------|
C#|-------------------------------------------------------------|-------------------------------------------------|
G#|-------------------------------------------------------------|-------------------------------------------------|
D#|-------------------------------------------------------------|-------------------------------------------------|


D#|-------------------------------------------------|---------------------|---------------------|
A#|-12-0--0--10-0--0--8--0--10-0--0--8--0--0--5--0--|-17----12------------|-17----12------------|
F#|-------------------------------------------------|-----------15--14----|-----------15--14----|
C#|-------------------------------------------------|---------------------|---------------------|
G#|-------------------------------------------------|---------------------|---------------------|
D#|-------------------------------------------------|---------------------|---------------------|


D#|---------------------|---------------------|--------|--------|--------|--------|
A#|---------------------|---------------------|-17-----|--------|--------|--------|
F#|-9-------------------|-9-------------------|--------|--------|--------|--------|
C#|-9-----9---8---7-----|-9-----9---8---7-----|--------|--------|--------|--------|
G#|-7-----9---8---7-----|-7-----9---8---7-----|--------|--------|--------|--------|
D#|-------7---6---5-----|-------7---6---5-----|--------|--------|--------|--------|


D#|--------|--------|--------|--------|--------|--------|--------|--------|--------|
A#|--------|--------|--------|--------|--------|--------|--------|--------|--------|
F#|--------|--------|--------|--------|--------|--------|--------|--------|--------|
C#|--------|--------|--------|--------|--------|--------|--------|--------|--------|
G#|--------|--------|--------|--------|--------|--------|--------|--------|--------|
D#|--------|--------|--------|--------|--------|--------|--------|--------|--------|


D#|--------|--------|--------|-------------------------12---12--|-12----12----12--|
A#|--------|--------|--------|-10-10-12--13-12-10---------------|-----------------|
F#|--------|--------|--------|---------------------9---9----9---|-9-----9-----9---|
C#|--------|--------|--------|-7--7--9---10-9--7----------------|-----------------|
G#|--------|--------|--------|---------------------7------------|-----------------|
D#|--------|--------|--------|----------------------------------|-----------------|


D#|-------------------10---10-10--|-10---10-------------|----------------------------------|
A#|-10---12---13---13-------------|-----------13---12---|-10-10-12--13-12-10------10---12--|
F#|-------------------7----7--7---|-7----7--------------|---------------------9------------|
C#|-7----9----10---10-------------|-----------10---9----|-7--7--9---10-9--7-------7----9---|
G#|-------------------------------|---------------------|---------------------7------------|
D#|-------------------------------|---------------------|----------------------------------|


D#|----------10---12---12--|-12-----12-12-17--|-20---20---20---19---|--------|--------|
A#|-----13-----------------|------------------|---------------------|--------|--------|
F#|----------7----9----9---|------------------|---------------------|--------|--------|
C#|-----10-----------------|------------------|---------------------|--------|--------|
G#|------------------------|------------------|---------------------|--------|--------|
D#|------------------------|------------------|---------------------|--------|--------|


D#|--------|--------|--------|--------|--------|--------|--------|--------|--------|
A#|--------|--------|--------|--------|--------|--------|--------|--------|--------|
F#|--------|--------|--------|--------|--------|--------|--------|--------|--------|
C#|--------|--------|--------|--------|--------|--------|--------|--------|--------|
G#|--------|--------|--------|--------|--------|--------|--------|--------|--------|
D#|--------|--------|--------|--------|--------|--------|--------|--------|--------|


D#|--------|--------|--------|--------|--------|--------|--------|--------|--------|
A#|--------|--------|--------|--------|--------|--------|--------|--------|--------|
F#|--------|--------|--------|--------|--------|--------|--------|--------|--------|
C#|--------|--------|--------|--------|--------|--------|--------|--------|--------|
G#|--------|--------|--------|--------|--------|--------|--------|--------|--------|
D#|--------|--------|--------|--------|--------|--------|--------|--------|--------|


D#|--------|--------|--------|--------|--------|--------|--------|--------|--------|
A#|--------|--------|--------|--------|--------|--------|--------|--------|--------|
F#|--------|--------|--------|--------|--------|--------|--------|--------|--------|
C#|--------|--------|--------|--------|--------|--------|--------|--------|--------|
G#|--------|--------|--------|--------|--------|--------|--------|--------|--------|
D#|--------|--------|--------|--------|--------|--------|--------|--------|--------|


D#|--------|--------|--------|--------|--------------|--------|--------------|--------|
A#|--------|--------|--------|--------|--------------|--------|--------------|--------|
F#|--------|--------|--------|-2------|-2------------|-2------|-2------------|-2------|
C#|--------|--------|--------|-2------|-2------2--2--|-2------|-2------2--2--|-2------|
G#|--------|--------|--------|-0------|-0------0--0--|-0------|-0------0--0--|-0------|
D#|--------|--------|--------|--------|--------------|--------|--------------|--------|


D#|--------------|--------|--------------|--------|--------------|--------|-----------------|
A#|--------------|--------|--------------|--------|--------------|--------|-----------------|
F#|-2------------|-2------|-2------------|-2------|-2------------|-2------|-----------------|
C#|-2------2--2--|-2------|-2------2--2--|-2------|-2------2--2--|-2------|-7----7----------|
G#|-0------0--0--|-0------|-0------0--0--|-0------|-0------0--0--|-0------|-7----7----------|
D#|--------------|--------|--------------|--------|--------------|--------|-5----5----------|





Track 3: Lead Guitar 2

D#|--------|--------|--------|--------|--------|--------|--------|--------|--------|
A#|--------|--------|--------|--------|--------|--------|--------|--------|--------|
F#|--------|--------|--------|--------|--------|--------|--------|--------|--------|
C#|--------|--------|--------|--------|--------|--------|--------|--------|--------|
G#|--------|--------|--------|--------|--------|--------|--------|--------|--------|
D#|--------|--------|--------|--------|--------|--------|--------|--------|--------|


D#|--------|--------|--------|--------|--------|--------|--------|--------|--------|
A#|--------|--------|--------|--------|--------|--------|--------|--------|--------|
F#|--------|--------|--------|--------|--------|--------|--------|--------|--------|
C#|--------|--------|--------|--------|--------|--------|--------|--------|--------|
G#|--------|--------|--------|--------|--------|--------|--------|--------|--------|
D#|--------|--------|--------|--------|--------|--------|--------|--------|--------|


D#|--------|--------|--------|--------|--------|--------|--------|--------|-------------------------------------------------|
A#|--------|--------|--------|--------|--------|--------|--------|--------|----------------10----------------------10-------|
F#|--------|--------|--------|--------|--------|--------|--------|--------|-12-11-9--11-12----12-11-12-11-9--11-12----12-11-|
C#|--------|--------|--------|--------|--------|--------|--------|--------|-------------------------------------------------|
G#|--------|--------|--------|--------|--------|--------|--------|--------|-------------------------------------------------|
D#|--------|--------|--------|--------|--------|--------|--------|--------|-------------------------------------------------|


D#|-------------------------------------------------|-------------------------------------------------|
A#|----------------10----------------------10-------|-------------------------------------------------|
F#|-12-11-9--11-12----12-11-12-11-9--11-12----12-11-|-7--7--9--9--------7--7--------------------------|
C#|-------------------------------------------------|-------------10-10-------9--9--10-10-7--7--9--9--|
G#|-------------------------------------------------|-------------------------------------------------|
D#|-------------------------------------------------|-------------------------------------------------|


D#|-------------------------------|--------|--------|--------|--------|--------|--------|
A#|-------------------------------|--------|--------|--------|--------|--------|--------|
F#|-------------------------------|--------|--------|--------|--------|--------|--------|
C#|-------7--7--------------------|--------|--------|--------|--------|--------|--------|
G#|-10-10-------9--9--10-10-7-----|--------|--------|--------|--------|--------|--------|
D#|-------------------------------|--------|--------|--------|--------|--------|--------|


D#|--------|--------|--------|--------|--------|--------|--------|--------|--------|
A#|--------|--------|--------|--------|--------|--------|--------|--------|--------|
F#|--------|--------|--------|--------|--------|--------|--------|--------|--------|
C#|--------|--------|--------|--------|--------|--------|--------|--------|--------|
G#|--------|--------|--------|--------|--------|--------|--------|--------|--------|
D#|--------|--------|--------|--------|--------|--------|--------|--------|--------|


D#|--------|--------|--------|--------|--------|--------|--------|--------|--------|
A#|--------|--------|--------|--------|--------|--------|--------|--------|--------|
F#|--------|--------|--------|--------|--------|--------|--------|--------|--------|
C#|--------|--------|--------|--------|--------|--------|--------|--------|--------|
G#|--------|--------|--------|--------|--------|--------|--------|--------|--------|
D#|--------|--------|--------|--------|--------|--------|--------|--------|--------|


D#|--------|--------|--------|--------|--------|--------|--------|--------|--------|
A#|--------|--------|--------|--------|--------|--------|--------|--------|--------|
F#|--------|--------|--------|--------|--------|--------|--------|--------|--------|
C#|--------|--------|--------|--------|--------|--------|--------|--------|--------|
G#|--------|--------|--------|--------|--------|--------|--------|--------|--------|
D#|--------|--------|--------|--------|--------|--------|--------|--------|--------|


D#|--------|--------|--------|--------|--------|--------|--------|--------|--------|
A#|--------|--------|--------|--------|--------|--------|--------|--------|--------|
F#|--------|--------|--------|--------|--------|--------|--------|--------|--------|
C#|--------|--------|--------|--------|--------|--------|--------|--------|--------|
G#|--------|--------|--------|--------|--------|--------|--------|--------|--------|
D#|--------|--------|--------|--------|--------|--------|--------|--------|--------|


D#|--------|--------|--------|--------|--------|--------|--------|--------|--------|
A#|--------|--------|--------|--------|--------|--------|--------|--------|--------|
F#|--------|--------|--------|--------|--------|--------|--------|--------|--------|
C#|--------|--------|--------|--------|--------|--------|--------|--------|--------|
G#|--------|--------|--------|--------|--------|--------|--------|--------|--------|
D#|--------|--------|--------|--------|--------|--------|--------|--------|--------|


D#|--------|--------|--------|--------|--------|--------|--------|--------|--------|
A#|--------|--------|--------|--------|--------|--------|--------|--------|--------|
F#|--------|--------|--------|--------|--------|--------|--------|--------|--------|
C#|--------|--------|--------|--------|--------|--------|--------|--------|--------|
G#|--------|--------|--------|--------|--------|--------|--------|--------|--------|
D#|--------|--------|--------|--------|--------|--------|--------|--------|--------|


D#|--------|--------|--------|--------|------------15--|-------------|-----------------|
A#|--------|--------|--------|--------|-18-----18------|-18----15----|-15----17---18---|
F#|--------|--------|--------|--------|----------------|-------------|-----------------|
C#|--------|--------|--------|--------|----------------|-------------|-----------------|
G#|--------|--------|--------|--------|----------------|-------------|-----------------|
D#|--------|--------|--------|--------|----------------|-------------|-----------------|


D#|-----------------|---------------------|-------------|-----------15---15---|--------|
A#|-18----17--17----|-18---17---15---17---|-18-----15---|-15---18-------------|--------|
F#|-----------------|---------------------|-------------|---------------------|--------|
C#|-----------------|---------------------|-------------|---------------------|--------|
G#|-----------------|---------------------|-------------|---------------------|--------|
D#|-----------------|---------------------|-------------|---------------------|--------|


D#|--------|--------|--------|--------|--------|--------|--------|--------|--------|
A#|--------|--------|--------|--------|--------|--------|--------|--------|--------|
F#|--------|--------|--------|--------|--------|--------|--------|--------|--------|
C#|--------|--------|--------|--------|--------|--------|--------|--------|--------|
G#|--------|--------|--------|--------|--------|--------|--------|--------|--------|
D#|--------|--------|--------|--------|--------|--------|--------|--------|--------|


D#|--------|--------|--------|--------|--------|--------|--------|--------|--------|
A#|--------|--------|--------|--------|--------|--------|--------|--------|--------|
F#|--------|--------|--------|--------|--------|--------|--------|--------|--------|
C#|--------|--------|--------|--------|--------|--------|--------|--------|--------|
G#|--------|--------|--------|--------|--------|--------|--------|--------|--------|
D#|--------|--------|--------|--------|--------|--------|--------|--------|--------|


D#|--------|--------|--------|--------|--------|-12----14----15---|-12-----|-10----12----14---|
A#|--------|--------|--------|--------|--------|------------------|--------|------------------|
F#|--------|--------|--------|--------|--------|-9-----11----12---|-9------|-7-----9-----11---|
C#|--------|--------|--------|--------|--------|------------------|--------|------------------|
G#|--------|--------|--------|--------|--------|------------------|--------|------------------|
D#|--------|--------|--------|--------|--------|------------------|--------|------------------|


D#|-10-----|-12----14----15---|-12-----|-12----14----15---|-15--17-----|--------|--------|
A#|--------|------------------|--------|------------------|------------|--------|--------|
F#|-7------|-9-----11----12---|-9------|-9-----11----12---|-12--14-----|--------|--------|
C#|--------|------------------|--------|------------------|------------|--------|--------|
G#|--------|------------------|--------|------------------|------------|--------|--------|
D#|--------|------------------|--------|------------------|------------|--------|--------|


D#|--------|--------|--------|--------|--------|--------|--------|--------|--------|
A#|--------|--------|--------|--------|--------|--------|--------|--------|--------|
F#|--------|--------|--------|--------|--------|--------|--------|--------|--------|
C#|--------|--------|--------|--------|--------|--------|--------|--------|--------|
G#|--------|--------|--------|--------|--------|--------|--------|--------|--------|
D#|--------|--------|--------|--------|--------|--------|--------|--------|--------|


D#|--------|--------|--------|--------|--------|--------|--------|--------|--------|
A#|--------|--------|--------|--------|--------|--------|--------|--------|--------|
F#|--------|--------|--------|--------|--------|--------|--------|--------|--------|
C#|--------|--------|--------|--------|--------|--------|--------|--------|--------|
G#|--------|--------|--------|--------|--------|--------|--------|--------|--------|
D#|--------|--------|--------|--------|--------|--------|--------|--------|--------|


D#|--------|--------|--------|--------|--------|--------|--------|--------|-----------------------|
A#|--------|--------|--------|--------|--------|--------|--------|--------|-----------------------|
F#|--------|--------|--------|--------|--------|--------|--------|--------|-16------16--15--15----|
C#|--------|--------|--------|--------|--------|--------|--------|--------|-----16----------------|
G#|--------|--------|--------|--------|--------|--------|--------|--------|-----------------------|
D#|--------|--------|--------|--------|--------|--------|--------|--------|-----------------------|


D#|--------|-----------------------|--------|--------|--------|--------|--------|--------|
A#|--------|-------------18--18----|-18-----|--------|--------|--------|--------|--------|
F#|-15-----|-16------16--15--15----|-15-----|--------|--------|--------|--------|--------|
C#|--------|-----16----------------|--------|--------|--------|--------|--------|--------|
G#|--------|-----------------------|--------|--------|--------|--------|--------|--------|
D#|--------|-----------------------|--------|--------|--------|--------|--------|--------|


D#|--------|--------|--------|--------|--------|--------|--------|--------|--------|
A#|--------|--------|--------|--------|--------|--------|--------|--------|--------|
F#|--------|--------|--------|--------|--------|--------|--------|--------|--------|
C#|--------|--------|--------|--------|--------|--------|--------|--------|--------|
G#|--------|--------|--------|--------|--------|--------|--------|--------|--------|
D#|--------|--------|--------|--------|--------|--------|--------|--------|--------|


D#|--------|--------|--------|--------|--------|--------|--------|--------|--------|
A#|--------|--------|--------|--------|--------|--------|--------|--------|--------|
F#|--------|--------|--------|--------|--------|--------|--------|--------|--------|
C#|--------|--------|--------|--------|--------|--------|--------|--------|--------|
G#|--------|--------|--------|--------|--------|--------|--------|--------|--------|
D#|--------|--------|--------|--------|--------|--------|--------|--------|--------|


D#|--------|--------|--------|--------|--------|--------|--------|--------|--------|
A#|--------|--------|--------|--------|--------|--------|--------|--------|--------|
F#|--------|--------|--------|--------|--------|--------|--------|--------|--------|
C#|--------|--------|--------|--------|--------|--------|--------|--------|--------|
G#|--------|--------|--------|--------|--------|--------|--------|--------|--------|
D#|--------|--------|--------|--------|--------|--------|--------|--------|--------|


D#|--------|--------|--------|--------|--------|--------|--------|--------|--------|
A#|--------|--------|--------|--------|--------|--------|--------|--------|--------|
F#|--------|--------|--------|--------|--------|--------|--------|--------|--------|
C#|--------|--------|--------|--------|--------|--------|--------|--------|--------|
G#|--------|--------|--------|--------|--------|--------|--------|--------|--------|
D#|--------|--------|--------|--------|--------|--------|--------|--------|--------|


D#|--------|--------|--------|--------|--------|--------|--------|--------|--------|
A#|--------|--------|--------|--------|--------|--------|--------|--------|--------|
F#|--------|--------|--------|--------|--------|--------|--------|--------|--------|
C#|--------|--------|--------|--------|--------|--------|--------|--------|--------|
G#|--------|--------|--------|--------|--------|--------|--------|--------|--------|
D#|--------|--------|--------|--------|--------|--------|--------|--------|--------|


D#|--------|--------|--------|--------|--------|--------|--------|--------|--------|
A#|--------|--------|--------|--------|--------|--------|--------|--------|--------|
F#|--------|--------|--------|--------|--------|--------|--------|--------|--------|
C#|--------|--------|--------|--------|--------|--------|--------|--------|--------|
G#|--------|--------|--------|--------|--------|--------|--------|--------|--------|
D#|--------|--------|--------|--------|--------|--------|--------|--------|--------|


D#|--------|--------|--------|--------|--------|--------|--------|--------|--------|
A#|--------|--------|--------|--------|--------|--------|--------|--------|--------|
F#|--------|--------|--------|--------|--------|--------|--------|--------|--------|
C#|--------|--------|--------|--------|--------|--------|--------|--------|--------|
G#|--------|--------|--------|--------|--------|--------|--------|--------|--------|
D#|--------|--------|--------|--------|--------|--------|--------|--------|--------|


D#|--------|--------|--------|--------|--------|--------|--------|--------|--------|
A#|--------|--------|--------|--------|--------|--------|--------|--------|--------|
F#|--------|--------|--------|--------|--------|--------|--------|--------|--------|
C#|--------|--------|--------|--------|--------|--------|--------|--------|--------|
G#|--------|--------|--------|--------|--------|--------|--------|--------|--------|
D#|--------|--------|--------|--------|--------|--------|--------|--------|--------|


D#|--------|--------|--------|--------|--------|--------|--------|--------|--------|
A#|--------|--------|--------|--------|--------|--------|--------|--------|--------|
F#|--------|--------|--------|--------|--------|--------|--------|--------|--------|
C#|--------|--------|--------|--------|--------|--------|--------|--------|--------|
G#|--------|--------|--------|--------|--------|--------|--------|--------|--------|
D#|--------|--------|--------|--------|--------|--------|--------|--------|--------|


D#|--------|--------|
A#|--------|--------|
F#|--------|--------|
C#|--------|--------|
G#|--------|--------|
D#|--------|--------|





Track 4: Untitled

G|--------|--------|--------|--------|--------|--------|--------|--------|--------|
D|--------|--------|--------|--------|--------|--------|--------|--------|--------|
A|--------|--------|--------|--------|--------|--------|--------|--------|--------|
E|--------|--------|--------|--------|--------|--------|--------|--------|--------|


G|--------|--------|--------|--------|--------|--------|--------|--------|--------|
D|--------|--------|--------|--------|--------|--------|--------|--------|--------|
A|--------|--------|--------|--------|--------|--------|--------|--------|--------|
E|--------|--------|--------|--------|--------|--------|--------|--------|--------|


G|--------|--------|--------|--------|--------|--------|--------|--------|--------|
D|--------|--------|--------|--------|--------|--------|--------|--------|--------|
A|--------|--------|--------|--------|--------|--------|--------|--------|--------|
E|--------|--------|--------|--------|--------|--------|--------|--------|--------|


G|--------|--------|--------|--------|--------|--------|--------|--------|--------|
D|--------|--------|--------|--------|--------|--------|--------|--------|--------|
A|--------|--------|--------|--------|--------|--------|--------|--------|--------|
E|--------|--------|--------|--------|--------|--------|--------|--------|--------|


G|--------|--------|--------|--------|--------|--------|--------|--------|--------|
D|--------|--------|--------|--------|--------|--------|--------|--------|--------|
A|--------|--------|--------|--------|--------|--------|--------|--------|--------|
E|--------|--------|--------|--------|--------|--------|--------|--------|--------|


G|--------|--------|--------|--------|--------|--------|--------|--------|--------|
D|--------|--------|--------|--------|--------|--------|--------|--------|--------|
A|--------|--------|--------|--------|--------|--------|--------|--------|--------|
E|--------|--------|--------|--------|--------|--------|--------|--------|--------|


G|--------|--------|--------|--------|--------|--------|--------|--------|--------|
D|--------|--------|--------|--------|--------|--------|--------|--------|--------|
A|--------|--------|--------|--------|--------|--------|--------|--------|--------|
E|--------|--------|--------|--------|--------|--------|--------|--------|--------|


G|--------|--------|--------|--------|--------|--------|--------|--------|--------|
D|--------|--------|--------|--------|--------|--------|--------|--------|--------|
A|--------|--------|--------|--------|--------|--------|--------|--------|--------|
E|--------|--------|--------|--------|--------|--------|--------|--------|--------|


G|--------|--------|--------|--------|--------|--------|--------|--------|--------|
D|--------|--------|--------|--------|--------|--------|--------|--------|--------|
A|--------|--------|--------|--------|--------|--------|--------|--------|--------|
E|--------|--------|--------|--------|--------|--------|--------|--------|--------|


G|--------|--------|--------|--------|--------|--------|--------|--------|--------|
D|--------|--------|--------|--------|--------|--------|--------|--------|--------|
A|--------|--------|--------|--------|--------|--------|--------|--------|--------|
E|--------|--------|--------|--------|--------|--------|--------|--------|--------|


G|--------|--------|--------|--------|--------|--------|--------|--------|--------|
D|--------|--------|--------|--------|--------|--------|--------|--------|--------|
A|--------|--------|--------|--------|--------|--------|--------|--------|--------|
E|--------|--------|--------|--------|--------|--------|--------|--------|--------|


G|--------|--------|--------|--------|--------|--------|--------|--------|--------|
D|--------|--------|--------|--------|--------|--------|--------|--------|--------|
A|--------|--------|--------|--------|--------|--------|--------|--------|--------|
E|--------|--------|--------|--------|--------|--------|--------|--------|--------|


G|--------|--------|--------|--------|--------|--------|--------|--------|--------|
D|--------|--------|--------|--------|--------|--------|--------|--------|--------|
A|--------|--------|--------|--------|--------|--------|--------|--------|--------|
E|--------|--------|--------|--------|--------|--------|--------|--------|--------|


G|--------|--------|--------|--------|--------|--------|--------|--------|--------|
D|--------|--------|--------|--------|--------|--------|--------|--------|--------|
A|--------|--------|--------|--------|--------|--------|--------|--------|--------|
E|--------|--------|--------|--------|--------|--------|--------|--------|--------|


G|--------|--------|--------|--------|--------|--------|--------|--------|--------|
D|--------|--------|--------|--------|--------|--------|--------|--------|--------|
A|--------|--------|--------|--------|--------|--------|--------|--------|--------|
E|--------|--------|--------|--------|--------|--------|--------|--------|--------|


G|--------|--------|--------|--------|--------|--------|--------|--------|--------|
D|--------|--------|--------|--------|--------|--------|--------|--------|--------|
A|--------|--------|--------|--------|--------|--------|--------|--------|--------|
E|--------|--------|--------|--------|--------|--------|--------|--------|--------|


G|--------|--------|--------|--------|--------|--------|--------|--------|--------|
D|--------|--------|--------|--------|--------|--------|--------|--------|--------|
A|--------|--------|--------|--------|--------|--------|--------|--------|--------|
E|--------|--------|--------|--------|--------|--------|--------|--------|--------|


G|--------|--------|--------|--------|--------|--------|--------|--------|--------|
D|--------|--------|--------|--------|--------|--------|--------|--------|--------|
A|--------|--------|--------|--------|--------|--------|--------|--------|--------|
E|--------|--------|--------|--------|--------|--------|--------|--------|--------|


G|--------|--------|--------|--------|--------|--------|--------|--------|--------|
D|--------|--------|--------|--------|--------|--------|--------|--------|--------|
A|--------|--------|--------|--------|--------|--------|--------|--------|--------|
E|--------|--------|--------|--------|--------|--------|--------|--------|--------|


G|--------|--------|--------|--------|--------|--------|--------|--------|--------|
D|--------|--------|--------|--------|--------|--------|--------|--------|--------|
A|--------|--------|--------|--------|--------|--------|--------|--------|--------|
E|--------|--------|--------|--------|--------|--------|--------|--------|--------|


G|--------|--------|--------|--------|--------|--------|--------|--------|--------|
D|--------|--------|--------|--------|--------|--------|--------|--------|--------|
A|--------|--------|--------|--------|--------|--------|--------|--------|--------|
E|--------|--------|--------|--------|--------|--------|--------|--------|--------|


G|--------|--------|--------|--------|--------|--------|--------|--------|--------|
D|--------|--------|--------|--------|--------|--------|--------|--------|--------|
A|--------|--------|--------|--------|--------|--------|--------|--------|--------|
E|--------|--------|--------|--------|--------|--------|--------|--------|--------|


G|--------|--------|--------|--------|--------|--------|--------|--------|--------|
D|--------|--------|--------|--------|--------|--------|--------|--------|--------|
A|--------|--------|--------|--------|--------|--------|--------|--------|--------|
E|--------|--------|--------|--------|--------|--------|--------|--------|--------|


G|--------|--------|--------|--------|--------|--------|--------|--------|--------|
D|--------|--------|--------|--------|--------|--------|--------|--------|--------|
A|--------|--------|--------|--------|--------|--------|--------|--------|--------|
E|--------|--------|--------|--------|--------|--------|--------|--------|--------|


G|--------|--------|--------|--------|--------|--------|--------|--------|--------|
D|--------|--------|--------|--------|--------|--------|--------|--------|--------|
A|--------|--------|--------|--------|--------|--------|--------|--------|--------|
E|--------|--------|--------|--------|--------|--------|--------|--------|--------|


G|--------|--------|--------|--------|--------|--------|--------|--------|--------|
D|--------|--------|--------|--------|--------|--------|--------|--------|--------|
A|--------|--------|--------|--------|--------|--------|--------|--------|--------|
E|--------|--------|--------|--------|--------|--------|--------|--------|--------|


G|--------|--------|--------|--------|--------|--------|--------|--------|--------|
D|--------|--------|--------|--------|--------|--------|--------|--------|--------|
A|--------|--------|--------|--------|--------|--------|--------|--------|--------|
E|--------|--------|--------|--------|--------|--------|--------|--------|--------|


G|--------|--------|--------|--------|--------|--------|--------|--------|--------|
D|--------|--------|--------|--------|--------|--------|--------|--------|--------|
A|--------|--------|--------|--------|--------|--------|--------|--------|--------|
E|--------|--------|--------|--------|--------|--------|--------|--------|--------|


G|--------|
D|--------|
A|--------|
E|--------|