Menu:

 

Search:

 

bleeding through - love lost in a hail of gunfire:

 



Title: Love Lost In a Hail Of Gunfire
Artist: 
Album: This Is Love, This Is Murderous
Author: Bleeding Through


Track 1: Brian (Rythem)

C#|--------|-----------------|--------|---------------------|---------------------|
G#|--------|-----------------|--------|---------------------|---------------------|
 E|--------|-----------------|--------|---------------------|---------------------|
 B|--------|-7---------------|--------|---------------------|---------------------|
F#|--------|-5---------------|--------|------8----7---------|-10---8----7----8----|
 B|--------|-----------------|--------|----------------8----|---------------------|


C#|---------------------------------|------------------------------|---------------------|
G#|---------------------------------|------------------------------|---------------------|
 E|---------------------------------|------------------------------|---------------------|
 B|---------------------------------|------------------------------|---------------------|
F#|---------5-------5-------3-------|-6-------5-------3-------5----|------8----7---------|
 B|-0---0-------0-------0-------0---|-----0-------0-------0--------|-8--------------8----|


C#|---------------------|---------------------------------|------------------------------|
G#|---------------------|---------------------------------|------------------------------|
 E|---------------------|---------------------------------|------------------------------|
 B|---------------------|---------------------------------|------------------------------|
F#|-10---8----7----8----|---------5-------5-------3-------|-6-------5-------3-------5----|
 B|---------------------|-0---0-------0-------0-------0---|-----0-------0-------0--------|


C#|---------------------|---------------------|---------------------------|------------------------------|
G#|---------------------|---------------------|---------------------------|------------------------------|
 E|---------------------|---------------------|---------------------------|------------------------------|
 B|---------------------|---------------------|---------------------------|------------------------------|
F#|------8----7---------|-10---8----7----8----|-7---0----3---0----6---0---|-0---3---0----6--0----3--0----|
 B|-8--------------8----|---------------------|-7---0----3---0----6---0---|-0---3---0----6--0----3--0----|


C#|---------------------------|---------------------|---------------------------|------------------------------|
G#|---------------------------|---------------------|---------------------------|------------------------------|
 E|---------------------------|---------------------|---------------------------|------------------------------|
 B|---------------------------|---------------------|---------------------------|------------------------------|
F#|-6---0----3---0----3---0---|-3----5----1----3----|-7---0----3---0----6---0---|-0---3---0----6--0----3--0----|
 B|-6---0----3---0----3---0---|-3----5----1----3----|-7---0----3---0----6---0---|-0---3---0----6--0----3--0----|


C#|---------------------------|---------------------|---------------------------------|
G#|---------------------------|---------------------|---------------------------------|
 E|---------------------------|---------------------|---------------------------------|
 B|---------------------------|---------------------|---------------------------------|
F#|-6---0----3---0----3---0---|-3----5----1----3----|---------5-------5-------3-------|
 B|-6---0----3---0----3---0---|-3----5----1----3----|-0---0-------0-------0-------0---|


C#|------------------------------|---------------------|---------------------|---------------------------------|
G#|------------------------------|---------------------|---------------------|---------------------------------|
 E|------------------------------|---------------------|---------------------|---------------------------------|
 B|------------------------------|---------------------|---------------------|---------------------------------|
F#|-6-------5-------3-------5----|------8----7---------|-10---8----7----8----|---------5-------5-------3-------|
 B|-----0-------0-------0--------|-8--------------8----|---------------------|-0---0-------0-------0-------0---|


C#|------------------------------|---------------------|---------------------|---------------------------------|
G#|------------------------------|---------------------|---------------------|---------------------------------|
 E|------------------------------|---------------------|---------------------|---------------------------------|
 B|------------------------------|---------------------|---------------------|---------------------------------|
F#|-6-------5-------3-------5----|------8----7---------|-10---8----7----8----|---------5-------5-------3-------|
 B|-----0-------0-------0--------|-8--------------8----|---------------------|-0---0-------0-------0-------0---|


C#|------------------------------|---------------------|---------------------|---------------------------------|
G#|------------------------------|---------------------|---------------------|---------------------------------|
 E|------------------------------|---------------------|---------------------|---------------------------------|
 B|------------------------------|---------------------|---------------------|---------------------------------|
F#|-6-------5-------3-------5----|------8----7---------|-10---8----7----8----|---------5-------5-------3-------|
 B|-----0-------0-------0--------|-8--------------8----|---------------------|-0---0-------0-------0-------0---|


C#|------------------------------|---------------------|---------------------|---------------------------------|
G#|------------------------------|---------------------|---------------------|---------------------------------|
 E|------------------------------|---------------------|---------------------|---------------------------------|
 B|------------------------------|---------------------|---------------------|---------------------------------|
F#|-6-------5-------3-------5----|------8----7---------|-10---8----7----8----|-8---8---8---8---8---8---8---8---|
 B|-----0-------0-------0--------|-8--------------8----|---------------------|-8---8---8---8---8---8---8---8---|


C#|---------------------------------|---------------------------------|---------------------------------|
G#|---------------------------------|---------------------------------|---------------------------------|
 E|---------------------------------|---------------------------------|---------------------------------|
 B|-8---7---5---0-------------------|---------------------------------|---------------------------------|
F#|-----------------8---7---5---0---|-0---0---0---0---0---0---0---0---|-8---7---5---0-------------------|
 B|---------------------------------|-0---0---0---0---0---0---0---0---|-----------------8---7---5---0---|


C#|---------------------------------|---------------------------------|---------------------------------|
G#|---------------------------------|---------------------------------|---------------------------------|
 E|---------------------------------|---------------------------------|---------------------------------|
 B|---------------------------------|-8---7---5---0-------------------|---------------------------------|
F#|-8---8---8---8---8---8---8---8---|-----------------8---7---5---0---|-0---0---0---0---0---0---0---0---|
 B|-8---8---8---8---8---8---8---8---|---------------------------------|-0---0---0---0---0---0---0---0---|


C#|---------------------------------|---------------------------------|---------------------------------|
G#|---------------------------------|---------------------------------|---------------------------------|
 E|---------------------------------|---------------------------------|---------------------------------|
 B|---------------------------------|---------------------------------|-8---7---5---0-------------------|
F#|-8---7---5---0-------------------|-5---5---5---5---5---5---5---5---|-----------------8---7---5---0---|
 B|-----------------8---7---5---0---|-5---5---5---5---5---5---5---5---|---------------------------------|


C#|---------------------------------|---------------------------------|---------------------------------|
G#|---------------------------------|---------------------------------|---------------------------------|
 E|---------------------------------|---------------------------------|---------------------------------|
 B|---------------------------------|-10--8---7---0-------------------|-12--10------10--8---------------|
F#|-8---8---8---8---8---8---8---8---|-----------------10--8---7---0---|-------------------------12--10--|
 B|-8---8---8---8---8---8---8---8---|---------------------------------|---------0-----------0-----------|


C#|---------------------------|---------------------------------|------------------------------|
G#|---------------------------|---------------------------------|------------------------------|
 E|---------------------------|---------------------------------|------------------------------|
 B|---------------------------|---------------------------------|------------------------------|
F#|-----10--8-------7---------|---------5-------5-------3-------|-6-------5-------3-------5----|
 B|-0-----------0--------7----|-0---0-------0-------0-------0---|-----0-------0-------0--------|


C#|---------------------|---------------------|---------------------------------|------------------------------|
G#|---------------------|---------------------|---------------------------------|------------------------------|
 E|---------------------|---------------------|---------------------------------|------------------------------|
 B|---------------------|---------------------|---------------------------------|------------------------------|
F#|------8----7---------|-10---8----7----8----|---------5-------5-------3-------|-6-------5-------3-------5----|
 B|-8--------------8----|---------------------|-0---0-------0-------0-------0---|-----0-------0-------0--------|


C#|---------------------|---------------------|---------------------------|------------------------------|
G#|---------------------|---------------------|---------------------------|------------------------------|
 E|---------------------|---------------------|---------------------------|------------------------------|
 B|---------------------|---------------------|---------------------------|------------------------------|
F#|------8----7---------|-10---8----7----8----|-7---0----3---0----6---0---|-0---3---0----6--0----3--0----|
 B|-8--------------8----|---------------------|-7---0----3---0----6---0---|-0---3---0----6--0----3--0----|


C#|---------------------------|---------------------|---------------------------|------------------------------|
G#|---------------------------|---------------------|---------------------------|------------------------------|
 E|---------------------------|---------------------|---------------------------|------------------------------|
 B|---------------------------|---------------------|---------------------------|------------------------------|
F#|-6---0----3---0----3---0---|-3----5----1----3----|-7---0----3---0----6---0---|-0---3---0----6--0----3--0----|
 B|-6---0----3---0----3---0---|-3----5----1----3----|-7---0----3---0----6---0---|-0---3---0----6--0----3--0----|


C#|---------------------------|---------------------|---------------------|------------------------------|
G#|---------------------------|---------------------|---------------------|------------------------------|
 E|---------------------------|---------------------|---------------------|------------------------------|
 B|---------------------------|---------------------|---------------------|------------------------------|
F#|-6---0----3---0----3---0---|-3----5----1----3----|-3----5----1----3----|-0----0----0----0--0--0-------|
 B|-6---0----3---0----3---0---|-3----5----1----3----|-3----5----1----3----|-0----0----0----0--0--0-------|


C#|-----------------------|------------------------------|-------------------------------------------|
G#|-----------------------|------------------------------|-------------------------------------------|
 E|-----------------------|------------------------------|-------------------------------------------|
 B|-----------------------|------------------------------|-------------------------------------------|
F#|-------3---5---1---3---|-0----0----0----0--0--0-------|-----0--0--0-------0--0--0--0--0--0--0--0--|
 B|-------3---5---1---3---|-0----0----0----0--0--0-------|-----0--0--0-------0--0--0--0--0--0--0--0--|


C#|------------------------------|-----------------------|------------------------------|
G#|------------------------------|-----------------------|------------------------------|
 E|------------------------------|-----------------------|------------------------------|
 B|------------------------------|-----------------------|------------------------------|
F#|-0----0----0----0--0--0-------|-------3---5---1---3---|-0----0----0----0--0--0-------|
 B|-0----0----0----0--0--0-------|-------3---5---1---3---|-0----0----0----0--0--0-------|


C#|-------------------------------------------|------------------------------|-----------------------|
G#|-------------------------------------------|------------------------------|-----------------------|
 E|-------------------------------------------|------------------------------|-----------------------|
 B|-------------------------------------------|------------------------------|-----------------------|
F#|-----0--0--0-------0--0--0--0--0--0--0--0--|-0----0----0----0--0--0-------|-------3---5---1---3---|
 B|-----0--0--0-------0--0--0--0--0--0--0--0--|-0----0----0----0--0--0-------|-------3---5---1---3---|


C#|------------------------------|-------------------------------------------|------------------------------|
G#|------------------------------|-------------------------------------------|------------------------------|
 E|------------------------------|-------------------------------------------|------------------------------|
 B|------------------------------|-------------------------------------------|------------------------------|
F#|-0----0----0----0--0--0-------|-----0--0--0-------0--0--0--0--0--0--0--0--|-0----0----0----0--0--0-------|
 B|-0----0----0----0--0--0-------|-----0--0--0-------0--0--0--0--0--0--0--0--|-0----0----0----0--0--0-------|


C#|-----------------------|------------------------------|-------------------------------------------|
G#|-----------------------|------------------------------|-------------------------------------------|
 E|-----------------------|------------------------------|-------------------------------------------|
 B|-----------------------|------------------------------|-------------------------------------------|
F#|-------3---5---1---3---|-0----0----0----0--0--0-------|-----0--0--0-------0--0--0--0--0--0--0--0--|
 B|-------3---5---1---3---|-0----0----0----0--0--0-------|-----0--0--0-------0--0--0--0--0--0--0--0--|


C#|---------------------------------|------------------------------|---------------------|
G#|---------------------------------|------------------------------|---------------------|
 E|---------------------------------|------------------------------|---------------------|
 B|---------------------------------|------------------------------|---------------------|
F#|---------5-------5-------3-------|-6-------5-------3-------5----|------8----7---------|
 B|-0---0-------0-------0-------0---|-----0-------0-------0--------|-8--------------8----|


C#|---------------------|---------------------------------|------------------------------|
G#|---------------------|---------------------------------|------------------------------|
 E|---------------------|---------------------------------|------------------------------|
 B|---------------------|---------------------------------|------------------------------|
F#|-10---8----7----8----|---------5-------5-------3-------|-6-------5-------3-------5----|
 B|---------------------|-0---0-------0-------0-------0---|-----0-------0-------0--------|


C#|---------------------|---------------------|---------------------------------|---------------------------------|
G#|---------------------|---------------------|---------------------------------|---------------------------------|
 E|---------------------|---------------------|---------------------------------|---------------------------------|
 B|---------------------|---------------------|---------------------------------|-8---7---5---0-------------------|
F#|------8----7---------|-10---8----7----8----|-8---8---8---8---8---8---8---8---|-----------------8---7---5---0---|
 B|-8--------------8----|---------------------|-8---8---8---8---8---8---8---8---|---------------------------------|


C#|---------------------------------|---------------------------------|---------------------------------|
G#|---------------------------------|---------------------------------|---------------------------------|
 E|---------------------------------|---------------------------------|---------------------------------|
 B|---------------------------------|---------------------------------|---------------------------------|
F#|-0---0---0---0---0---0---0---0---|-8---7---5---0-------------------|-8---8---8---8---8---8---8---8---|
 B|-0---0---0---0---0---0---0---0---|-----------------8---7---5---0---|-8---8---8---8---8---8---8---8---|


C#|---------------------------------|---------------------------------|---------------------------------|
G#|---------------------------------|---------------------------------|---------------------------------|
 E|---------------------------------|---------------------------------|---------------------------------|
 B|-8---7---5---0-------------------|---------------------------------|---------------------------------|
F#|-----------------8---7---5---0---|-0---0---0---0---0---0---0---0---|-8---7---5---0-------------------|
 B|---------------------------------|-0---0---0---0---0---0---0---0---|-----------------8---7---5---0---|


C#|---------------------------------|---------------------------------|---------------------------------|
G#|---------------------------------|---------------------------------|---------------------------------|
 E|---------------------------------|---------------------------------|---------------------------------|
 B|---------------------------------|-8---7---5---0-------------------|---------------------------------|
F#|-5---5---5---5---5---5---5---5---|-----------------8---7---5---0---|-8---8---8---8---8---8---8---8---|
 B|-5---5---5---5---5---5---5---5---|---------------------------------|-8---8---8---8---8---8---8---8---|


C#|---------------------------------|---------------------------------|---------------------------|
G#|---------------------------------|---------------------------------|---------------------------|
 E|---------------------------------|---------------------------------|---------------------------|
 B|-10--8---7---0-------------------|-12--10------10--8---------------|---------------------------|
F#|-----------------10--8---7---0---|-------------------------12--10--|-----10--8-------7---------|
 B|---------------------------------|---------0-----------0-----------|-0-----------0--------7----|


C#|---------------------------|------------------------------|---------------------------------|
G#|---------------------------|------------------------------|---------------------------------|
 E|---------------------------|------------------------------|---------------------------------|
 B|---------------------------|------------------------------|-12--10------10--8---------------|
F#|------0---0---0---0--------|-0---0---0---0--------0---0---|-------------------------12--10--|
 B|------0---0---0---0--------|-0---0---0---0--------0---0---|---------------------------------|


C#|---------------------------|---------------------------|------------------------------|
G#|---------------------------|---------------------------|------------------------------|
 E|---------------------------|---------------------------|------------------------------|
 B|---------------------------|---------------------------|------------------------------|
F#|-----10--8-------7---------|------0---0---0---0--------|-0---0---0---0--------0---0---|
 B|----------------------7----|------0---0---0---0--------|-0---0---0---0--------0---0---|


C#|---------------------------------|---------------------------|---------------------------|
G#|---------------------------------|---------------------------|---------------------------|
 E|---------------------------------|---------------------------|---------------------------|
 B|-12--10------10--8---------------|---------------------------|---------------------------|
F#|-------------------------12--10--|-----10--8-------7---------|------0---0---0---0--------|
 B|---------------------------------|----------------------7----|------0---0---0---0--------|


C#|------------------------------|---------------------------------|---------------------------|
G#|------------------------------|---------------------------------|---------------------------|
 E|------------------------------|---------------------------------|---------------------------|
 B|------------------------------|-12--10------10--8---------------|---------------------------|
F#|-0---0---0---0--------0---0---|-------------------------12--10--|-----10--8-------7---------|
 B|-0---0---0---0--------0---0---|---------------------------------|----------------------7----|


C#|---------------------------|------------------------------|------------------------------|
G#|---------------------------|------------------------------|------------------------------|
 E|---------------------------|------------------------------|------------------------------|
 B|---------------------------|------------------------------|------------------------------|
F#|------0---0---0---0--------|-0---0---0---0--------0---0---|-0---0--------0---0---0---0---|
 B|------0---0---0---0--------|-0---0---0---0--------0---0---|-0---0--------0---0---0---0---|


C#|---------------------------|------------------------------|------------------------------|
G#|---------------------------|------------------------------|------------------------------|
 E|---------------------------|------------------------------|------------------------------|
 B|---------------------------|------------------------------|------------------------------|
F#|------0---0---0---0--------|-0---0---0---0--------0---0---|-0---0--------0---0---0---0---|
 B|------0---0---0---0--------|-0---0---0---0--------0---0---|-0---0--------0---0---0---0---|


C#|---------------------------|------------------------------|------------------------------|
G#|---------------------------|------------------------------|------------------------------|
 E|---------------------------|------------------------------|------------------------------|
 B|---------------------------|------------------------------|------------------------------|
F#|------0---0---0---0--------|-0---0---0---0--------0---0---|-0---0--------0---0---0---0---|
 B|------0---0---0---0--------|-0---0---0---0--------0---0---|-0---0--------0---0---0---0---|


C#|------------------------------|------------------------------|------------------------------|
G#|------------------------------|------------------------------|------------------------------|
 E|------------------------------|------------------------------|------------------------------|
 B|------------------------------|------------------------------|------------------------------|
F#|------0---0---0---0---0---0---|-0---0---0---0---0---0--------|-0---0---0---0--------0---0---|
 B|------0---0---0---0---0---0---|-0---0---0---0---0---0--------|-0---0---0---0--------0---0---|


C#|------------------------------|---------------------------|-------------------------------|
G#|------------------------------|---------------------------|-------------------------------|
 E|------------------------------|---------------------------|-------------------------------|
 B|------------------------------|---------------------------|-------------------------------|
F#|-0---0--------0---0---0---0---|------0---0---0---0---12---|-0--0--0--0--------0--0--0--0--|
 B|-0---0--------0---0---0---0---|------0---0---0---0---12---|-0--0--0--0--------0--0--0--0--|


C#|--------------------|-------------------------------|--------------------|-------------------------------|
G#|--------------------|-------------------------------|--------------------|-------------------------------|
 E|--------------------|-------------------------------|--------------------|-------------------------------|
 B|--------------------|-------------------------------|--------------------|-------------------------------|
F#|-0--0--0--0---------|-0--0--0--0--------0--0--0--0--|-0--0--0--0---------|-0--0--0--0--------0--0--0--0--|
 B|-0--0--0--0---------|-0--0--0--0--------0--0--0--0--|-0--0--0--0---------|-0--0--0--0--------0--0--0--0--|


C#|--------------------|-------------------------------|--------------------|-------------------------------|
G#|--------------------|-------------------------------|--------------------|-------------------------------|
 E|--------------------|-------------------------------|--------------------|-------------------------------|
 B|--------------------|-------------------------------|--------------------|-------------------------------|
F#|-0--0--0--0---------|-0--0--0--0--------0--0--0--0--|-0--0--0--0---------|-0--0--0--0--0-----0--0--0--0--|
 B|-0--0--0--0---------|-0--0--0--0--------0--0--0--0--|-0--0--0--0---------|-0--0--0--0--0-----0--0--0--0--|


C#|--------------------|-------------------------------|--------------------|--------|
G#|--------------------|-------------------------------|--------------------|--------|
 E|--------------------|-------------------------------|--------------------|--------|
 B|--------------------|-------------------------------|--------------------|-8------|
F#|-0--0--0--0--0------|-0--0--0--0--0-----0--0--0--0--|-0--0--0--0--0------|-8------|
 B|-0--0--0--0--0------|-0--0--0--0--0-----0--0--0--0--|-0--0--0--0--0------|-8------|


C#|--------|--------|------------------------|--------|--------|--------|------------------------|
G#|-10-----|--------|------------------------|--------|-10-----|--------|------------------------|
 E|--------|-10-----|-10---1---10---1---10---|--------|--------|-10-----|-10---1---10---1---10---|
 B|--------|--------|------------------------|-8------|--------|--------|------------------------|
F#|--------|--------|------------------------|-8------|--------|--------|------------------------|
 B|--------|--------|------------------------|-8------|--------|--------|------------------------|


C#|-----------------------------------------|-----------------------------------------|
G#|-----------------------------------------|-----------------------------------------|
 E|-----------------------------------------|-----------------------------------------|
 B|-8---------8---------8---------8---------|-5---------5---------5---------5---------|
F#|-8---8--8--8---8--8--8---8--8--8---8--8--|-5---5--5--5---5--5--5---5--5--5---5--5--|
 B|-8---8--8--8---8--8--8---8--8--8---8--8--|-5---5--5--5---5--5--5---5--5--5---5--5--|


C#|-----------------------------------------|-----------------------------------------|
G#|-----------------------------------------|-----------------------------------------|
 E|-----------------------------------------|-----------------------------------------|
 B|-0---------0---------0---------0---------|-0---------0---------0---------0---------|
F#|-0---0--0--0---0--0--0---0--0--0---0--0--|-0---0--0--0---0--0--0---0--0--0---0--0--|
 B|-0---0--0--0---0--0--0---0--0--0---0--0--|-0---0--0--0---0--0--0---0--0--0---0--0--|


C#|-----------------------------------------|-----------------------------------------|
G#|-----------------------------------------|-----------------------------------------|
 E|-----------------------------------------|-----------------------------------------|
 B|-8---------8---------8---------8---------|-5---------5---------5---------5---------|
F#|-8---8--8--8---8--8--8---8--8--8---8--8--|-5---5--5--5---5--5--5---5--5--5---5--5--|
 B|-8---8--8--8---8--8--8---8--8--8---8--8--|-5---5--5--5---5--5--5---5--5--5---5--5--|


C#|-----------------------------------------|-----------------------------------------|
G#|-----------------------------------------|-----------------------------------------|
 E|-----------------------------------------|-----------------------------------------|
 B|-0---------0---------0---------0---------|-0---------0---------0---------0---------|
F#|-0---0--0--0---0--0--0---0--0--0---0--0--|-0---0--0--0---0--0--0---0--0--0---0--0--|
 B|-0---0--0--0---0--0--0---0--0--0---0--0--|-0---0--0--0---0--0--0---0--0--0---0--0--|


C#|-----------------------------------------|-----------------------------------------|
G#|-----------------------------------------|-----------------------------------------|
 E|-----------------------------------------|-----------------------------------------|
 B|-8---------8---------8---------8---------|-5---------5---------5---------5---------|
F#|-8---8--8--8---8--8--8---8--8--8---8--8--|-5---5--5--5---5--5--5---5--5--5---5--5--|
 B|-8---8--8--8---8--8--8---8--8--8---8--8--|-5---5--5--5---5--5--5---5--5--5---5--5--|


C#|-----------------------------------------|-----------------------------------------|
G#|-----------------------------------------|-----------------------------------------|
 E|-----------------------------------------|-----------------------------------------|
 B|-0---------0---------0---------0---------|-0---------0---------0---------0---------|
F#|-0---0--0--0---0--0--0---0--0--0---0--0--|-0---0--0--0---0--0--0---0--0--0---0--0--|
 B|-0---0--0--0---0--0--0---0--0--0---0--0--|-0---0--0--0---0--0--0---0--0--0---0--0--|


C#|-----------------------------------------|-----------------------------------------|
G#|-----------------------------------------|-----------------------------------------|
 E|-----------------------------------------|-----------------------------------------|
 B|-8---------8---------8---------8---------|-5---------5---------5---------5---------|
F#|-8---8--8--8---8--8--8---8--8--8---8--8--|-5---5--5--5---5--5--5---5--5--5---5--5--|
 B|-8---8--8--8---8--8--8---8--8--8---8--8--|-5---5--5--5---5--5--5---5--5--5---5--5--|


C#|-----------------------------------------|-----------------------------------------|
G#|-----------------------------------------|-----------------------------------------|
 E|-----------------------------------------|-----------------------------------------|
 B|-0---------0---------0---------0---------|-0---------0---------0---------0---------|
F#|-0---0--0--0---0--0--0---0--0--0---0--0--|-0---0--0--0---0--0--0---0--0--0---0--0--|
 B|-0---0--0--0---0--0--0---0--0--0---0--0--|-0---0--0--0---0--0--0---0--0--0---0--0--|


C#|--------|--------|--------|------------------------|--------|--------|--------|
G#|--------|-10-----|--------|------------------------|--------|-10-----|--------|
 E|--------|--------|-10-----|-10---1---10---1---10---|--------|--------|-10-----|
 B|-8------|--------|--------|------------------------|-8------|--------|--------|
F#|-8------|--------|--------|------------------------|-8------|--------|--------|
 B|-8------|--------|--------|------------------------|-8------|--------|--------|


C#|------------------------|--------|--------|--------|--------|--------|--------|
G#|------------------------|--------|--------|--------|--------|--------|--------|
 E|-10---1---10---1---10---|--------|--------|--------|--------|--------|--------|
 B|------------------------|--------|--------|--------|--------|--------|--------|
F#|------------------------|--------|--------|--------|--------|--------|--------|
 B|------------------------|--------|--------|--------|--------|--------|--------|


C#|--------|--------|--------|--------|--------|--------|--------|--------|--------|
G#|--------|--------|--------|--------|--------|--------|--------|--------|--------|
 E|--------|--------|--------|--------|--------|--------|--------|--------|--------|
 B|--------|--------|--------|--------|--------|--------|--------|--------|--------|
F#|--------|--------|--------|--------|--------|--------|--------|--------|--------|
 B|--------|--------|--------|--------|--------|--------|--------|--------|--------|


C#|--------|--------|--------|--------|--------|--------|--------|--------|--------|
G#|--------|--------|--------|--------|--------|--------|--------|--------|--------|
 E|--------|--------|--------|--------|--------|--------|--------|--------|--------|
 B|--------|--------|--------|--------|--------|--------|--------|--------|--------|
F#|--------|--------|--------|--------|--------|--------|--------|--------|--------|
 B|--------|--------|--------|--------|--------|--------|--------|--------|--------|


C#|--------|
G#|--------|
 E|--------|
 B|--------|
F#|--------|
 B|--------|





Track 2: Brian (Rythem)

C#|--------|--------|--------|--------|--------|--------|--------|--------|--------|
G#|--------|--------|--------|--------|--------|--------|--------|--------|--------|
 E|--------|--------|--------|--------|--------|--------|--------|--------|--------|
 B|--------|--------|--------|--------|--------|--------|--------|--------|--------|
F#|--------|--------|--------|--------|--------|--------|--------|--------|--------|
 B|--------|--------|--------|--------|--------|--------|--------|--------|--------|


C#|--------|--------|--------|--------|--------|--------|--------|--------|--------|
G#|--------|--------|--------|--------|--------|--------|--------|--------|--------|
 E|--------|--------|--------|--------|--------|--------|--------|--------|--------|
 B|--------|--------|--------|--------|--------|--------|--------|--------|--------|
F#|--------|--------|--------|--------|--------|--------|--------|--------|--------|
 B|--------|--------|--------|--------|--------|--------|--------|--------|--------|


C#|--------|--------|--------|--------|--------|--------|--------|--------|--------|
G#|--------|--------|--------|--------|--------|--------|--------|--------|--------|
 E|--------|--------|--------|--------|--------|--------|--------|--------|--------|
 B|--------|--------|--------|--------|--------|--------|--------|--------|--------|
F#|--------|--------|--------|--------|--------|--------|--------|--------|--------|
 B|--------|--------|--------|--------|--------|--------|--------|--------|--------|


C#|--------|--------|--------|--------|--------|--------|--------|--------|--------|
G#|--------|--------|--------|--------|--------|--------|--------|--------|--------|
 E|--------|--------|--------|--------|--------|--------|--------|--------|--------|
 B|--------|--------|--------|--------|--------|--------|--------|--------|--------|
F#|--------|--------|--------|--------|--------|--------|--------|--------|--------|
 B|--------|--------|--------|--------|--------|--------|--------|--------|--------|


C#|--------|--------|--------|--------|--------|--------|--------|--------|--------|
G#|--------|--------|--------|--------|--------|--------|--------|--------|--------|
 E|--------|--------|--------|--------|--------|--------|--------|--------|--------|
 B|--------|--------|--------|--------|--------|--------|--------|--------|--------|
F#|--------|--------|--------|--------|--------|--------|--------|--------|--------|
 B|--------|--------|--------|--------|--------|--------|--------|--------|--------|


C#|--------|--------|--------|--------|--------|--------|--------|--------|--------|
G#|--------|--------|--------|--------|--------|--------|--------|--------|--------|
 E|--------|--------|--------|--------|--------|--------|--------|--------|--------|
 B|--------|--------|--------|--------|--------|--------|--------|--------|--------|
F#|--------|--------|--------|--------|--------|--------|--------|--------|--------|
 B|--------|--------|--------|--------|--------|--------|--------|--------|--------|


C#|--------|--------|--------|--------|--------|--------|--------|--------|--------|
G#|--------|--------|--------|--------|--------|--------|--------|--------|--------|
 E|--------|--------|--------|--------|--------|--------|--------|--------|--------|
 B|--------|--------|--------|--------|--------|--------|--------|--------|--------|
F#|--------|--------|--------|--------|--------|--------|--------|--------|--------|
 B|--------|--------|--------|--------|--------|--------|--------|--------|--------|


C#|--------|--------|--------|--------|--------|--------|--------|--------|--------|
G#|--------|--------|--------|--------|--------|--------|--------|--------|--------|
 E|--------|--------|--------|--------|--------|--------|--------|--------|--------|
 B|--------|--------|--------|--------|--------|--------|--------|--------|--------|
F#|--------|--------|--------|--------|--------|--------|--------|--------|--------|
 B|--------|--------|--------|--------|--------|--------|--------|--------|--------|


C#|--------|--------|--------|--------|--------|--------|--------|--------|--------|
G#|--------|--------|--------|--------|--------|--------|--------|--------|--------|
 E|--------|--------|--------|--------|--------|--------|--------|--------|--------|
 B|--------|--------|--------|--------|--------|--------|--------|--------|--------|
F#|--------|--------|--------|--------|--------|--------|--------|--------|--------|
 B|--------|--------|--------|--------|--------|--------|--------|--------|--------|


C#|--------|--------|--------|--------|--------|--------|--------|--------|--------|
G#|--------|--------|--------|--------|--------|--------|--------|--------|--------|
 E|--------|--------|--------|--------|--------|--------|--------|--------|--------|
 B|--------|--------|--------|--------|--------|--------|--------|--------|--------|
F#|--------|--------|--------|--------|--------|--------|--------|--------|--------|
 B|--------|--------|--------|--------|--------|--------|--------|--------|--------|


C#|--------|--------|--------|--------|--------|--------|--------|--------|--------|
G#|--------|--------|--------|--------|--------|--------|--------|--------|--------|
 E|--------|--------|--------|--------|--------|--------|--------|--------|--------|
 B|--------|--------|--------|--------|--------|--------|--------|--------|--------|
F#|--------|--------|--------|--------|--------|--------|--------|--------|--------|
 B|--------|--------|--------|--------|--------|--------|--------|--------|--------|


C#|--------|--------|--------|--------|--------|--------|--------|--------|--------|
G#|--------|--------|--------|--------|--------|--------|--------|--------|--------|
 E|--------|--------|--------|--------|--------|--------|--------|--------|--------|
 B|--------|--------|--------|--------|--------|--------|--------|--------|--------|
F#|--------|--------|--------|--------|--------|--------|--------|--------|--------|
 B|--------|--------|--------|--------|--------|--------|--------|--------|--------|


C#|--------|--------|--------|--------|--------|--------|--------|--------|--------|
G#|--------|--------|--------|--------|--------|--------|--------|--------|--------|
 E|--------|--------|--------|--------|--------|--------|--------|--------|--------|
 B|--------|--------|--------|--------|--------|--------|--------|--------|--------|
F#|--------|--------|--------|--------|--------|--------|--------|--------|--------|
 B|--------|--------|--------|--------|--------|--------|--------|--------|--------|


C#|--------|--------|--------|--------|--------|--------|--------|--------|--------|
G#|--------|--------|--------|--------|--------|--------|--------|--------|--------|
 E|--------|--------|--------|--------|--------|--------|--------|--------|--------|
 B|--------|--------|--------|--------|--------|--------|--------|--------|--------|
F#|--------|--------|--------|--------|--------|--------|--------|--------|--------|
 B|--------|--------|--------|--------|--------|--------|--------|--------|--------|


C#|--------|--------|--------|--------|--------|--------|--------|--------|--------|
G#|--------|--------|--------|--------|--------|--------|--------|--------|--------|
 E|--------|--------|--------|--------|--------|--------|--------|--------|--------|
 B|--------|--------|--------|--------|--------|--------|--------|--------|--------|
F#|--------|--------|--------|--------|--------|--------|--------|--------|--------|
 B|--------|--------|--------|--------|--------|--------|--------|--------|--------|


C#|--------|--------|--------|--------|--------|--------|--------|--------|--------|
G#|--------|--------|--------|--------|--------|--------|--------|--------|--------|
 E|--------|--------|--------|--------|--------|--------|--------|--------|--------|
 B|--------|--------|--------|--------|--------|--------|--------|--------|--------|
F#|--------|--------|--------|--------|--------|--------|--------|--------|--------|
 B|--------|--------|--------|--------|--------|--------|--------|--------|--------|


C#|--------|--------|--------|--------|--------|--------|--------|--------|--------|
G#|--------|--------|--------|--------|--------|--------|--------|--------|--------|
 E|--------|--------|--------|--------|--------|--------|--------|--------|--------|
 B|--------|--------|--------|--------|--------|--------|--------|--------|--------|
F#|--------|--------|--------|--------|--------|--------|--------|--------|--------|
 B|--------|--------|--------|--------|--------|--------|--------|--------|--------|


C#|--------|--------|--------|--------|--------|--------|--------|--------|--------|
G#|--------|--------|--------|--------|--------|--------|--------|--------|--------|
 E|--------|--------|--------|--------|--------|--------|--------|--------|--------|
 B|--------|--------|--------|--------|--------|--------|--------|--------|--------|
F#|--------|--------|--------|--------|--------|--------|--------|--------|--------|
 B|--------|--------|--------|--------|--------|--------|--------|--------|--------|


C#|--------|--------|--------|--------|--------|--------|--------|--------|--------|
G#|--------|--------|--------|--------|--------|--------|--------|--------|--------|
 E|--------|--------|--------|--------|--------|--------|--------|--------|--------|
 B|--------|--------|--------|--------|--------|--------|--------|--------|--------|
F#|--------|--------|--------|--------|--------|--------|--------|--------|--------|
 B|--------|--------|--------|--------|--------|--------|--------|--------|--------|


C#|--------|--------|--------|--------|--------|--------|--------|--------|--------|
G#|--------|--------|--------|--------|--------|--------|--------|--------|--------|
 E|--------|--------|--------|--------|--------|--------|--------|--------|--------|
 B|--------|--------|--------|--------|--------|--------|--------|--------|--------|
F#|--------|--------|--------|--------|--------|--------|--------|--------|--------|
 B|--------|--------|--------|--------|--------|--------|--------|--------|--------|


C#|--------|--------|--------|--------|--------|--------|--------|--------|--------|
G#|--------|--------|--------|--------|--------|--------|--------|--------|--------|
 E|--------|--------|--------|--------|--------|--------|--------|--------|--------|
 B|--------|--------|--------|--------|--------|--------|--------|--------|--------|
F#|--------|--------|--------|--------|--------|--------|--------|--------|--------|
 B|--------|--------|--------|--------|--------|--------|--------|--------|--------|


C#|--------|--------|--------|--------|--------|--------|--------|--------|--------|
G#|--------|--------|--------|--------|--------|--------|--------|--------|--------|
 E|--------|--------|--------|--------|--------|--------|--------|--------|--------|
 B|--------|--------|--------|--------|--------|--------|--------|--------|--------|
F#|--------|--------|--------|--------|--------|--------|--------|--------|--------|
 B|--------|--------|--------|--------|--------|--------|--------|--------|--------|


C#|--------|--------|--------|
G#|--------|--------|--------|
 E|--------|--------|--------|
 B|--------|--------|--------|
F#|--------|--------|--------|
 B|--------|--------|--------|





Track 3: Scott (Lead)

C#|--------|---------------------------------|------------------------------|---------------------|
G#|--------|---------------------------------|------------------------------|---------------------|
 E|--------|---------------------------------|------------------------------|---------------------|
 B|--------|---------------------------------|------------------------------|---------------------|
F#|--------|-5-------5-------5-------3-------|-6-------5-------3-------0----|------8----7---------|
 B|--------|-----0-------0-------0-------0---|-----0-------0-------0--------|-8--------------8----|


C#|---------------------|---------------------------------|------------------------------|
G#|---------------------|---------------------------------|------------------------------|
 E|---------------------|---------------------------------|------------------------------|
 B|---------------------|---------------------------------|------------------------------|
F#|-10---8----7----8----|---------12------12------10------|-13------12------10------8----|
 B|---------------------|-0---0-------0-------0-------0---|-----0-------0-------0--------|


C#|---------------------|---------------------|---------------------------------|------------------------------|
G#|---------------------|---------------------|---------------------------------|------------------------------|
 E|---------------------|---------------------|---------------------------------|------------------------------|
 B|---------------------|---------------------|---------------------------------|------------------------------|
F#|------8----7---------|-10---8----7----8----|---------12------12------10------|-13------12------10------8----|
 B|-8--------------8----|---------------------|-0---0-------0-------0-------0---|-----0-------0-------0--------|


C#|---------------------|---------------------|--------|--------|--------|--------|
G#|---------------------|---------------------|--------|--------|--------|--------|
 E|---------------------|---------------------|--------|--------|--------|--------|
 B|---------------------|---------------------|--------|--------|--------|--------|
F#|------8----7---------|-10---8----7----8----|--------|--------|--------|--------|
 B|-8--------------8----|---------------------|--------|--------|--------|--------|


C#|--------|--------|--------|--------|---------------------------------|------------------------------|
G#|--------|--------|--------|--------|---------------------------------|------------------------------|
 E|--------|--------|--------|--------|---------------------------------|------------------------------|
 B|--------|--------|--------|--------|---------------------------------|------------------------------|
F#|--------|--------|--------|--------|---------12------12------10------|-13------12------10------8----|
 B|--------|--------|--------|--------|-0---0-------0-------0-------0---|-----0-------0-------0--------|


C#|---------------------|---------------------|---------------------------------|------------------------------|
G#|---------------------|---------------------|---------------------------------|------------------------------|
 E|---------------------|---------------------|---------------------------------|------------------------------|
 B|---------------------|---------------------|---------------------------------|------------------------------|
F#|------8----7---------|-10---8----7----8----|---------12------12------10------|-13------12------10------8----|
 B|-8--------------8----|---------------------|-0---0-------0-------0-------0---|-----0-------0-------0--------|


C#|---------------------|---------------------|---------------------------------|------------------------------|
G#|---------------------|---------------------|---------------------------------|------------------------------|
 E|---------------------|---------------------|---------------------------------|------------------------------|
 B|---------------------|---------------------|---------------------------------|------------------------------|
F#|------8----7---------|-10---8----7----8----|---------12------12------10------|-13------12------10------8----|
 B|-8--------------8----|---------------------|-0---0-------0-------0-------0---|-----0-------0-------0--------|


C#|---------------------|---------------------|---------------------------------|------------------------------|
G#|---------------------|---------------------|---------------------------------|------------------------------|
 E|---------------------|---------------------|---------------------------------|------------------------------|
 B|---------------------|---------------------|---------------------------------|------------------------------|
F#|------8----7---------|-10---8----7----8----|---------12------12------10------|-13------12------10------8----|
 B|-8--------------8----|---------------------|-0---0-------0-------0-------0---|-----0-------0-------0--------|


C#|---------------------|---------------------|--------|--------|--------|--------|
G#|---------------------|---------------------|--------|--------|--------|--------|
 E|---------------------|---------------------|--------|--------|--------|--------|
 B|---------------------|---------------------|--------|--------|--------|--------|
F#|------8----7---------|-10---8----7----8----|--------|--------|--------|--------|
 B|-8--------------8----|---------------------|--------|--------|--------|--------|


C#|--------|--------|--------|--------|--------|--------|--------|--------|--------|
G#|--------|--------|--------|--------|--------|--------|--------|--------|--------|
 E|--------|--------|--------|--------|--------|--------|--------|--------|--------|
 B|--------|--------|--------|--------|--------|--------|--------|--------|--------|
F#|--------|--------|--------|--------|--------|--------|--------|--------|--------|
 B|--------|--------|--------|--------|--------|--------|--------|--------|--------|


C#|--------|---------------------------------|------------------------------|---------------------|
G#|--------|---------------------------------|------------------------------|---------------------|
 E|--------|---------------------------------|------------------------------|---------------------|
 B|--------|---------------------------------|------------------------------|---------------------|
F#|--------|---------5-------5-------3-------|-6-------5-------3-------5----|------8----7---------|
 B|--------|-0---0-------0-------0-------0---|-----0-------0-------0--------|-8--------------8----|


C#|---------------------|---------------------------------|------------------------------|
G#|---------------------|---------------------------------|------------------------------|
 E|---------------------|---------------------------------|------------------------------|
 B|---------------------|---------------------------------|------------------------------|
F#|-10---8----7----8----|---------5-------5-------3-------|-6-------5-------3-------5----|
 B|---------------------|-0---0-------0-------0-------0---|-----0-------0-------0--------|


C#|---------------------|---------------------|--------|--------|--------|--------|
G#|---------------------|---------------------|--------|--------|--------|--------|
 E|---------------------|---------------------|--------|--------|--------|--------|
 B|---------------------|---------------------|--------|--------|--------|--------|
F#|------8----7---------|-10---8----7----8----|--------|--------|--------|--------|
 B|-8--------------8----|---------------------|--------|--------|--------|--------|


C#|--------|--------|--------|--------|--------|--------|--------|--------|--------|
G#|--------|--------|--------|--------|--------|--------|--------|--------|--------|
 E|--------|--------|--------|--------|--------|--------|--------|--------|--------|
 B|--------|--------|--------|--------|--------|--------|--------|--------|--------|
F#|--------|--------|--------|--------|--------|--------|--------|--------|--------|
 B|--------|--------|--------|--------|--------|--------|--------|--------|--------|


C#|--------|--------|--------|--------|--------|--------|--------|--------|--------|
G#|--------|--------|--------|--------|--------|--------|--------|--------|--------|
 E|--------|--------|--------|--------|--------|--------|--------|--------|--------|
 B|--------|--------|--------|--------|--------|--------|--------|--------|--------|
F#|--------|--------|--------|--------|--------|--------|--------|--------|--------|
 B|--------|--------|--------|--------|--------|--------|--------|--------|--------|


C#|--------|--------|--------|---------------------------------|------------------------------|
G#|--------|--------|--------|---------------------------------|------------------------------|
 E|--------|--------|--------|---------------------------------|------------------------------|
 B|--------|--------|--------|---------------------------------|------------------------------|
F#|--------|--------|--------|---------12------12------10------|-13------12------10------8----|
 B|--------|--------|--------|-0---0-------0-------0-------0---|-----0-------0-------0--------|


C#|---------------------|---------------------|---------------------------------|------------------------------|
G#|---------------------|---------------------|---------------------------------|------------------------------|
 E|---------------------|---------------------|---------------------------------|------------------------------|
 B|---------------------|---------------------|---------------------------------|------------------------------|
F#|------8----7---------|-10---8----7----8----|---------12------12------10------|-13------12------10------8----|
 B|-8--------------8----|---------------------|-0---0-------0-------0-------0---|-----0-------0-------0--------|


C#|---------------------|---------------------|--------|--------|--------|--------|
G#|---------------------|---------------------|--------|--------|--------|--------|
 E|---------------------|---------------------|--------|--------|--------|--------|
 B|---------------------|---------------------|--------|--------|--------|--------|
F#|------8----7---------|-10---8----7----8----|--------|--------|--------|--------|
 B|-8--------------8----|---------------------|--------|--------|--------|--------|


C#|--------|--------|--------|--------|--------|--------|--------|--------|--------|
G#|--------|--------|--------|--------|--------|--------|--------|--------|--------|
 E|--------|--------|--------|--------|--------|--------|--------|--------|--------|
 B|--------|--------|--------|--------|--------|--------|--------|--------|--------|
F#|--------|--------|--------|--------|--------|--------|--------|--------|--------|
 B|--------|--------|--------|--------|--------|--------|--------|--------|--------|


C#|--------|---------------------------|------------------------------|---------------------------------|
G#|--------|---------------------------|------------------------------|---------------------------------|
 E|--------|---------------------------|------------------------------|---------------------------------|
 B|--------|---------------------------|------------------------------|-12--10------10--8---------------|
F#|--------|-12---0---0---0---0--------|-0---0---0---0--------0---0---|-------------------------12--10--|
 B|--------|------0---0---0---0--------|-0---0---0---0--------0---0---|---------------------------------|


C#|---------------------------|---------------------------|------------------------------|
G#|---------------------------|---------------------------|------------------------------|
 E|---------------------------|---------------------------|------------------------------|
 B|---------------------------|---------------------------|------------------------------|
F#|-----10--8-------7---------|-12---0---0---0---0--------|-0---0---0---0--------0---0---|
 B|----------------------7----|------0---0---0---0--------|-0---0---0---0--------0---0---|


C#|---------------------------------|---------------------------|---------------------------|
G#|---------------------------------|---------------------------|---------------------------|
 E|---------------------------------|---------------------------|---------------------------|
 B|-12--10------10--8---------------|---------------------------|---------------------------|
F#|-------------------------12--10--|-----10--8-------7---------|-12---0---0---0---0--------|
 B|---------------------------------|----------------------7----|------0---0---0---0--------|


C#|------------------------------|---------------------------------|---------------------------|
G#|------------------------------|---------------------------------|---------------------------|
 E|------------------------------|---------------------------------|---------------------------|
 B|------------------------------|-12--10------10--8---------------|---------------------------|
F#|-0---0---0---0--------0---0---|-------------------------12--10--|-----10--8-------7---------|
 B|-0---0---0---0--------0---0---|---------------------------------|----------------------7----|


C#|---------------------------|------------------------------|------------------------------|
G#|---------------------------|------------------------------|------------------------------|
 E|---------------------------|------------------------------|------------------------------|
 B|---------------------------|------------------------------|------------------------------|
F#|-12---0---0---0---0--------|-0---0---0---0--------0---0---|-0---0--------0---0---0---0---|
 B|------0---0---0---0--------|-0---0---0---0--------0---0---|-0---0--------0---0---0---0---|


C#|---------------------------|------------------------------|------------------------------|
G#|---------------------------|------------------------------|------------------------------|
 E|---------------------------|------------------------------|------------------------------|
 B|---------------------------|------------------------------|------------------------------|
F#|------0---0---0---0--------|-0---0---0---0--------0---0---|-0---0--------0---0---0---0---|
 B|------0---0---0---0--------|-0---0---0---0--------0---0---|-0---0--------0---0---0---0---|


C#|---------------------------|--------|--------|--------|--------|--------|--------|
G#|---------------------------|--------|--------|--------|--------|--------|--------|
 E|---------------------------|--------|--------|--------|--------|--------|--------|
 B|---------------------------|--------|--------|--------|--------|--------|--------|
F#|------0---0---0---0--------|--------|--------|--------|--------|--------|--------|
 B|------0---0---0---0--------|--------|--------|--------|--------|--------|--------|


C#|--------|--------|--------|--------|--------|--------|--------|--------|--------|
G#|--------|--------|--------|--------|--------|--------|--------|--------|--------|
 E|--------|--------|--------|--------|--------|--------|--------|--------|--------|
 B|--------|--------|--------|--------|--------|--------|--------|--------|--------|
F#|--------|--------|--------|--------|--------|--------|--------|--------|--------|
 B|--------|--------|--------|--------|--------|--------|--------|--------|--------|


C#|--------|--------|--------|--------|--------|--------|---------------------|---------------------|
G#|--------|--------|--------|--------|--------|--------|---------------------|---------------------|
 E|--------|--------|--------|--------|--------|--------|---------------------|---------------------|
 B|--------|--------|--------|--------|-8------|-5------|-0-------------------|---------------------|
F#|--------|--------|--------|--------|-8------|-5------|-0----0----5---------|-0----5----0----5----|
 B|--------|--------|--------|--------|-8------|-5------|-0--------------0----|---------------------|


C#|--------|--------|---------------------|---------------------|--------|--------|
G#|--------|--------|---------------------|---------------------|--------|--------|
 E|--------|--------|---------------------|---------------------|--------|--------|
 B|-8------|-5------|-0-------------------|---------------------|--------|--------|
F#|-8------|-5------|-0----0----5---------|-0----5----0----5----|--------|--------|
 B|-8------|-5------|-0--------------0----|---------------------|--------|--------|


C#|--------|--------|--------|--------|--------|--------|--------|--------|--------|
G#|--------|--------|--------|--------|--------|--------|--------|--------|--------|
 E|--------|--------|--------|--------|--------|--------|--------|--------|--------|
 B|--------|--------|--------|--------|--------|--------|--------|--------|--------|
F#|--------|--------|--------|--------|--------|--------|--------|--------|--------|
 B|--------|--------|--------|--------|--------|--------|--------|--------|--------|


C#|--------|--------|--------|--------|--------|--------|--------|---------------------|
G#|--------|--------|--------|--------|--------|--------|--------|---------------------|
 E|--------|--------|--------|--------|--------|--------|--------|---------------------|
 B|--------|--------|--------|--------|--------|-8------|-5------|-0-------------------|
F#|--------|--------|--------|--------|--------|-8------|-5------|-0----0----5---------|
 B|--------|--------|--------|--------|--------|-8------|-5------|-0--------------0----|


C#|---------------------|--------|--------|---------------------|---------------------|
G#|---------------------|--------|--------|---------------------|---------------------|
 E|---------------------|--------|--------|---------------------|---------------------|
 B|---------------------|-8------|-5------|-0-------------------|---------------------|
F#|-0----5----0----5----|-8------|-5------|-0----0----5---------|-0----5----0----5----|
 B|---------------------|-8------|-5------|-0--------------0----|---------------------|


C#|--------|--------|--------|--------|--------|--------|--------|--------|--------|
G#|--------|--------|--------|--------|--------|--------|--------|--------|--------|
 E|--------|--------|--------|--------|--------|--------|--------|--------|--------|
 B|--------|--------|--------|--------|--------|--------|--------|--------|--------|
F#|--------|--------|--------|--------|--------|--------|--------|--------|--------|
 B|--------|--------|--------|--------|--------|--------|--------|--------|--------|


C#|--------|--------|--------|--------|--------|--------|--------|--------|--------|
G#|--------|--------|--------|--------|--------|--------|--------|--------|--------|
 E|--------|--------|--------|--------|--------|--------|--------|--------|--------|
 B|--------|--------|--------|--------|--------|--------|--------|--------|--------|
F#|--------|--------|--------|--------|--------|--------|--------|--------|--------|
 B|--------|--------|--------|--------|--------|--------|--------|--------|--------|


C#|--------|--------|--------|--------|--------|--------|--------|
G#|--------|--------|--------|--------|--------|--------|--------|
 E|--------|--------|--------|--------|--------|--------|--------|
 B|--------|--------|--------|--------|--------|--------|--------|
F#|--------|--------|--------|--------|--------|--------|--------|
 B|--------|--------|--------|--------|--------|--------|--------|





Track 4: Scott (Solo Guitar)

C#|--------|--------|--------|--------|--------|--------|--------|--------|--------|
G#|--------|--------|--------|--------|--------|--------|--------|--------|--------|
 E|--------|--------|--------|--------|--------|--------|--------|--------|--------|
 B|--------|--------|--------|--------|--------|--------|--------|--------|--------|
F#|--------|--------|--------|--------|--------|--------|--------|--------|--------|
 B|--------|--------|--------|--------|--------|--------|--------|--------|--------|


C#|--------|--------|--------|--------|--------|--------|--------|--------|--------|
G#|--------|--------|--------|--------|--------|--------|--------|--------|--------|
 E|--------|--------|--------|--------|--------|--------|--------|--------|--------|
 B|--------|--------|--------|--------|--------|--------|--------|--------|--------|
F#|--------|--------|--------|--------|--------|--------|--------|--------|--------|
 B|--------|--------|--------|--------|--------|--------|--------|--------|--------|


C#|--------|--------|--------|--------|--------|--------|--------|--------|--------|
G#|--------|--------|--------|--------|--------|--------|--------|--------|--------|
 E|--------|--------|--------|--------|--------|--------|--------|--------|--------|
 B|--------|--------|--------|--------|--------|--------|--------|--------|--------|
F#|--------|--------|--------|--------|--------|--------|--------|--------|--------|
 B|--------|--------|--------|--------|--------|--------|--------|--------|--------|


C#|--------|--------|--------|--------|--------|--------|--------|--------|--------|
G#|--------|--------|--------|--------|--------|--------|--------|--------|--------|
 E|--------|--------|--------|--------|--------|--------|--------|--------|--------|
 B|--------|--------|--------|--------|--------|--------|--------|--------|--------|
F#|--------|--------|--------|--------|--------|--------|--------|--------|--------|
 B|--------|--------|--------|--------|--------|--------|--------|--------|--------|


C#|--------|--------|--------|--------|--------|--------|--------|--------|--------|
G#|--------|--------|--------|--------|--------|--------|--------|--------|--------|
 E|--------|--------|--------|--------|--------|--------|--------|--------|--------|
 B|--------|--------|--------|--------|--------|--------|--------|--------|--------|
F#|--------|--------|--------|--------|--------|--------|--------|--------|--------|
 B|--------|--------|--------|--------|--------|--------|--------|--------|--------|


C#|--------|--------|--------|--------|--------|--------|--------|--------|--------|
G#|--------|--------|--------|--------|--------|--------|--------|--------|--------|
 E|--------|--------|--------|--------|--------|--------|--------|--------|--------|
 B|--------|--------|--------|--------|--------|--------|--------|--------|--------|
F#|--------|--------|--------|--------|--------|--------|--------|--------|--------|
 B|--------|--------|--------|--------|--------|--------|--------|--------|--------|


C#|--------|--------|--------|--------|--------|--------|--------|--------|--------|
G#|--------|--------|--------|--------|--------|--------|--------|--------|--------|
 E|--------|--------|--------|--------|--------|--------|--------|--------|--------|
 B|--------|--------|--------|--------|--------|--------|--------|--------|--------|
F#|--------|--------|--------|--------|--------|--------|--------|--------|--------|
 B|--------|--------|--------|--------|--------|--------|--------|--------|--------|


C#|--------|--------|--------|--------|--------|--------|--------|--------|--------|
G#|--------|--------|--------|--------|--------|--------|--------|--------|--------|
 E|--------|--------|--------|--------|--------|--------|--------|--------|--------|
 B|--------|--------|--------|--------|--------|--------|--------|--------|--------|
F#|--------|--------|--------|--------|--------|--------|--------|--------|--------|
 B|--------|--------|--------|--------|--------|--------|--------|--------|--------|


C#|--------|--------|--------|--------|--------|--------|--------|--------|--------|
G#|--------|--------|--------|--------|--------|--------|--------|--------|--------|
 E|--------|--------|--------|--------|--------|--------|--------|--------|--------|
 B|--------|--------|--------|--------|--------|--------|--------|--------|--------|
F#|--------|--------|--------|--------|--------|--------|--------|--------|--------|
 B|--------|--------|--------|--------|--------|--------|--------|--------|--------|


C#|--------|--------|--------|--------|--------|--------|--------|--------|--------|
G#|--------|--------|--------|--------|--------|--------|--------|--------|--------|
 E|--------|--------|--------|--------|--------|--------|--------|--------|--------|
 B|--------|--------|--------|--------|--------|--------|--------|--------|--------|
F#|--------|--------|--------|--------|--------|--------|--------|--------|--------|
 B|--------|--------|--------|--------|--------|--------|--------|--------|--------|


C#|--------|--------|--------|--------|--------|--------|--------|--------|--------|
G#|--------|--------|--------|--------|--------|--------|--------|--------|--------|
 E|--------|--------|--------|--------|--------|--------|--------|--------|--------|
 B|--------|--------|--------|--------|--------|--------|--------|--------|--------|
F#|--------|--------|--------|--------|--------|--------|--------|--------|--------|
 B|--------|--------|--------|--------|--------|--------|--------|--------|--------|


C#|--------|--------|--------|--------|--------|--------|--------|--------|--------|
G#|--------|--------|--------|--------|--------|--------|--------|--------|--------|
 E|--------|--------|--------|--------|--------|--------|--------|--------|--------|
 B|--------|--------|--------|--------|--------|--------|--------|--------|--------|
F#|--------|--------|--------|--------|--------|--------|--------|--------|--------|
 B|--------|--------|--------|--------|--------|--------|--------|--------|--------|


C#|--------|--------|--------|--------|--------|--------|--------|--------|--------|
G#|--------|--------|--------|--------|--------|--------|--------|--------|--------|
 E|--------|--------|--------|--------|--------|--------|--------|--------|--------|
 B|--------|--------|--------|--------|--------|--------|--------|--------|--------|
F#|--------|--------|--------|--------|--------|--------|--------|--------|--------|
 B|--------|--------|--------|--------|--------|--------|--------|--------|--------|


C#|--------|--------|--------|--------|--------|--------|--------|--------|--------|
G#|--------|--------|--------|--------|--------|--------|--------|--------|--------|
 E|--------|--------|--------|--------|--------|--------|--------|--------|--------|
 B|--------|--------|--------|--------|--------|--------|--------|--------|--------|
F#|--------|--------|--------|--------|--------|--------|--------|--------|--------|
 B|--------|--------|--------|--------|--------|--------|--------|--------|--------|


C#|--------|--------|--------|--------|--------|--------|--------|--------|--------|
G#|--------|--------|--------|--------|--------|--------|--------|--------|--------|
 E|--------|--------|--------|--------|--------|--------|--------|--------|--------|
 B|--------|--------|--------|--------|--------|--------|--------|--------|--------|
F#|--------|--------|--------|--------|--------|--------|--------|--------|--------|
 B|--------|--------|--------|--------|--------|--------|--------|--------|--------|


C#|--------|--------|--------|--------|--------|--------|--------|--------|--------|
G#|--------|--------|--------|--------|--------|--------|--------|--------|--------|
 E|--------|--------|--------|--------|--------|--------|--------|--------|--------|
 B|--------|--------|--------|--------|--------|--------|--------|--------|--------|
F#|--------|--------|--------|--------|--------|--------|--------|--------|--------|
 B|--------|--------|--------|--------|--------|--------|--------|--------|--------|


C#|--------|--------|--------|--------|--------|--------|--------|--------|--------|
G#|--------|--------|--------|--------|--------|--------|--------|--------|--------|
 E|--------|--------|--------|--------|--------|--------|--------|--------|--------|
 B|--------|--------|--------|--------|--------|--------|--------|--------|--------|
F#|--------|--------|--------|--------|--------|--------|--------|--------|--------|
 B|--------|--------|--------|--------|--------|--------|--------|--------|--------|


C#|--------|--------|--------|--------|--------|--------|--------|-------------------------------------------------|
G#|--------|--------|--------|--------|--------|--------|--------|-18-15-18-15-18-15-18-15-18-15-18-15-18-15-18-15-|
 E|--------|--------|--------|--------|--------|--------|--------|-------------------------------------------------|
 B|--------|--------|--------|--------|--------|--------|--------|-------------------------------------------------|
F#|--------|--------|--------|--------|--------|--------|--------|-------------------------------------------------|
 B|--------|--------|--------|--------|--------|--------|--------|-------------------------------------------------|


C#|-------------------------------------------------|-------------------------------------------------|
G#|-17-20-17-20-17-20-17-20-17-20-17-20-17-20-17-20-|-22-18-22-18-22-18-22-18-22-18-22-18-22-18-22-18-|
 E|-------------------------------------------------|-------------------------------------------------|
 B|-------------------------------------------------|-------------------------------------------------|
F#|-------------------------------------------------|-------------------------------------------------|
 B|-------------------------------------------------|-------------------------------------------------|


C#|-18---17-----------------------|---------------------------|----------------------------------|
G#|-----------20--18--17--15------|-17---17-15--15------------|----------------------------------|
 E|---------------------------17--|------------------14---15--|-15---14-15-14--12-14-12----------|
 B|-------------------------------|---------------------------|--------------------------15--11--|
F#|-------------------------------|---------------------------|----------------------------------|
 B|-------------------------------|---------------------------|----------------------------------|


C#|---------------------|----------------|--------|--------|--------|--------|--------|
G#|---------------------|----------------|--------|--------|--------|--------|--------|
 E|---------------------|---------3------|--------|--------|--------|--------|--------|
 B|-12---------12---10--|-10--3----------|--------|--------|--------|--------|--------|
F#|-------12------------|----------------|--------|--------|--------|--------|--------|
 B|---------------------|----------------|--------|--------|--------|--------|--------|


C#|--------|--------|--------|--------|--------|--------|--------|--------|--------|
G#|--------|--------|--------|--------|--------|--------|--------|--------|--------|
 E|--------|--------|--------|--------|--------|--------|--------|--------|--------|
 B|--------|--------|--------|--------|--------|--------|--------|--------|--------|
F#|--------|--------|--------|--------|--------|--------|--------|--------|--------|
 B|--------|--------|--------|--------|--------|--------|--------|--------|--------|


C#|--------|--------|--------|--------|--------|--------|--------|--------|--------|
G#|--------|--------|--------|--------|--------|--------|--------|--------|--------|
 E|--------|--------|--------|--------|--------|--------|--------|--------|--------|
 B|--------|--------|--------|--------|--------|--------|--------|--------|--------|
F#|--------|--------|--------|--------|--------|--------|--------|--------|--------|
 B|--------|--------|--------|--------|--------|--------|--------|--------|--------|


C#|--------|--------|--------|--------|--------|--------|--------|--------|--------|
G#|--------|--------|--------|--------|--------|--------|--------|--------|--------|
 E|--------|--------|--------|--------|--------|--------|--------|--------|--------|
 B|--------|--------|--------|--------|--------|--------|--------|--------|--------|
F#|--------|--------|--------|--------|--------|--------|--------|--------|--------|
 B|--------|--------|--------|--------|--------|--------|--------|--------|--------|


C#|--------|
G#|--------|
 E|--------|
 B|--------|
F#|--------|
 B|--------|





Track 5: Clean Guitar

C#|--------|--------|--------|--------|--------|--------|--------|--------|--------|
G#|--------|--------|--------|--------|--------|--------|--------|--------|--------|
 E|--------|--------|--------|--------|--------|--------|--------|--------|--------|
 B|--------|--------|--------|--------|--------|--------|--------|--------|--------|
F#|--------|--------|--------|--------|--------|--------|--------|--------|--------|
 B|--------|--------|--------|--------|--------|--------|--------|--------|--------|


C#|--------|--------|--------|--------|--------|--------|--------|--------|--------|
G#|--------|--------|--------|--------|--------|--------|--------|--------|--------|
 E|--------|--------|--------|--------|--------|--------|--------|--------|--------|
 B|--------|--------|--------|--------|--------|--------|--------|--------|--------|
F#|--------|--------|--------|--------|--------|--------|--------|--------|--------|
 B|--------|--------|--------|--------|--------|--------|--------|--------|--------|


C#|--------|--------|--------|--------|--------|--------|--------|--------|--------|
G#|--------|--------|--------|--------|--------|--------|--------|--------|--------|
 E|--------|--------|--------|--------|--------|--------|--------|--------|--------|
 B|--------|--------|--------|--------|--------|--------|--------|--------|--------|
F#|--------|--------|--------|--------|--------|--------|--------|--------|--------|
 B|--------|--------|--------|--------|--------|--------|--------|--------|--------|


C#|--------|--------|--------|--------|--------|--------|--------|--------|--------|
G#|--------|--------|--------|--------|--------|--------|--------|--------|--------|
 E|--------|--------|--------|--------|--------|--------|--------|--------|--------|
 B|--------|--------|--------|--------|--------|--------|--------|--------|--------|
F#|--------|--------|--------|--------|--------|--------|--------|--------|--------|
 B|--------|--------|--------|--------|--------|--------|--------|--------|--------|


C#|--------|--------|--------|--------|--------|--------|--------|--------|--------|
G#|--------|--------|--------|--------|--------|--------|--------|--------|--------|
 E|--------|--------|--------|--------|--------|--------|--------|--------|--------|
 B|--------|--------|--------|--------|--------|--------|--------|--------|--------|
F#|--------|--------|--------|--------|--------|--------|--------|--------|--------|
 B|--------|--------|--------|--------|--------|--------|--------|--------|--------|


C#|--------|--------|--------|--------|--------|--------|--------|--------|--------|
G#|--------|--------|--------|--------|--------|--------|--------|--------|--------|
 E|--------|--------|--------|--------|--------|--------|--------|--------|--------|
 B|--------|--------|--------|--------|--------|--------|--------|--------|--------|
F#|--------|--------|--------|--------|--------|--------|--------|--------|--------|
 B|--------|--------|--------|--------|--------|--------|--------|--------|--------|


C#|--------|--------|--------|--------|--------|--------|--------|--------|--------|
G#|--------|--------|--------|--------|--------|--------|--------|--------|--------|
 E|--------|--------|--------|--------|--------|--------|--------|--------|--------|
 B|--------|--------|--------|--------|--------|--------|--------|--------|--------|
F#|--------|--------|--------|--------|--------|--------|--------|--------|--------|
 B|--------|--------|--------|--------|--------|--------|--------|--------|--------|


C#|--------|--------|--------|--------|--------|--------|--------|--------|--------|
G#|--------|--------|--------|--------|--------|--------|--------|--------|--------|
 E|--------|--------|--------|--------|--------|--------|--------|--------|--------|
 B|--------|--------|--------|--------|--------|--------|--------|--------|--------|
F#|--------|--------|--------|--------|--------|--------|--------|--------|--------|
 B|--------|--------|--------|--------|--------|--------|--------|--------|--------|


C#|--------|--------|--------|--------|--------|--------|--------|--------|--------|
G#|--------|--------|--------|--------|--------|--------|--------|--------|--------|
 E|--------|--------|--------|--------|--------|--------|--------|--------|--------|
 B|--------|--------|--------|--------|--------|--------|--------|--------|--------|
F#|--------|--------|--------|--------|--------|--------|--------|--------|--------|
 B|--------|--------|--------|--------|--------|--------|--------|--------|--------|


C#|--------|--------|--------|--------|--------|--------|--------|--------|--------|
G#|--------|--------|--------|--------|--------|--------|--------|--------|--------|
 E|--------|--------|--------|--------|--------|--------|--------|--------|--------|
 B|--------|--------|--------|--------|--------|--------|--------|--------|--------|
F#|--------|--------|--------|--------|--------|--------|--------|--------|--------|
 B|--------|--------|--------|--------|--------|--------|--------|--------|--------|


C#|--------|--------|--------|--------|--------|--------|--------|--------|--------|
G#|--------|--------|--------|--------|--------|--------|--------|--------|--------|
 E|--------|--------|--------|--------|--------|--------|--------|--------|--------|
 B|--------|--------|--------|--------|--------|--------|--------|--------|--------|
F#|--------|--------|--------|--------|--------|--------|--------|--------|--------|
 B|--------|--------|--------|--------|--------|--------|--------|--------|--------|


C#|--------|--------|--------|--------|--------|--------|--------|--------|--------|
G#|--------|--------|--------|--------|--------|--------|--------|--------|--------|
 E|--------|--------|--------|--------|--------|--------|--------|--------|--------|
 B|--------|--------|--------|--------|--------|--------|--------|--------|--------|
F#|--------|--------|--------|--------|--------|--------|--------|--------|--------|
 B|--------|--------|--------|--------|--------|--------|--------|--------|--------|


C#|--------|--------|--------|--------|--------|--------|--------|--------|--------|
G#|--------|--------|--------|--------|--------|--------|--------|--------|--------|
 E|--------|--------|--------|--------|--------|--------|--------|--------|--------|
 B|--------|--------|--------|--------|--------|--------|--------|--------|--------|
F#|--------|--------|--------|--------|--------|--------|--------|--------|--------|
 B|--------|--------|--------|--------|--------|--------|--------|--------|--------|


C#|--------|--------|--------|--------|--------|--------|--------|--------|--------|
G#|--------|--------|--------|--------|--------|--------|--------|--------|--------|
 E|--------|--------|--------|--------|--------|--------|--------|--------|--------|
 B|--------|--------|--------|--------|--------|--------|--------|--------|--------|
F#|--------|--------|--------|--------|--------|--------|--------|--------|--------|
 B|--------|--------|--------|--------|--------|--------|--------|--------|--------|


C#|--------|--------|--------|--------|--------|--------|--------|--------|--------|
G#|--------|--------|--------|--------|--------|--------|--------|--------|--------|
 E|--------|--------|--------|--------|--------|--------|--------|--------|--------|
 B|--------|--------|--------|--------|--------|--------|--------|--------|--------|
F#|--------|--------|--------|--------|--------|--------|--------|--------|--------|
 B|--------|--------|--------|--------|--------|--------|--------|--------|--------|


C#|--------|--------|--------|--------|--------|--------|--------|--------|--------|
G#|--------|--------|--------|--------|--------|--------|--------|--------|--------|
 E|--------|--------|--------|--------|--------|--------|--------|--------|--------|
 B|--------|--------|--------|--------|--------|--------|--------|--------|--------|
F#|--------|--------|--------|--------|--------|--------|--------|--------|--------|
 B|--------|--------|--------|--------|--------|--------|--------|--------|--------|


C#|--------|--------|--------|--------|--------|--------|--------|--------|--------|
G#|--------|--------|--------|--------|--------|--------|--------|--------|--------|
 E|--------|--------|--------|--------|--------|--------|--------|--------|--------|
 B|--------|--------|--------|--------|--------|--------|--------|--------|--------|
F#|--------|--------|--------|--------|--------|--------|--------|--------|--------|
 B|--------|--------|--------|--------|--------|--------|--------|--------|--------|


C#|--------|--------|--------|--------|--------|--------|--------|--------|--------|
G#|--------|--------|--------|--------|--------|--------|--------|--------|--------|
 E|--------|--------|--------|--------|--------|--------|--------|--------|--------|
 B|--------|--------|--------|--------|--------|--------|--------|--------|--------|
F#|--------|--------|--------|--------|--------|--------|--------|--------|--------|
 B|--------|--------|--------|--------|--------|--------|--------|--------|--------|


C#|--------|--------|--------|--------|--------|--------|--------|--------|--------|
G#|--------|--------|--------|--------|--------|--------|--------|--------|--------|
 E|--------|--------|--------|--------|--------|--------|--------|--------|--------|
 B|--------|--------|--------|--------|--------|--------|--------|--------|--------|
F#|--------|--------|--------|--------|--------|--------|--------|--------|--------|
 B|--------|--------|--------|--------|--------|--------|--------|--------|--------|


C#|--------|--------|--------|--------|--------|-----------------------|-----------------------|
G#|--------|--------|--------|--------|--------|-10------10------------|-8-------8-------------|
 E|--------|--------|--------|--------|--------|-----10------10----10--|-----9-------9-----9---|
 B|--------|--------|--------|--------|--------|-----------------------|-----------------------|
F#|--------|--------|--------|--------|--------|-----------------------|-----------------------|
 B|--------|--------|--------|--------|--------|-----------------------|-----------------------|


C#|-------------0-----0---|------------------------------|-----------------------|
G#|-6-------6-------------|-11--------------10-----------|-10------10------------|
 E|-----7-----------------|-----10--9-----------10--9----|-----10------10----10--|
 B|-----------------------|-------------11---------------|-----------------------|
F#|-----------------------|------------------------------|-----------------------|
 B|-----------------------|------------------------------|-----------------------|


C#|-----------------------|-------------0-----0---|------------------------------|
G#|-8-------8-------------|-6-------6-------------|-11--------------10-----------|
 E|-----9-------9-----9---|-----7-----------------|-----10--9-----------10--9----|
 B|-----------------------|-----------------------|-------------11---------------|
F#|-----------------------|-----------------------|------------------------------|
 B|-----------------------|-----------------------|------------------------------|


C#|-----------------------|-----------------------|-------------0-----0---|------------------------------|
G#|-10------10------------|-8-------8-------------|-6-------6-------------|-11--------------10-----------|
 E|-----10------10----10--|-----9-------9-----9---|-----7-----------------|-----10--9-----------10--9----|
 B|-----------------------|-----------------------|-----------------------|-------------11---------------|
F#|-----------------------|-----------------------|-----------------------|------------------------------|
 B|-----------------------|-----------------------|-----------------------|------------------------------|


C#|-----------------------|-----------------------|-------------0-----0---|------------------------------|
G#|-10------10------------|-8-------8-------------|-6-------6-------------|-11--------------10-----------|
 E|-----10------10----10--|-----9-------9-----9---|-----7-----------------|-----10--9-----------10--9----|
 B|-----------------------|-----------------------|-----------------------|-------------11---------------|
F#|-----------------------|-----------------------|-----------------------|------------------------------|
 B|-----------------------|-----------------------|-----------------------|------------------------------|


C#|-----------------------|-----------------------|-------------0-----0---|------------------------------|
G#|-10------10------------|-8-------8-------------|-6-------6-------------|-11--------------10-----------|
 E|-----10------10----10--|-----9-------9-----9---|-----7-----------------|-----10--9-----------10--9----|
 B|-----------------------|-----------------------|-----------------------|-------------11---------------|
F#|-----------------------|-----------------------|-----------------------|------------------------------|
 B|-----------------------|-----------------------|-----------------------|------------------------------|


C#|-----------------------|-----------------------|-------------0-----0---|------------------------------|
G#|-10------10------------|-8-------8-------------|-6-------6-------------|-11--------------10-----------|
 E|-----10------10----10--|-----9-------9-----9---|-----7-----------------|-----10--9-----------10--9----|
 B|-----------------------|-----------------------|-----------------------|-------------11---------------|
F#|-----------------------|-----------------------|-----------------------|------------------------------|
 B|-----------------------|-----------------------|-----------------------|------------------------------|


C#|------12----12---|
G#|------12----12---|
 E|------9-----9----|
 B|-11--------------|
F#|-----------------|
 B|-----------------|





Track 6: Untitled

G|--------|--------|--------|--------|--------|--------|--------|--------|--------|
D|--------|--------|--------|--------|--------|--------|--------|--------|--------|
A|--------|--------|--------|--------|--------|--------|--------|--------|--------|
E|--------|--------|--------|--------|--------|--------|--------|--------|--------|


G|--------|--------|--------|--------|--------|--------|--------|--------|--------|
D|--------|--------|--------|--------|--------|--------|--------|--------|--------|
A|--------|--------|--------|--------|--------|--------|--------|--------|--------|
E|--------|--------|--------|--------|--------|--------|--------|--------|--------|


G|--------|--------|--------|--------|--------|--------|--------|--------|--------|
D|--------|--------|--------|--------|--------|--------|--------|--------|--------|
A|--------|--------|--------|--------|--------|--------|--------|--------|--------|
E|--------|--------|--------|--------|--------|--------|--------|--------|--------|


G|--------|--------|--------|--------|--------|--------|--------|--------|--------|
D|--------|--------|--------|--------|--------|--------|--------|--------|--------|
A|--------|--------|--------|--------|--------|--------|--------|--------|--------|
E|--------|--------|--------|--------|--------|--------|--------|--------|--------|


G|--------|--------|--------|--------|--------|--------|--------|--------|--------|
D|--------|--------|--------|--------|--------|--------|--------|--------|--------|
A|--------|--------|--------|--------|--------|--------|--------|--------|--------|
E|--------|--------|--------|--------|--------|--------|--------|--------|--------|


G|--------|--------|--------|--------|--------|--------|--------|--------|--------|
D|--------|--------|--------|--------|--------|--------|--------|--------|--------|
A|--------|--------|--------|--------|--------|--------|--------|--------|--------|
E|--------|--------|--------|--------|--------|--------|--------|--------|--------|


G|--------|--------|--------|--------|--------|--------|--------|--------|--------|
D|--------|--------|--------|--------|--------|--------|--------|--------|--------|
A|--------|--------|--------|--------|--------|--------|--------|--------|--------|
E|--------|--------|--------|--------|--------|--------|--------|--------|--------|


G|--------|--------|--------|--------|--------|--------|--------|--------|--------|
D|--------|--------|--------|--------|--------|--------|--------|--------|--------|
A|--------|--------|--------|--------|--------|--------|--------|--------|--------|
E|--------|--------|--------|--------|--------|--------|--------|--------|--------|


G|--------|--------|--------|--------|--------|--------|--------|--------|--------|
D|--------|--------|--------|--------|--------|--------|--------|--------|--------|
A|--------|--------|--------|--------|--------|--------|--------|--------|--------|
E|--------|--------|--------|--------|--------|--------|--------|--------|--------|


G|--------|--------|--------|--------|--------|--------|--------|--------|--------|
D|--------|--------|--------|--------|--------|--------|--------|--------|--------|
A|--------|--------|--------|--------|--------|--------|--------|--------|--------|
E|--------|--------|--------|--------|--------|--------|--------|--------|--------|


G|--------|--------|--------|--------|--------|--------|--------|--------|--------|
D|--------|--------|--------|--------|--------|--------|--------|--------|--------|
A|--------|--------|--------|--------|--------|--------|--------|--------|--------|
E|--------|--------|--------|--------|--------|--------|--------|--------|--------|


G|--------|--------|--------|--------|--------|--------|--------|--------|--------|
D|--------|--------|--------|--------|--------|--------|--------|--------|--------|
A|--------|--------|--------|--------|--------|--------|--------|--------|--------|
E|--------|--------|--------|--------|--------|--------|--------|--------|--------|


G|--------|--------|--------|--------|--------|--------|--------|--------|--------|
D|--------|--------|--------|--------|--------|--------|--------|--------|--------|
A|--------|--------|--------|--------|--------|--------|--------|--------|--------|
E|--------|--------|--------|--------|--------|--------|--------|--------|--------|


G|--------|--------|--------|--------|--------|--------|--------|--------|--------|
D|--------|--------|--------|--------|--------|--------|--------|--------|--------|
A|--------|--------|--------|--------|--------|--------|--------|--------|--------|
E|--------|--------|--------|--------|--------|--------|--------|--------|--------|


G|--------|--------|--------|--------|--------|--------|--------|--------|--------|
D|--------|--------|--------|--------|--------|--------|--------|--------|--------|
A|--------|--------|--------|--------|--------|--------|--------|--------|--------|
E|--------|--------|--------|--------|--------|--------|--------|--------|--------|


G|--------|--------|--------|--------|--------|--------|--------|--------|--------|
D|--------|--------|--------|--------|--------|--------|--------|--------|--------|
A|--------|--------|--------|--------|--------|--------|--------|--------|--------|
E|--------|--------|--------|--------|--------|--------|--------|--------|--------|


G|--------|--------|--------|--------|--------|--------|--------|--------|--------|
D|--------|--------|--------|--------|--------|--------|--------|--------|--------|
A|--------|--------|--------|--------|--------|--------|--------|--------|--------|
E|--------|--------|--------|--------|--------|--------|--------|--------|--------|


G|--------|--------|--------|--------|--------|--------|--------|--------|--------|
D|--------|--------|--------|--------|--------|--------|--------|--------|--------|
A|--------|--------|--------|--------|--------|--------|--------|--------|--------|
E|--------|--------|--------|--------|--------|--------|--------|--------|--------|


G|--------|--------|--------|--------|--------|--------|--------|--------|--------|
D|--------|--------|--------|--------|--------|--------|--------|--------|--------|
A|--------|--------|--------|--------|--------|--------|--------|--------|--------|
E|--------|--------|--------|--------|--------|--------|--------|--------|--------|


G|--------|--------|--------|--------|--------|--------|--------|--------|--------|
D|--------|--------|--------|--------|--------|--------|--------|--------|--------|
A|--------|--------|--------|--------|--------|--------|--------|--------|--------|
E|--------|--------|--------|--------|--------|--------|--------|--------|--------|


G|--------|--------|--------|--------|--------|--------|--------|--------|--------|
D|--------|--------|--------|--------|--------|--------|--------|--------|--------|
A|--------|--------|--------|--------|--------|--------|--------|--------|--------|
E|--------|--------|--------|--------|--------|--------|--------|--------|--------|


G|--------|--------|--------|--------|--------|--------|--------|--------|--------|
D|--------|--------|--------|--------|--------|--------|--------|--------|--------|
A|--------|--------|--------|--------|--------|--------|--------|--------|--------|
E|--------|--------|--------|--------|--------|--------|--------|--------|--------|


G|--------|--------|--------|
D|--------|--------|--------|
A|--------|--------|--------|
E|--------|--------|--------|