Menu:

 

Search:

 

black sabbath - tv crimes:

 



Title: TV Crimes
Artist: 
Album: Dehumanizer
Author: Butler, Dio & Iommi


Track 1: Lead and Solo Guitar

D#|----------------|-----------------|----------------|-----------------|-----------------|
A#|----------------|-----------------|----------------|-----------------|-----------------|
F#|----------------|-----------------|----------------|-----------------|-----------------|
C#|----------------|-----------------|----------------|-----------------|-------5---------|
G#|------------5---|-5-----8-----4---|-4------4---5---|-5-----8-----4---|-4-----3-----5---|
D#|------------3---|-3-----6-----2---|-2------2---3---|-3-----6-----2---|-2-----------3---|


D#|-----------------|----------------|-----------------|-----------------|-------------|
A#|-----------------|----------------|-----------------|-----------------|-------------|
F#|-----------------|----------------|-----------------|-----------------|-------------|
C#|-----------------|----------------|-----------------|-------5-----7---|-7----7------|
G#|-5-----8-----4---|-4------4---5---|-5-----8-----4---|-4-----3-----5---|-5----5------|
D#|-3-----6-----2---|-2------2---3---|-3-----6-----2---|-2---------------|-------------|


D#|-----------------------------------------------|-------------------------------------------------|
A#|-----------------------------------------------|-------------------------------------------------|
F#|-----------------------------------------------|-------------------------------------------------|
C#|-----------------------------------------------|-------------------------------------------------|
G#|-1--------1--------1--------1------------------|-1--------1--------------------------------------|
D#|----3--1-----3--1-----3--1-----3--1--3---1--3--|----3--1-----3--1--3--3--3--3--3--3--3--3--1--3--|


D#|-----------------------------------------------|-------------------------------------------------|
A#|-----------------------------------------------|-------------------------------------------------|
F#|-----------------------------------------------|-------------------------------------------------|
C#|-----------------------------------------------|-------------------------------------------------|
G#|-1--------1--------1--------1------------------|-1--------1--------------------------------------|
D#|----3--1-----3--1-----3--1-----3--1--3---1--3--|----3--1-----3--1--3--3--3--3--3--3--3--3--1--3--|


D#|-----------------------------------------------|-------------------------------------------------|
A#|-----------------------------------------------|-------------------------------------------------|
F#|-----------------------------------------------|-------------------------------------------------|
C#|-----------------------------------------------|-------------------------------------------------|
G#|-1--------1--------1--------1------------------|-1--------1--------------------------------------|
D#|----3--1-----3--1-----3--1-----3--1--3---1--3--|----3--1-----3--1--3--3--3--3--3--3--3--3--1--3--|


D#|-----------------------------------------------|-------------------------------------------------|
A#|-----------------------------------------------|-------------------------------------------------|
F#|-----------------------------------------------|-------------------------------------------------|
C#|-----------------------------------------------|-------------------------------------------------|
G#|-1--------1--------1--------1------------------|-1--------1--------------------------------------|
D#|----3--1-----3--1-----3--1-----3--1--3---1--3--|----3--1-----3--1--3--3--3--3--3--3--3--3--1--3--|


D#|-----------------------------------------------|-------------------------------------------------|
A#|-----------------------------------------------|-------------------------------------------------|
F#|-----------------------------------------------|-------------------------------------------------|
C#|-----------------------------------------------|-------------------------------------------------|
G#|-1--------1--------1--------1------------------|-1--------1--------------------------------------|
D#|----3--1-----3--1-----3--1-----3--1--3---1--3--|----3--1-----3--1--3--3--3--3--3--3--3--3--1--3--|


D#|-----------------------------------------------|-------------------------------------------------|
A#|-----------------------------------------------|-------------------------------------------------|
F#|-----------------------------------------------|-------------------------------------------------|
C#|-----------------------------------------------|-------------------------------------------------|
G#|-1--------1--------1--------1------------------|-1--------1--------------------------------------|
D#|----3--1-----3--1-----3--1-----3--1--3---1--3--|----3--1-----3--1--3--3--3--3--3--3--3--3--1--3--|


D#|-----------------|---------------------------------------------|----------------------|
A#|-----------------|---------------------------------------------|----------------------|
F#|-----------------|---------------------------------------------|----------------------|
C#|-3-----3---------|-------3---------------3---------------------|-3-----3--------------|
G#|-1-----1----3----|-------1---------------1---------------------|-1-----1----3---------|
D#|------------1----|-3--3------3--3--3--3------3--3--3--3--1--3--|------------1---3--3--|


D#|----------------------------|-----------------------------------------------|-------------------------------------------------|
A#|----------------------------|-----------------------------------------------|-------------------------------------------------|
F#|----------------------------|-----------------------------------------------|-------------------------------------------------|
C#|-3---------8--7-------------|-----------------------------------------------|-------------------------------------------------|
G#|-1---------6--5-----8--8----|-1--------1--------1--------1------------------|-1--------1--------------------------------------|
D#|-----3--3-----------6--6----|----3--1-----3--1-----3--1-----3--1--3---1--3--|----3--1-----3--1--3--3--3--3--3--3--3--3--1--3--|


D#|-----------------------------------------------|-------------------------------------------------|
A#|-----------------------------------------------|-------------------------------------------------|
F#|-----------------------------------------------|-------------------------------------------------|
C#|-----------------------------------------------|-------------------------------------------------|
G#|-1--------1--------1--------1------------------|-1--------1--------------------------------------|
D#|----3--1-----3--1-----3--1-----3--1--3---1--3--|----3--1-----3--1--3--3--3--3--3--3--3--3--1--3--|


D#|-----------------------------------------------|-------------------------------------------------|
A#|-----------------------------------------------|-------------------------------------------------|
F#|-----------------------------------------------|-------------------------------------------------|
C#|-----------------------------------------------|-------------------------------------------------|
G#|-1--------1--------1--------1------------------|-1--------1--------------------------------------|
D#|----3--1-----3--1-----3--1-----3--1--3---1--3--|----3--1-----3--1--3--3--3--3--3--3--3--3--1--3--|


D#|-----------------------------------------------|-------------------------------------------------|
A#|-----------------------------------------------|-------------------------------------------------|
F#|-----------------------------------------------|-------------------------------------------------|
C#|-----------------------------------------------|-------------------------------------------------|
G#|-1--------1--------1--------1------------------|-1--------1--------------------------------------|
D#|----3--1-----3--1-----3--1-----3--1--3---1--3--|----3--1-----3--1--3--3--3--3--3--3--3--3--1--3--|


D#|-----------------|---------------------------------------------|-----------------|
A#|-----------------|---------------------------------------------|-----------------|
F#|-----------------|---------------------------------------------|-----------------|
C#|-3-----3---------|-------3---------------3---------------------|-3-----3---------|
G#|-1-----1----3----|-------1---------------1---------------------|-1-----1----3----|
D#|------------1----|-3--3------3--3--3--3------3--3--3--1--2--3--|------------1----|


D#|---------------------------------------------|-----------------|---------------------------------------------|
A#|---------------------------------------------|-----------------|---------------------------------------------|
F#|---------------------------------------------|-----------------|---------------------------------------------|
C#|-------3---------------3---------------------|-3-----3---------|-------3---------------3---------------------|
G#|-------1---------------1---------------------|-1-----1----3----|-------1---------------1---------------------|
D#|-3--3------3--3--3--3------3--3--3--1--2--3--|------------1----|-3--3------3--3--3--3------3--3--0--1--2--3--|


D#|-----------------|---------------------|---------------------|---------------------|
A#|-----------------|---------------------|---------------------|---------------------|
F#|-----------------|---------------------|---------------------|---------------------|
C#|-3----3----------|-------3----5----7---|-5-----3---------3---|-------3----5----7---|
G#|-1----1-----3----|-5-----1----3----5---|-3-----1----3----1---|-5-----1----3----5---|
D#|------------1----|-3-------------------|------------1--------|-3-------------------|


D#|---------------------|---------------------|---------------------|---------------------|
A#|---------------------|---------------------|---------------------|---------------------|
F#|---------------------|---------------------|---------------------|---------------------|
C#|-8-----3---------3---|-------3----5----7---|-5-----3---------3---|-------3----5----7---|
G#|-6-----1----3----1---|-5-----1----3----5---|-3-----1----3----1---|-5-----1----3----5---|
D#|------------1--------|-3-------------------|------------1--------|-3-------------------|


D#|-------------|-------------------------------------------------|-------------------------------------------------|
A#|-------------|-------------------------------------------------|-------------------------------------------------|
F#|-------------|-------------------------------------------------|-------------------------------------------------|
C#|-8-----10----|-------------------------------------------------|-------------------------------------------------|
G#|-6-----8-----|-------------------------------------------------|-------------------------------------------------|
D#|-------------|-3--3--3--3--3--3--3--3--3--3--3--3--3--3--3--3--|-3--3--3--3--3--3--3--3--3--3--3--3--3--3--3--3--|


D#|-------------|--------|-------------|-------------|-------------------------------------------|
A#|-------------|--------|-------------|-------------|-------------------------------------------|
F#|-------------|--------|-------------|-------------|-------------------------------------------|
C#|-------------|--------|-------------|-------5-----|-------------------------------------------|
G#|-5-----8-----|-4------|-5-----8-----|-4-----3-----|-5---4--3-----3-----------1----------------|
D#|-3-----6-----|-2------|-3-----6-----|-2-----------|-----------5-----5--4--3-----3--2--1---3---|


D#|-------------------------------------------|-------------------------------------------|
A#|-------------------------------------------|-------------------------------------------|
F#|-------------------------------------------|-------------------------------------------|
C#|-------------------------------------------|-------------------------------------------|
G#|-5---4--3-----3-----------1----------------|-5---4--3-----3-----------1----------------|
D#|-----------5-----5--4--3-----3--2--1---3---|-----------5-----5--4--3-----3--2--1---3---|


D#|-------------------------------------------|-------------|---------------------------|
A#|-------------------------------------------|-12----12----|---------------------------|
F#|-------------------------------------------|-14----14----|-14--14--12--14--12--------|
C#|-------------------------------------------|-------------|---------------------14----|
G#|-5---4--3-----3-----------1----------------|-------------|---------------------------|
D#|-----------5-----5--4--3-----3--2--1---3---|-------------|---------------------------|


D#|-----------------------------------|--------------------------------------------5--7--|
A#|-----------------------------------|--------------------------------------5--8--------|
F#|-9---8---7-------------------------|--------------------------------4--7--------------|
C#|-------------9---7---5---7----7----|-7--5--4--5--4------------5--7--------------------|
G#|-----------------------------------|----------------7---5--7--------------------------|
D#|-----------------------------------|--------------------------------------------------|


D#|-14----14-15-14-12----------------------|-----15-----15-------17---|-17-17-15----17----17-15-------------|
A#|-------------------15-12----------------|-15-----15-----15---------|----------17-------------17-15-------|
F#|-------------------------14-12-14-12----|--------------------------|-------------------------------14-12-|
C#|-------------------------------------14-|--------------------------|-------------------------------------|
G#|----------------------------------------|--------------------------|-------------------------------------|
D#|----------------------------------------|--------------------------|-------------------------------------|


D#|----12--------12--------12--------12--------12--------|-------------------------------------------------|
A#|-12---1512------1512------1512------1512------1512----|-12-15-12-------12-------------------------------|
F#|----------14--------14--------14--------14--------14--|----------12-14----12----14-12----------12-14----|
C#|------------------------------------------------------|----------------------14-------14-12-14-------14-|
G#|------------------------------------------------------|-------------------------------------------------|
D#|------------------------------------------------------|-------------------------------------------------|


D#|-------------------------------------------------|---------------------------------5--------|
A#|----12-------------------------------------------|-------------------------5---8-------10---|
F#|-14----12----------------------------------------|-----------------4---7--------------------|
C#|----------14-12----------14-12-------12----------|---------5---7----------------------------|
G#|----------------14-12----------14-12----14-12----|-5---7------------------------------------|
D#|----------------------15----------------------15-|------------------------------------------|


D#|-19--18--17--16--15--14--13--12--|-11--10--8---6---5---4--3--2--1--0---|-------------------------------------------------|
A#|---------------------------------|-------------------------------------|-------------------------------------------------|
F#|---------------------------------|-------------------------------------|-------------------------------------------------|
C#|---------------------------------|-------------------------------------|-------------------------------------------------|
G#|---------------------------------|-------------------------------------|-1--------1--------------------------------------|
D#|---------------------------------|-------------------------------------|----3--1-----3--1--3--3--3--3--3--3--3--3--1--3--|


D#|-------------------------------------------------|-----------------------------------------------|
A#|-------------------------------------------------|-----------------------------------------------|
F#|-------------------------------------------------|-----------------------------------------------|
C#|-------------------------------------------------|-----------------------------------------------|
G#|-1--------1--------------------------------------|-1--------1--------1--------1------------------|
D#|----3--1-----3--1--3--3--3--3--3--3--3--3--1--3--|----3--1-----3--1-----3--1-----3--1--3---1--3--|


D#|-------------------------------------------------|-----------------------------------------------|
A#|-------------------------------------------------|-----------------------------------------------|
F#|-------------------------------------------------|-----------------------------------------------|
C#|-------------------------------------------------|-----------------------------------------------|
G#|-1--------1--------------------------------------|-1--------1--------1--------1------------------|
D#|----3--1-----3--1--3--3--3--3--3--3--3--3--1--3--|----3--1-----3--1-----3--1-----3--1--3---1--3--|


D#|-------------------------------------------------|-----------------------------------------------|
A#|-------------------------------------------------|-----------------------------------------------|
F#|-------------------------------------------------|-----------------------------------------------|
C#|-------------------------------------------------|-----------------------------------------------|
G#|-1--------1--------------------------------------|-1--------1--------1--------1------------------|
D#|----3--1-----3--1--3--3--3--3--3--3--3--3--1--3--|----3--1-----3--1-----3--1-----3--1--3---1--3--|


D#|-------------------------------------------------|-----------------|---------------------------------------------|
A#|-------------------------------------------------|-----------------|---------------------------------------------|
F#|-------------------------------------------------|-----------------|---------------------------------------------|
C#|-------------------------------------------------|-3-----3---------|-------3---------------3---------------------|
G#|-1--------1--------------------------------------|-1-----1----3----|-------1---------------1---------------------|
D#|----3--1-----3--1--3--3--3--3--3--3--3--3--1--3--|------------1----|-3--3------3--3--3--3------3--3--3--1--2--3--|


D#|-----------------|---------------------------------------------|-----------------|
A#|-----------------|---------------------------------------------|-----------------|
F#|-----------------|---------------------------------------------|-----------------|
C#|-3-----3---------|-------3---------------3---------------------|-3-----3---------|
G#|-1-----1----3----|-------1---------------1---------------------|-1-----1----3----|
D#|------------1----|-3--3------3--3--3--3------3--3--3--1--2--3--|------------1----|


D#|---------------------------------------------|-----------------|---------------------|
A#|---------------------------------------------|-----------------|---------------------|
F#|---------------------------------------------|-----------------|---------------------|
C#|-------3---------------3---------------------|-3----3----------|-------3----5----7---|
G#|-------1---------------1---------------------|-1----1-----3----|-5-----1----3----5---|
D#|-3--3------3--3--3--3------3--3--3--1--2--3--|------------1----|-3-------------------|


D#|---------------------|---------------------|---------------------|---------------------|
A#|---------------------|---------------------|---------------------|---------------------|
F#|---------------------|---------------------|---------------------|---------------------|
C#|-5-----3---------3---|-------3----5----7---|-8-----3---------3---|-------3----5----7---|
G#|-3-----1----3----1---|-5-----1----3----5---|-6-----1----3----1---|-5-----1----3----5---|
D#|------------1--------|-3-------------------|------------1--------|-3-------------------|


D#|---------------------|---------------------|-------------|-------------------------------------------------|
A#|---------------------|---------------------|-------------|-------------------------------------------------|
F#|---------------------|---------------------|-------------|-------------------------------------------------|
C#|-5-----3---------3---|-------3----5----7---|-8-----10----|-------------------------------------------------|
G#|-3-----1----3----1---|-5-----1----3----5---|-6-----8-----|-------------------------------------------------|
D#|------------1--------|-3-------------------|-------------|-3--3--3--3--3--3--3--3--3--3--3--3--3--3--3--3--|


D#|-------------------------------------------------|-------------|--------|-------------|
A#|-------------------------------------------------|-------------|--------|-------------|
F#|-------------------------------------------------|-------------|--------|-------------|
C#|-------------------------------------------------|-------------|--------|-------------|
G#|-1--------1--------1--------1--------1-----------|-5-----8-----|-4------|-5-----8-----|
D#|----3--1-----3--1-----3--1-----3--1-----3--1--3--|-3-----6-----|-2------|-3-----6-----|


D#|-------------|-------------|--------|-------------|-------------|------------------------------------------|
A#|-------------|-------------|--------|-------------|-------------|------------------------------------------|
F#|-------------|-------------|--------|-------------|-------------|------------------------------------------|
C#|-------5-----|-------------|--------|-------------|-------5-----|------------------------------------------|
G#|-4-----3-----|-5-----8-----|-4------|-5-----8-----|-4-----3-----|-5--4--3-----3-----------1----------------|
D#|-2-----------|-3-----6-----|-2------|-3-----6-----|-2-----------|----------5-----5--4--3-----3--2--1-------|





Track 2: Rythm Guitar (Solo)

D#|--------|--------|--------|--------|--------|--------|--------|--------|--------|
A#|--------|--------|--------|--------|--------|--------|--------|--------|--------|
F#|--------|--------|--------|--------|--------|--------|--------|--------|--------|
C#|--------|--------|--------|--------|--------|--------|--------|--------|--------|
G#|--------|--------|--------|--------|--------|--------|--------|--------|--------|
D#|--------|--------|--------|--------|--------|--------|--------|--------|--------|


D#|--------|--------|--------|--------|--------|--------|--------|--------|--------|
A#|--------|--------|--------|--------|--------|--------|--------|--------|--------|
F#|--------|--------|--------|--------|--------|--------|--------|--------|--------|
C#|--------|--------|--------|--------|--------|--------|--------|--------|--------|
G#|--------|--------|--------|--------|--------|--------|--------|--------|--------|
D#|--------|--------|--------|--------|--------|--------|--------|--------|--------|


D#|--------|--------|--------|--------|--------|--------|--------|--------|--------|
A#|--------|--------|--------|--------|--------|--------|--------|--------|--------|
F#|--------|--------|--------|--------|--------|--------|--------|--------|--------|
C#|--------|--------|--------|--------|--------|--------|--------|--------|--------|
G#|--------|--------|--------|--------|--------|--------|--------|--------|--------|
D#|--------|--------|--------|--------|--------|--------|--------|--------|--------|


D#|--------|--------|--------|--------|--------|--------|--------|--------|--------|
A#|--------|--------|--------|--------|--------|--------|--------|--------|--------|
F#|--------|--------|--------|--------|--------|--------|--------|--------|--------|
C#|--------|--------|--------|--------|--------|--------|--------|--------|--------|
G#|--------|--------|--------|--------|--------|--------|--------|--------|--------|
D#|--------|--------|--------|--------|--------|--------|--------|--------|--------|


D#|--------|--------|--------|--------|--------|--------|--------|--------|--------|
A#|--------|--------|--------|--------|--------|--------|--------|--------|--------|
F#|--------|--------|--------|--------|--------|--------|--------|--------|--------|
C#|--------|--------|--------|--------|--------|--------|--------|--------|--------|
G#|--------|--------|--------|--------|--------|--------|--------|--------|--------|
D#|--------|--------|--------|--------|--------|--------|--------|--------|--------|


D#|--------|--------|--------|--------|--------|--------|--------|--------|--------|
A#|--------|--------|--------|--------|--------|--------|--------|--------|--------|
F#|--------|--------|--------|--------|--------|--------|--------|--------|--------|
C#|--------|--------|--------|--------|--------|--------|--------|--------|--------|
G#|--------|--------|--------|--------|--------|--------|--------|--------|--------|
D#|--------|--------|--------|--------|--------|--------|--------|--------|--------|


D#|--------|--------|--------|--------|--------|--------------------|--------------------|
A#|--------|--------|--------|--------|--------|--------------------|--------------------|
F#|--------|--------|--------|--------|--------|--------------------|--------------------|
C#|--------|--------|--------|--------|--------|-9-----9--14---12---|-9-----9--14--------|
G#|--------|--------|--------|--------|--------|-7-----7--12---10---|-7-----7--12---12---|
D#|--------|--------|--------|--------|--------|--------------------|---------------10---|


D#|--------------------|--------------------|--------------------|--------------------|
A#|--------------------|--------------------|--------------------|--------------------|
F#|--------------------|--------------------|--------------------|--------------------|
C#|-9-----9--14---12---|-9-----9--14--------|-9-----9--14---12---|-9-----9--14--------|
G#|-7-----7--12---10---|-7-----7--12---12---|-7-----7--12---10---|-7-----7--12---12---|
D#|--------------------|---------------10---|--------------------|---------------10---|


D#|--------------------|--------------------|--------|--------|--------|-------------------------------|
A#|--------------------|--------------------|--------|--------|--------|-------------------------------|
F#|--------------------|--------------------|--------|--------|--------|-------------------------------|
C#|-9-----9--14---12---|-9-----9--14--------|-5------|-4------|-5------|-4----5----6----5---6---7---9--|
G#|-7-----7--12---10---|-7-----7--12---12---|-3------|-2------|-3------|-2----3----4----3---4---5---7--|
D#|--------------------|---------------10---|--------|--------|--------|-------------------------------|


D#|----------------------------|--------|--------|--------|--------|--------|--------|
A#|----------------------------|--------|--------|--------|--------|--------|--------|
F#|----------------------------|--------|--------|--------|--------|--------|--------|
C#|-9---10---11---10--11--12---|--------|--------|--------|--------|--------|--------|
G#|-7---8----9----8---9---10---|--------|--------|--------|--------|--------|--------|
D#|----------------------------|--------|--------|--------|--------|--------|--------|


D#|--------|--------|--------|--------|--------|--------|--------|--------|--------|
A#|--------|--------|--------|--------|--------|--------|--------|--------|--------|
F#|--------|--------|--------|--------|--------|--------|--------|--------|--------|
C#|--------|--------|--------|--------|--------|--------|--------|--------|--------|
G#|--------|--------|--------|--------|--------|--------|--------|--------|--------|
D#|--------|--------|--------|--------|--------|--------|--------|--------|--------|


D#|--------|--------|--------|--------|--------|--------|--------|--------|--------|
A#|--------|--------|--------|--------|--------|--------|--------|--------|--------|
F#|--------|--------|--------|--------|--------|--------|--------|--------|--------|
C#|--------|--------|--------|--------|--------|--------|--------|--------|--------|
G#|--------|--------|--------|--------|--------|--------|--------|--------|--------|
D#|--------|--------|--------|--------|--------|--------|--------|--------|--------|


D#|--------|--------|--------|--------|--------|--------|--------|--------|--------|
A#|--------|--------|--------|--------|--------|--------|--------|--------|--------|
F#|--------|--------|--------|--------|--------|--------|--------|--------|--------|
C#|--------|--------|--------|--------|--------|--------|--------|--------|--------|
G#|--------|--------|--------|--------|--------|--------|--------|--------|--------|
D#|--------|--------|--------|--------|--------|--------|--------|--------|--------|


D#|--------|
A#|--------|
F#|--------|
C#|--------|
G#|--------|
D#|--------|





Track 3: Bass

F#|----------------|-----------------------------------------|-----------------------------------------|
C#|----------------|-----------------------------------------|-----------------------------------------|
G#|----------------|-----------------------------------------|-----------------------------------------|
D#|------------3---|-3--3---3--3--3--6---6--6---6--6--6--2---|-2--2---2--2--2--2---2--2---2--2--2--3---|


F#|-----------------------------------------|-----------------------------------------|
C#|-----------------------------------------|-----------------------------------------|
G#|-----------------------------------------|-----------------3---3--3---3--4--5------|
D#|-3--3---3--3--3--6---6--6---6--6--6--2---|-2--2---2--2--2----------------------3---|


F#|-----------------------------------------|-----------------------------------------|
C#|-----------------------------------------|-----------------------------------------|
G#|----5-------------------8----------------|-----------------------------------------|
D#|-3------3--3--3--6---6------6--6--6--2---|-2--2---2--2--2--2---2--2---0--1--2--3---|


F#|-----------------------------------------|-----------------------------------------|
C#|-----------------------------------------|-----------------------------------------|
G#|----5-------------------8----------------|-----------------3---3--3---3--3--3--5---|
D#|-3------3--3--3--6---6------6--6--6--2---|-2--2---2--2--2--------------------------|


F#|--------|-------------------------------------------------|-------------------------------------------------|
C#|--------|-------------------------------------------------|-------------------------------------------------|
G#|-5------|-1-----------------------------------------------|-1-----------------------------------------------|
D#|--------|----3--3--3--3--3--3--3--3--3--3--3--0--1--2--3--|----3--3--3--3--3--3--3--3--3--3--3--0--1--2--3--|


F#|-------------------------------------------------|-------------------------------------------------|
C#|-------------------------------------------------|-------------------------------------------------|
G#|-1-----------------------------------------------|-1-----------------------------------1--2--3--5--|
D#|----3--3--3--3--3--3--3--3--3--3--3--0--1--2--3--|----3--3--3--3--3--3--3--3--3--3--3--------------|


F#|-------------------------------------------------|-------------------------------------------------|
C#|-------------------------------------------------|-------------------------------------------------|
G#|-1-----------------------------------------------|-1-----------------------------------------------|
D#|----3--3--3--3--3--3--3--3--3--3--3--0--1--2--3--|----3--3--3--3--3--3--3--3--3--3--3--0--1--2--3--|


F#|-------------------------------------------------|-------------------------------------------------|
C#|-------------------------------------------------|-------------------------------------------------|
G#|-1-----------------------------------------------|-1-----------------------------------------------|
D#|----3--3--3--3--3--3--3--3--3--3--3--0--1--2--3--|----3--3--3--3--3--3--3--3--3--3--3--0--1--2--3--|


F#|-------------------------------------------------|-------------------------------------------------|
C#|-------------------------------------------------|-------------------------------------------------|
G#|-1-----------------------------------------------|-1-----------------------------------------------|
D#|----3--3--3--3--3--3--3--3--3--3--3--0--1--2--3--|----3--3--3--3--3--3--3--3--3--3--3--0--1--2--3--|


F#|-------------------------------------------------|-------------------------------------------------|
C#|-------------------------------------------------|-------------------------------------------------|
G#|-1-----------------------------------1--2--3--5--|-1-----------------------------------1--2--3--5--|
D#|----3--3--3--3--3--3--3--3--3--3--3--------------|----3--3--3--3--3--3--3--3--3--3--3--------------|


F#|-------3--0----------------|---------------------------------------------|-------------------3------------|
C#|-------------3--0----------|---------------------------------------------|----------------3-----3---------|
G#|-1-----------------3-------|-------1---------------1---------------------|-1-----3--4--5------------------|
D#|----------------------1----|-3--3------3--3--3--3------3--3--0--1--2--3--|--------------------------3--3--|


F#|----------------------------|-------------------------------------------------|
C#|----------------------------|-------------------------------------------------|
G#|-----------6--5-------------|-1-----------------------------------------------|
D#|-6---3--3-----------6--6----|----3--3--3--3--3--3--3--3--3--3--3--0--1--2--3--|


F#|-------------------------------------------------|-------------------------------------------------|
C#|-------------------------------------------------|-------------------------------------------------|
G#|-1-----------------------------------------------|-1-----------------------------------------------|
D#|----3--3--3--3--3--3--3--3--3--3--3--0--1--2--3--|----3--3--3--3--3--3--3--3--3--3--3--0--1--2--3--|


F#|-------------------------------------------------|-------------------------------------------------|
C#|-------------------------------------------------|-------------------------------------------------|
G#|-1-----------------------------------------------|-1-----------------------------------------------|
D#|----3--3--3--3--3--3--3--3--3--3--3--0--1--2--3--|----3--3--3--3--3--3--3--3--3--3--3--0--1--2--3--|


F#|-------------------------------------------------|-------------------------------------------------|
C#|-------------------------------------------------|-------------------------------------------------|
G#|-1-----------------------------------------------|-1-----------------------------------1--2--3--5--|
D#|----3--3--3--3--3--3--3--3--3--3--3--0--1--2--3--|----3--3--3--3--3--3--3--3--3--3--3--------------|


F#|-------------------------------------------------|-------3--0----------------|---------------------------------------------|
C#|-------------------------------------------------|-------------3--0----------|---------------------------------------------|
G#|-1-----------------------------------1--2--3--5--|-1-----------------3-------|-------1---------------1---------------------|
D#|----3--3--3--3--3--3--3--3--3--3--3--------------|----------------------1----|-3--3------3--3--3--3------3--3--0--1--2--3--|


F#|-------------------3-------|---------------------------------------------|-------------|
C#|----------------3-----3----|---------------------------------------------|-------------|
G#|-1-----3--4--5-------------|-------1---------------1---------------------|-1-----------|
D#|---------------------------|-3--3------3--3--3--3------3--3--0--1--2--3--|--------1----|


F#|---------------------------------------------|-3--0-----0----------------------------------|
C#|---------------------------------------------|-------3-----3--0-----0----------------------|
G#|-------1---------------1---------------------|-------------------3-----3--2--1-----1-------|
D#|-3--3------3--3--3--3------3--3--0--1--2--3--|----------------------------------3-----1----|


F#|-------------------------------------|-------------------------------------|-------------------------------------|
C#|-------------------------------------|-------------------------------------|-------------------------------------|
G#|-----------------------1----3----5---|-3---3--3--3--3--3--3--1---------1---|-----------------------1----3----5---|
D#|-3---3--3--3--3--3--3----------------|----------------------------1--------|-3---3--3--3--3--3--3----------------|


F#|-------------------------------------|-------------------------------------|-------------------------------------|
C#|-------------------------------------|-------------------------------------|-------------------------------------|
G#|-6---6--6--6--6--6--6--1---------1---|-----------------------1----3----5---|-3---3--3--3--3--3--3--1---------1---|
D#|----------------------------1--------|-3---3--3--3--3--3--3----------------|----------------------------1--------|


F#|-------------------------------------|-------------------------------------------------|
C#|-------------------------------------|-------------------------------------------------|
G#|-----------------------1----3----5---|-6--6--6--6--6--6--6--6--------------------------|
D#|-3---3--3--3--3--3--3----------------|-------------------------1--1--1--1--1--1--1--1--|


F#|-------------------------------------------------|-------------------------------------------------|
C#|-------------------------------------------------|-------------------------------------------------|
G#|-------------------------------------------------|-------------------------------------------------|
D#|-3--3--3--3--3--3--3--3--3--3--3--3--3--3--3--3--|-3--3--3--3--3--3--3--3--3--3--3--3--3--0--1--2--|


F#|-------------|--------------------|-------------|-----------------|--------|--------|
C#|-------------|--------------------|-------------|-----------------|--------|--------|
G#|-------------|--------------------|-------------|-------3-----5---|--------|--------|
D#|-3-----6-----|-2------2--0--1--2--|-3-----6-----|-2---------------|--------|--------|


F#|--------|-------------------------------------------|---------------------------------------|
C#|--------|-------------------------------------------|---------------------------------------|
G#|--------|-5---4--3-----3-----------1----------------|-7---5-----5---------------------------|
D#|--------|-----------5-----5--4--3-----3--2--1---3---|--------7-----7--6--5--3--5----3---3---|


F#|--------------------7--9---------------|---------------------------------------|
C#|-----5--6--7--8--9---------------------|---------------------------------------|
G#|-7------------------------0----5---5---|-7---5-----5---------------------------|
D#|---------------------------------------|--------7-----7--6--5--3--5----3---3---|


F#|--------------------7--9---------------|---------------------------------------|
C#|-----5--6--7--8--9---------------------|---------------------------------------|
G#|-7------------------------0----5---5---|-7---5-----5---------------------------|
D#|---------------------------------------|--------7-----7--6--5--3--5----3---3---|


F#|--------------------7--9---------------|---------------------------------------|
C#|-----5--6--7--8--9---------------------|---------------------------------------|
G#|-7------------------------0----5---5---|-7---5-----5---------------------------|
D#|---------------------------------------|--------7-----7--6--5--3--5----3---3---|


F#|--------------------7--9---------------|---------------5--4--2--4--2-----------|
C#|-----5--6--7--8--9---------------------|------------------------------5--4--3--|
G#|-7------------------------0----5---5---|-3----3----3---------------------------|
D#|---------------------------------------|---------------------------------------|


F#|------4--2-----2--4--2--------------------|-----------------2--4--2-----2--4--2-----------|
C#|------------4-----------5--4--5--4--2-----|-----2---4---5------------4-----------5--4-----|
G#|-2-------------------------------------5--|-3------------------------------------------3--|
D#|------------------------------------------|-----------------------------------------------|


F#|-------------------------------|----------------------------|-------------------------------------------------|
C#|-------------------------------|----------------------------|-------------------------------------------------|
G#|-2----3----4----3---4---5---7--|-7---8----9----8---9---10---|-1-----------------------------------------------|
D#|-------------------------------|----------------------------|----3--3--3--3--3--3--3--3--3--3--3--0--1--2--3--|


F#|-------------------------------------------------|-------------------------------------------------|
C#|-------------------------------------------------|-------------------------------------------------|
G#|-1-----------------------------------------------|-1-----------------------------------------------|
D#|----3--3--3--3--3--3--3--3--3--3--3--0--1--2--3--|----3--3--3--3--3--3--3--3--3--3--3--0--1--2--3--|


F#|-------------------------------------------------|-------------------------------------------------|
C#|-------------------------------------------------|-------------------------------------------------|
G#|-1-----------------------------------------------|-1-----------------------------------------------|
D#|----3--3--3--3--3--3--3--3--3--3--3--0--1--2--3--|----3--3--3--3--3--3--3--3--3--3--3--0--1--2--3--|


F#|-------------------------------------------------|-------------------------------------------------|
C#|-------------------------------------------------|-------------------------------------------------|
G#|-1-----------------------------------------------|-1-----------------------------------1--2--3--5--|
D#|----3--3--3--3--3--3--3--3--3--3--3--0--1--2--3--|----3--3--3--3--3--3--3--3--3--3--3--------------|


F#|-------------------------------------------------|-------3--0----------------|---------------------------------------------|
C#|-------------------------------------------------|-------------3--0----------|---------------------------------------------|
G#|-1-----------------------------------1--2--3--5--|-1-----------------3-------|-------1---------------1---------------------|
D#|----3--3--3--3--3--3--3--3--3--3--3--------------|----------------------1----|-3--3------3--3--3--3------3--3--0--1--2--3--|


F#|-------------------3-------|---------------------------------------------|-3--0-----0----------------------------------|
C#|----------------3-----3----|---------------------------------------------|-------3-----3--0-----0----------------------|
G#|-1-----3--4--5-------------|-------1---------------1---------------------|-------------------3-----3--2--1-----1-------|
D#|---------------------------|-3--3------3--3--3--3------3--3--0--1--2--3--|----------------------------------3-----1----|


F#|---------------------------------------------|-------------------3-------|-------------------------------------|
C#|---------------------------------------------|----------------3-----3----|-------------------------------------|
G#|-------1---------------1---------------------|-1-----3--4--5-------------|-----------------------1----3----5---|
D#|-3--3------3--3--3--3------3--3--0--1--2--3--|---------------------------|-3---3--3--3--3--3--3----------------|


F#|-------------------------------------|-------------------------------------|-------------------------------------|
C#|-------------------------------------|-------------------------------------|-------------------------------------|
G#|-3---3--3--3--3--3--3--1---------1---|-----------------------1----3----5---|-6---6--6--6--6--6--6--1---------1---|
D#|----------------------------1--------|-3---3--3--3--3--3--3----------------|----------------------------1--------|


F#|-------------------------------------|-------------------------------------|-------------------------------------|
C#|-------------------------------------|-------------------------------------|-------------------------------------|
G#|-----------------------1----3----5---|-3---3--3--3--3--3--3--1---------1---|-----------------------1----3----5---|
D#|-3---3--3--3--3--3--3----------------|----------------------------1--------|-3---3--3--3--3--3--3----------------|


F#|-------------------------------------------------|-------------------------------------------------|
C#|-------------------------------------------------|-------------------------------------------------|
G#|-6--6--6--6--6--6--6--6--------------------------|-------------------------------------------------|
D#|-------------------------1--1--1--1--1--1--1--1--|-3--3--3--3--3--3--3--3--3--3--3--3--3--3--3--3--|


F#|-------------------------------------------------|-----------------------------------------|
C#|-------------------------------------------------|-----------------------------------------|
G#|-1--------1--------1--------1--------1-----------|-----------------------------------------|
D#|----3--3-----3--3-----3--3-----3--3-----0--1--2--|-3---3--3---3--3--3--6---6--6---6--6--6--|


F#|-----------------------------------------|-----------------------------------------|
C#|-----------------------------------------|-----------------------------------------|
G#|-----------------------------------------|-----------------------------------------|
D#|-2---2--2---2--2--2--2---2--2---2--2--2--|-3---3--3---3--3--3--6---6--6---6--6--6--|


F#|-----------------------------------------|-----------------------------------------|
C#|-----------------------------------------|-----------------------------------------|
G#|---------------------3---3--3---3--4--5--|--------5-------------------8------------|
D#|-2---2--2---2--2--2----------------------|-3---3------3--3--3--6---6------6--6--6--|


F#|-----------------------------------------|-----------------------------------------|
C#|-----------------------------------------|-----------------------------------------|
G#|-----------------------------------------|--------5-------------------8------------|
D#|-2---2--2---2--2--2--2---2--2---0--1--2--|-3---3------3--3--3--6---6------6--6--6--|


F#|-----------------------------------------|------------------------------------------|
C#|-----------------------------------------|------------------------------------------|
G#|---------------------3---3--3---3--3--3--|-5--4--3-----3-----------1----------------|
D#|-2---2--2---2--2--2----------------------|----------5-----5--4--3-----3--2--1-------|