Menu:

 

Search:

 

black sabbath - symptom of the universe:

 



Title: Sympton of the Universe
Artist: 
Album: Sabotage
Author: Iommi,Butler,Ward,Osbourne


Track 1: Tony Iommi

E|---------------------------------|-------------|---------------------------------|
B|---------------------------------|-------------|---------------------------------|
G|---------------------------------|-------------|-----------------------------4---|
D|-2---2---2---2---2---2-------3---|-3------3----|-2---2---2---2---2---2-------2---|
A|-2---2---2---2---2---2-------1---|-1------1----|-2---2---2---2---2---2-----------|
E|-0---0---0---0---0---0---0-------|-------------|-0---0---0---0---0---0---0-------|


E|---------------------|---------------------------------|-------------|---------------------------------|
B|---------------------|---------------------------------|-------------|---------------------------------|
G|---------------------|---------------------------------|-------------|-----------------------------4---|
D|-----3-----3----3----|-2---2---2---2---2---2-------3---|-3------3----|-2---2---2---2---2---2-------2---|
A|-----1-----1----1----|-2---2---2---2---2---2-------1---|-1------1----|-2---2---2---2---2---2-----------|
E|---------------------|-0---0---0---0---0---0---0-------|-------------|-0---0---0---0---0---0---0-------|


E|---------------------|---------------------------------|-------------|---------------------------------|
B|---------------------|---------------------------------|-------------|---------------------------------|
G|---------------------|---------------------------------|-------------|-----------------------------4---|
D|-----3-----3----3----|-2---2---2---2---2---2-------3---|-3------3----|-2---2---2---2---2---2-------2---|
A|-----1-----1----1----|-2---2---2---2---2---2-------1---|-1------1----|-2---2---2---2---2---2-----------|
E|---------------------|-0---0---0---0---0---0---0-------|-------------|-0---0---0---0---0---0---0-------|


E|---------------------|---------------------------------|-------------|---------------------------------|
B|---------------------|---------------------------------|-------------|---------------------------------|
G|---------------------|---------------------------------|-------------|-----------------------------4---|
D|-----3-----3----3----|-2---2---2---2---2---2-------3---|-3------3----|-2---2---2---2---2---2-------2---|
A|-----1-----1----1----|-2---2---2---2---2---2-------1---|-1------1----|-2---2---2---2---2---2-----------|
E|---------------------|-0---0---0---0---0---0---0-------|-------------|-0---0---0---0---0---0---0-------|


E|------------------------|--------|--------|--------|--------|--------|--------|--------|
B|------------------------|--------|--------|--------|--------|--------|--------|--------|
G|------------------------|--------|--------|--------|--------|--------|--------|--------|
D|-----3-----3------------|-7------|-3------|-2------|-2------|-7------|-3------|-2------|
A|-----1-----1----1-------|-5------|-1------|-0------|-0------|-5------|-1------|-0------|
E|------------------------|--------|--------|--------|--------|--------|--------|--------|


E|--------|---------------------------------|-------------|---------------------------------|
B|--------|---------------------------------|-------------|---------------------------------|
G|--------|---------------------------------|-------------|-----------------------------4---|
D|-2------|-2---2---2---2---2---2-------3---|-3------3----|-2---2---2---2---2---2-------2---|
A|-0------|-2---2---2---2---2---2-------1---|-1------1----|-2---2---2---2---2---2-----------|
E|--------|-0---0---0---0---0---0---0-------|-------------|-0---0---0---0---0---0---0-------|


E|---------------------|---------------------------------|-------------|---------------------------------|
B|---------------------|---------------------------------|-------------|---------------------------------|
G|---------------------|---------------------------------|-------------|-----------------------------4---|
D|-----3-----3----3----|-2---2---2---2---2---2-------3---|-3------3----|-2---2---2---2---2---2-------2---|
A|-----1-----1----1----|-2---2---2---2---2---2-------1---|-1------1----|-2---2---2---2---2---2-----------|
E|---------------------|-0---0---0---0---0---0---0-------|-------------|-0---0---0---0---0---0---0-------|


E|---------------------|---------------------------------|-------------|---------------------------------|
B|---------------------|---------------------------------|-------------|---------------------------------|
G|---------------------|---------------------------------|-------------|-----------------------------4---|
D|-----3-----3----3----|-2---2---2---2---2---2-------3---|-3------3----|-2---2---2---2---2---2-------2---|
A|-----1-----1----1----|-2---2---2---2---2---2-------1---|-1------1----|-2---2---2---2---2---2-----------|
E|---------------------|-0---0---0---0---0---0---0-------|-------------|-0---0---0---0---0---0---0-------|


E|---------------------|---------------------------------|-------------|---------------------------------|
B|---------------------|---------------------------------|-------------|---------------------------------|
G|---------------------|---------------------------------|-------------|-----------------------------4---|
D|-----3-----3----3----|-2---2---2---2---2---2-------3---|-3------3----|-2---2---2---2---2---2-------2---|
A|-----1-----1----1----|-2---2---2---2---2---2-------1---|-1------1----|-2---2---2---2---2---2-----------|
E|---------------------|-0---0---0---0---0---0---0-------|-------------|-0---0---0---0---0---0---0-------|


E|---------------------|---------------------------------|-------------|---------------------------------|
B|---------------------|---------------------------------|-------------|---------------------------------|
G|---------------------|---------------------------------|-------------|-----------------------------4---|
D|-----3-----3----3----|-2---2---2---2---2---2-------3---|-3------3----|-2---2---2---2---2---2-------2---|
A|-----1-----1----1----|-2---2---2---2---2---2-------1---|-1------1----|-2---2---2---2---2---2-----------|
E|---------------------|-0---0---0---0---0---0---0-------|-------------|-0---0---0---0---0---0---0-------|


E|---------------------|---------------------------------|-------------|---------------------------------|
B|---------------------|---------------------------------|-------------|---------------------------------|
G|---------------------|---------------------------------|-------------|-----------------------------4---|
D|-----3-----3----3----|-2---2---2---2---2---2-------3---|-3------3----|-2---2---2---2---2---2-------2---|
A|-----1-----1----1----|-2---2---2---2---2---2-------1---|-1------1----|-2---2---2---2---2---2-----------|
E|---------------------|-0---0---0---0---0---0---0-------|-------------|-0---0---0---0---0---0---0-------|


E|---------------------|--------|--------|--------|--------|--------|--------|--------|
B|---------------------|--------|--------|--------|--------|--------|--------|--------|
G|---------------------|--------|--------|--------|--------|--------|--------|--------|
D|-----3-----3----3----|-7------|-3------|-2------|-2------|-7------|-3------|-2------|
A|-----1-----1----1----|-5------|-1------|-0------|-0------|-5------|-1------|-0------|
E|---------------------|--------|--------|--------|--------|--------|--------|--------|


E|--------|---------------------------------|-------------|---------------------------------|
B|--------|---------------------------------|-------------|---------------------------------|
G|--------|---------------------------------|-------------|-----------------------------4---|
D|-2------|-2---2---2---2---2---2-------3---|-3------3----|-2---2---2---2---2---2-------2---|
A|-0------|-2---2---2---2---2---2-------1---|-1------1----|-2---2---2---2---2---2-----------|
E|--------|-0---0---0---0---0---0---0-------|-------------|-0---0---0---0---0---0---0-------|


E|---------------------|---------------------------------|-------------|---------------------------------|
B|---------------------|---------------------------------|-------------|---------------------------------|
G|---------------------|---------------------------------|-------------|-----------------------------4---|
D|-----3-----3----3----|-2---2---2---2---2---2-------3---|-3------3----|-2---2---2---2---2---2-------2---|
A|-----1-----1----1----|-2---2---2---2---2---2-------1---|-1------1----|-2---2---2---2---2---2-----------|
E|---------------------|-0---0---0---0---0---0---0-------|-------------|-0---0---0---0---0---0---0-------|


E|---------------------|---------------------------------|-------------|---------------------------------|
B|---------------------|---------------------------------|-------------|---------------------------------|
G|---------------------|---------------------------------|-------------|-----------------------------4---|
D|-----3-----3----3----|-2---2---2---2---2---2-------3---|-3------3----|-2---2---2---2---2---2-------2---|
A|-----1-----1----1----|-2---2---2---2---2---2-------1---|-1------1----|-2---2---2---2---2---2-----------|
E|---------------------|-0---0---0---0---0---0---0-------|-------------|-0---0---0---0---0---0---0-------|


E|---------------------|---------------------------------|-------------|---------------------------------|
B|---------------------|---------------------------------|-------------|---------------------------------|
G|---------------------|---------------------------------|-------------|-----------------------------4---|
D|-----3-----3----3----|-2---2---2---2---2---2-------3---|-3------3----|-2---2---2---2---2---2-------2---|
A|-----1-----1----1----|-2---2---2---2---2---2-------1---|-1------1----|-2---2---2---2---2---2-----------|
E|---------------------|-0---0---0---0---0---0---0-------|-------------|-0---0---0---0---0---0---0-------|


E|---------------------|---------------------------------|-------------|---------------------------------|
B|---------------------|---------------------------------|-------------|---------------------------------|
G|---------------------|---------------------------------|-------------|-----------------------------4---|
D|-----3-----3----3----|-2---2---2---2---2---2-------3---|-3------3----|-2---2---2---2---2---2-------2---|
A|-----1-----1----1----|-2---2---2---2---2---2-------1---|-1------1----|-2---2---2---2---2---2-----------|
E|---------------------|-0---0---0---0---0---0---0-------|-------------|-0---0---0---0---0---0---0-------|


E|---------------------|---------------------------------|-------------|---------------------------------|
B|---------------------|---------------------------------|-------------|---------------------------------|
G|---------------------|---------------------------------|-------------|-----------------------------4---|
D|-----3-----3----3----|-2---2---2---2---2---2-------3---|-3------3----|-2---2---2---2---2---2-------2---|
A|-----1-----1----1----|-2---2---2---2---2---2-------1---|-1------1----|-2---2---2---2---2---2-----------|
E|---------------------|-0---0---0---0---0---0---0-------|-------------|-0---0---0---0---0---0---0-------|


E|---------------------|--------|--------|--------|--------|--------|--------|--------|
B|---------------------|--------|--------|--------|--------|--------|--------|--------|
G|---------------------|--------|--------|--------|--------|--------|--------|--------|
D|-----3-----3----3----|-7------|-3------|-2------|-2------|-7------|-3------|-2------|
A|-----1-----1----1----|-5------|-1------|-0------|-0------|-5------|-1------|-0------|
E|---------------------|--------|--------|--------|--------|--------|--------|--------|


E|--------|---------------------------------|---------------------------|---------------------------------|
B|--------|---------------------------------|---------------------------|---------------------------------|
G|--------|---------------------------------|---------------------------|---------------------------------|
D|-2------|-----4---5---2---4-------2-------|---------------------2-----|-----4---5---2---4-------2-------|
A|-0------|---------------------5-------4---|-5---2---4---5---2---0-----|---------------------5-------4---|
E|--------|-2-------------------------------|---------------------------|-2-------------------------------|


E|---------------------------|---------------------------------|---------------------------|
B|---------------------------|---------------------------------|---------------------------|
G|---------------------------|---------------------------------|---------------------------|
D|---------------------2-----|-----4---5---2---4-------2-------|---------------------2-----|
A|-5---2---4---5---2---0-----|---------------------5-------4---|-5---2---4---5---2---0-----|
E|---------------------------|-2-------------------------------|---------------------------|


E|---------------------------------|---------------------------|---------------------------------|
B|---------------------------------|---------------------------|---------------------------------|
G|---------------------------------|---------------------------|---------------------------------|
D|-----4---5---2---4-------2-------|---------------------2-----|-----4---5---2---4-------2-------|
A|---------------------5-------4---|-5---2---4---5---2---0-----|---------------------5-------4---|
E|-2-------------------------------|---------------------------|-2-------------------------------|


E|---------------------------|---------------------------------|---------------------------|
B|---------------------------|---------------------------------|---------------------------|
G|---------------------------|---------------------------------|---------------------------|
D|---------------------2-----|-----4---5---2---4-------2-------|---------------------2-----|
A|-5---2---4---5---2---0-----|---------------------5-------4---|-5---2---4---5---2---0-----|
E|---------------------------|-2-------------------------------|---------------------------|


E|---------------------------------|---------------------------|---------------------------------|
B|---------------------------------|---------------------------|---------------------------------|
G|---------------------------------|---------------------------|---------------------------------|
D|-----4---5---2---4-------2-------|---------------------2-----|-----4---5---2---4-------2-------|
A|---------------------5-------4---|-5---2---4---5---2---0-----|---------------------5-------4---|
E|-2-------------------------------|---------------------------|-2-------------------------------|


E|---------------------------|--------|--------|--------|--------|--------|--------|
B|---------------------------|--------|--------|--------|--------|--------|--------|
G|---------------------------|--------|--------|--------|--------|--------|--------|
D|---------------------2-----|-7------|-3------|-2------|-2------|-7------|-3------|
A|-5---2---4---5---2---0-----|-5------|-1------|-0------|-0------|-5------|-1------|
E|---------------------------|--------|--------|--------|--------|--------|--------|


E|--------|--------|---------------------------------|-------------|---------------------------------|
B|--------|--------|---------------------------------|-------------|---------------------------------|
G|--------|--------|---------------------------------|-------------|-----------------------------4---|
D|-2------|-2------|-2---2---2---2---2---2-------3---|-3------3----|-2---2---2---2---2---2-------2---|
A|-0------|-0------|-2---2---2---2---2---2-------1---|-1------1----|-2---2---2---2---2---2-----------|
E|--------|--------|-0---0---0---0---0---0---0-------|-------------|-0---0---0---0---0---0---0-------|


E|---------------------|---------------------------------|-------------|---------------------------------|
B|---------------------|---------------------------------|-------------|---------------------------------|
G|---------------------|---------------------------------|-------------|-----------------------------4---|
D|-----3-----3----3----|-2---2---2---2---2---2-------3---|-3------3----|-2---2---2---2---2---2-------2---|
A|-----1-----1----1----|-2---2---2---2---2---2-------1---|-1------1----|-2---2---2---2---2---2-----------|
E|---------------------|-0---0---0---0---0---0---0-------|-------------|-0---0---0---0---0---0---0-------|


E|---------------------|---------------------------------|-------------|---------------------------------|
B|---------------------|---------------------------------|-------------|---------------------------------|
G|---------------------|---------------------------------|-------------|-----------------------------4---|
D|-----3-----3----3----|-2---2---2---2---2---2-------3---|-3------3----|-2---2---2---2---2---2-------2---|
A|-----1-----1----1----|-2---2---2---2---2---2-------1---|-1------1----|-2---2---2---2---2---2-----------|
E|---------------------|-0---0---0---0---0---0---0-------|-------------|-0---0---0---0---0---0---0-------|


E|---------------------|---------------------------------|-------------|---------------------------------|
B|---------------------|---------------------------------|-------------|---------------------------------|
G|---------------------|---------------------------------|-------------|-----------------------------4---|
D|-----3-----3----3----|-2---2---2---2---2---2-------3---|-3------3----|-2---2---2---2---2---2-------2---|
A|-----1-----1----1----|-2---2---2---2---2---2-------1---|-1------1----|-2---2---2---2---2---2-----------|
E|---------------------|-0---0---0---0---0---0---0-------|-------------|-0---0---0---0---0---0---0-------|


E|---------------------|---------------------------------|-------------|---------------------------------|
B|---------------------|---------------------------------|-------------|---------------------------------|
G|---------------------|---------------------------------|-------------|-----------------------------4---|
D|-----3-----3----3----|-2---2---2---2---2---2-------3---|-3------3----|-2---2---2---2---2---2-------2---|
A|-----1-----1----1----|-2---2---2---2---2---2-------1---|-1------1----|-2---2---2---2---2---2-----------|
E|---------------------|-0---0---0---0---0---0---0-------|-------------|-0---0---0---0---0---0---0-------|


E|---------------------|---------------------------------|-------------|---------------------------------|
B|---------------------|---------------------------------|-------------|---------------------------------|
G|---------------------|---------------------------------|-------------|-----------------------------4---|
D|-----3-----3----3----|-2---2---2---2---2---2-------3---|-3------3----|-2---2---2---2---2---2-------2---|
A|-----1-----1----1----|-2---2---2---2---2---2-------1---|-1------1----|-2---2---2---2---2---2-----------|
E|---------------------|-0---0---0---0---0---0---0-------|-------------|-0---0---0---0---0---0---0-------|


E|---------------------|--------|--------|--------|--------|--------|--------|--------|
B|---------------------|--------|--------|--------|--------|--------|--------|--------|
G|---------------------|--------|--------|--------|--------|--------|--------|--------|
D|-----3-----3----3----|-7------|-3------|-2------|-2------|-7------|-3------|-2------|
A|-----1-----1----1----|-5------|-1------|-0------|-0------|-5------|-1------|-0------|
E|---------------------|--------|--------|--------|--------|--------|--------|--------|


E|--------|---------------------------------|---------------------------|---------------------------------|
B|--------|---------------------------------|---------------------------|---------------------------------|
G|--------|---------------------------------|---------------------------|---------------------------------|
D|-2------|-----4---5---2---4-------2-------|---------------------2-----|-----4---5---2---4-------2-------|
A|-0------|---------------------5-------4---|-5---2---4---5---2---0-----|---------------------5-------4---|
E|--------|-2-------------------------------|---------------------------|-2-------------------------------|


E|---------------------------|---------------------------------|---------------------------|
B|---------------------------|---------------------------------|---------------------------|
G|---------------------------|---------------------------------|---------------------------|
D|---------------------2-----|-----4---5---2---4-------2-------|---------------------2-----|
A|-5---2---4---5---2---0-----|---------------------5-------4---|-5---2---4---5---2---0-----|
E|---------------------------|-2-------------------------------|---------------------------|


E|---------------------------------|---------------------------|---------------------------------|
B|---------------------------------|---------------------------|---------------------------------|
G|---------------------------------|---------------------------|---------------------------------|
D|-----4---5---2---4-------2-------|---------------------2-----|-----4---5---2---4-------2-------|
A|---------------------5-------4---|-5---2---4---5---2---0-----|---------------------5-------4---|
E|-2-------------------------------|---------------------------|-2-------------------------------|


E|---------------------------|---------------------------------|---------------------------|
B|---------------------------|---------------------------------|---------------------------|
G|---------------------------|---------------------------------|---------------------------|
D|---------------------2-----|-----4---5---2---4-------2-------|---------------------2-----|
A|-5---2---4---5---2---0-----|---------------------5-------4---|-5---2---4---5---2---0-----|
E|---------------------------|-2-------------------------------|---------------------------|


E|---------------------------------|---------------------------|---------------------------------|
B|---------------------------------|---------------------------|---------------------------------|
G|---------------------------------|---------------------------|---------------------------------|
D|-----4---5---2---4-------2-------|---------------------2-----|-----4---5---2---4-------2-------|
A|---------------------5-------4---|-5---2---4---5---2---0-----|---------------------5-------4---|
E|-2-------------------------------|---------------------------|-2-------------------------------|


E|---------------------------|------------------------------|---------------------------------|
B|---------------------------|------------------------------|---------------------------------|
G|---------------------------|------------------------------|---------------------------------|
D|---------------------2-----|------------------------------|---------------------------------|
A|-5---2---4---5---2---0-----|-2---2---2---2---2---2---2----|-2---2---2---2---2---2---2---2---|
E|---------------------------|------------------------------|---------------------------------|


E|------------------------------|---------------------------------|---------------------------------|
B|------------------------------|---------------------------------|---------------------------------|
G|------------------------------|---------------------------------|-----2---------------------------|
D|------------------------------|---------1---2---1---2---4---2---|-2-------4---2-------------------|
A|-2---2---2----2---2---2---2---|-2---4---------------------------|-----------------2---2---2---2---|
E|------------------------------|---------------------------------|---------------------------------|


E|------------------------------|---------------------------------|---------------------------------|
B|------------------------------|---------------------------------|---------------------------------|
G|------------------------------|---------------------------------|-----2---------------------------|
D|------------------------------|---------1---2---1---2---4---2---|-2-------4---2-------------------|
A|-2---2---2----2---2---2---2---|-2---4---------------------------|-----------------2---2---2---2---|
E|------------------------------|---------------------------------|---------------------------------|


E|------------------------------|---------------------------------|---------------------------------|
B|------------------------------|---------------------------------|---------------------------------|
G|------------------------------|---------------------------------|-----2---------------------------|
D|------------------------------|---------1---2---1---2---4---2---|-2-------4---2-------------------|
A|-2---2---2----2---2---2---2---|-2---4---------------------------|-----------------2---2---2---2---|
E|------------------------------|---------------------------------|---------------------------------|


E|------------------------------|---------------------------------|---------------------------------|
B|------------------------------|---------------------------------|---------------------------------|
G|------------------------------|---------------------------------|-----2---------------------------|
D|------------------------------|---------1---2---1---2---4---2---|-2-------4---2-------------------|
A|-2---2---2----2---2---2---2---|-2---4---------------------------|-----------------2---2---2---2---|
E|------------------------------|---------------------------------|---------------------------------|


E|------------------------------|-7----7---10--7---7--10-7----|-7--------------------------------|
B|------------------------------|-10---------------10----10---|----10-7--10-7--9-----------------|
G|------------------------------|-----------------------------|---------------------7----7---7---|
D|------------------------------|-----------------------------|----------------------------------|
A|-2---2---2----2---2---2---2---|-----------------------------|----------------------------------|
E|------------------------------|-----------------------------|----------------------------------|


E|-----------------------------|-------------------------------------------|---------------------------|
B|-----------------------10-7--|-10-7--10-7--------------------------------|---------------------------|
G|-----7---12---7---7----------|-------------7--7--9--7----------7--9--9---|-----9---9-----------------|
D|-----------------------------|-------------------------9-----------------|--------------8------------|
A|-----------------------------|----------------------------7--------------|------------------9----9---|
E|-----------------------------|-------------------------------------------|---------------------------|


E|-------------|------------------------------7-----|-------7-------------------------------------|
B|-------------|--------------------------7------10-|-7--------10-7--10-7--10-7--10-7-------------|
G|-------------|-------7--9----9--7---7-------------|----9-----------------------------7--9---9---|
D|-------------|-7--9-------------------------------|---------------------------------------------|
A|-------------|------------------------------------|---------------------------------------------|
E|-------------|------------------------------------|---------------------------------------------|


E|------------------------------|---------------------|---------------------|------------------|
B|------------------------------|---------------------|---------------------|------------------|
G|-----7------------9---7---9---|-7----7---------9----|-----7-----7---------|------------------|
D|---------9----7---------------|----------9----------|-----------------9---|------9-----------|
A|------------------------------|---------------------|---------------------|------------------|
E|------------------------------|---------------------|---------------------|------------------|


E|-------------15------------------|------------------------|------------------7-------------|
B|-17--15--17------17--15--17--15--|------------------------|----------------------10--7-----|
G|---------------------------------|-14--7-----7----9---7---|-7---9---9---7---------------9--|
D|---------------------------------|------------------------|--------------------------------|
A|---------------------------------|------------------------|--------------------------------|
E|---------------------------------|------------------------|--------------------------------|


E|---------------------------------|-7-----------7-------------------|------------------------|
B|---------------------------------|-----10--10------10--7-----------|------------------------|
G|-9---7---9---7-------7---9---9---|-------------------------9---7---|-9---7----7-------------|
D|-----------------9---------------|---------------------------------|------------------------|
A|---------------------------------|---------------------------------|------------------------|
E|---------------------------------|---------------------------------|------------------------|


E|-10-7-----7--7----7---7-----------|-----------------------------------|---------------------------------|
B|-------10----10---10------10--7---|-----------------------------------|---------------------------------|
G|----------------------------------|-9---9---9--7------7---------------|-7-------7-------7-------7-------|
D|----------------------------------|---------------9-------9---7---9---|-----9-------9-------9-------9---|
A|----------------------------------|-----------------------------------|---------------------------------|
E|----------------------------------|-----------------------------------|---------------------------------|


E|---------------------|--------------------|-------------|-----------------|--------|
B|---------------------|--------------------|-------------|-----------------|--------|
G|-------7--------9----|-9---7--------------|-------------|-----------------|--------|
D|-9----------9--------|----------9---9-----|-------------|-1-----1----2----|-3------|
A|---------------------|--------------------|-------------|-2-----2----3----|-4------|
E|---------------------|--------------------|-------------|-----------------|--------|


E|--------|----------------|--------|--------|--------|--------|--------|--------|
B|--------|----------------|--------|--------|--------|--------|--------|--------|
G|--------|----------------|--------|--------|--------|--------|--------|--------|
D|-7------|-11-----14--15--|--------|--------|--------|--------|--------|--------|
A|-8------|-12-----15--16--|--------|--------|--------|--------|--------|--------|
E|--------|----------------|--------|--------|--------|--------|--------|--------|


E|--------|--------|--------|--------|--------|--------|--------|--------|--------|
B|--------|--------|--------|--------|--------|--------|--------|--------|--------|
G|--------|--------|--------|--------|--------|--------|--------|--------|--------|
D|--------|--------|--------|--------|--------|--------|--------|--------|--------|
A|--------|--------|--------|--------|--------|--------|--------|--------|--------|
E|--------|--------|--------|--------|--------|--------|--------|--------|--------|


E|--------|--------|--------|--------|--------|--------|--------|--------|--------|
B|--------|--------|--------|--------|--------|--------|--------|--------|--------|
G|--------|--------|--------|--------|--------|--------|--------|--------|--------|
D|--------|--------|--------|--------|--------|--------|--------|--------|--------|
A|--------|--------|--------|--------|--------|--------|--------|--------|--------|
E|--------|--------|--------|--------|--------|--------|--------|--------|--------|


E|--------|--------|--------|--------|--------|--------|--------|--------|--------|
B|--------|--------|--------|--------|--------|--------|--------|--------|--------|
G|--------|--------|--------|--------|--------|--------|--------|--------|--------|
D|--------|--------|--------|--------|--------|--------|--------|--------|--------|
A|--------|--------|--------|--------|--------|--------|--------|--------|--------|
E|--------|--------|--------|--------|--------|--------|--------|--------|--------|


E|--------|--------|--------|--------|--------|--------|--------|--------|--------|
B|--------|--------|--------|--------|--------|--------|--------|--------|--------|
G|--------|--------|--------|--------|--------|--------|--------|--------|--------|
D|--------|--------|--------|--------|--------|--------|--------|--------|--------|
A|--------|--------|--------|--------|--------|--------|--------|--------|--------|
E|--------|--------|--------|--------|--------|--------|--------|--------|--------|


E|--------|
B|--------|
G|--------|
D|--------|
A|--------|
E|--------|





Track 2: Tony Iommi

E|--------|--------|--------|--------|--------|--------|--------|--------|--------|
B|--------|--------|--------|--------|--------|--------|--------|--------|--------|
G|--------|--------|--------|--------|--------|--------|--------|--------|--------|
D|--------|--------|--------|--------|--------|--------|--------|--------|--------|
A|--------|--------|--------|--------|--------|--------|--------|--------|--------|
E|--------|--------|--------|--------|--------|--------|--------|--------|--------|


E|--------|--------|--------|--------|--------|--------|--------|--------|--------|
B|--------|--------|--------|--------|--------|--------|--------|--------|--------|
G|--------|--------|--------|--------|--------|--------|--------|--------|--------|
D|--------|--------|--------|--------|--------|--------|--------|--------|--------|
A|--------|--------|--------|--------|--------|--------|--------|--------|--------|
E|--------|--------|--------|--------|--------|--------|--------|--------|--------|


E|--------|--------|--------|--------|--------|--------|--------|--------|--------|
B|--------|--------|--------|--------|--------|--------|--------|--------|--------|
G|--------|--------|--------|--------|--------|--------|--------|--------|--------|
D|--------|--------|--------|--------|--------|--------|--------|--------|--------|
A|--------|--------|--------|--------|--------|--------|--------|--------|--------|
E|--------|--------|--------|--------|--------|--------|--------|--------|--------|


E|--------|--------|--------|--------|--------|--------|--------|--------|--------|
B|--------|--------|--------|--------|--------|--------|--------|--------|--------|
G|--------|--------|--------|--------|--------|--------|--------|--------|--------|
D|--------|--------|--------|--------|--------|--------|--------|--------|--------|
A|--------|--------|--------|--------|--------|--------|--------|--------|--------|
E|--------|--------|--------|--------|--------|--------|--------|--------|--------|


E|--------|--------|--------|--------|--------|--------|--------|--------|--------|
B|--------|--------|--------|--------|--------|--------|--------|--------|--------|
G|--------|--------|--------|--------|--------|--------|--------|--------|--------|
D|--------|--------|--------|--------|--------|--------|--------|--------|--------|
A|--------|--------|--------|--------|--------|--------|--------|--------|--------|
E|--------|--------|--------|--------|--------|--------|--------|--------|--------|


E|--------|--------|--------|--------|--------|--------|--------|--------|--------|
B|--------|--------|--------|--------|--------|--------|--------|--------|--------|
G|--------|--------|--------|--------|--------|--------|--------|--------|--------|
D|--------|--------|--------|--------|--------|--------|--------|--------|--------|
A|--------|--------|--------|--------|--------|--------|--------|--------|--------|
E|--------|--------|--------|--------|--------|--------|--------|--------|--------|


E|--------|--------|--------|--------|--------|--------|--------|--------|--------|
B|--------|--------|--------|--------|--------|--------|--------|--------|--------|
G|--------|--------|--------|--------|--------|--------|--------|--------|--------|
D|--------|--------|--------|--------|--------|--------|--------|--------|--------|
A|--------|--------|--------|--------|--------|--------|--------|--------|--------|
E|--------|--------|--------|--------|--------|--------|--------|--------|--------|


E|--------|--------|--------|--------|--------|--------|--------|--------|--------|
B|--------|--------|--------|--------|--------|--------|--------|--------|--------|
G|--------|--------|--------|--------|--------|--------|--------|--------|--------|
D|--------|--------|--------|--------|--------|--------|--------|--------|--------|
A|--------|--------|--------|--------|--------|--------|--------|--------|--------|
E|--------|--------|--------|--------|--------|--------|--------|--------|--------|


E|--------|--------|--------|--------|--------|--------|--------|--------|--------|
B|--------|--------|--------|--------|--------|--------|--------|--------|--------|
G|--------|--------|--------|--------|--------|--------|--------|--------|--------|
D|--------|--------|--------|--------|--------|--------|--------|--------|--------|
A|--------|--------|--------|--------|--------|--------|--------|--------|--------|
E|--------|--------|--------|--------|--------|--------|--------|--------|--------|


E|--------|--------|--------|--------|--------|--------|--------|--------|--------|
B|--------|--------|--------|--------|--------|--------|--------|--------|--------|
G|--------|--------|--------|--------|--------|--------|--------|--------|--------|
D|--------|--------|--------|--------|--------|--------|--------|--------|--------|
A|--------|--------|--------|--------|--------|--------|--------|--------|--------|
E|--------|--------|--------|--------|--------|--------|--------|--------|--------|


E|--------|--------|--------|--------|--------|--------|--------|--------|--------|
B|--------|--------|--------|--------|--------|--------|--------|--------|--------|
G|--------|--------|--------|--------|--------|--------|--------|--------|--------|
D|--------|--------|--------|--------|--------|--------|--------|--------|--------|
A|--------|--------|--------|--------|--------|--------|--------|--------|--------|
E|--------|--------|--------|--------|--------|--------|--------|--------|--------|


E|--------|--------|--------|--------|--------|--------|--------|--------|--------|
B|--------|--------|--------|--------|--------|--------|--------|--------|--------|
G|--------|--------|--------|--------|--------|--------|--------|--------|--------|
D|--------|--------|--------|--------|--------|--------|--------|--------|--------|
A|--------|--------|--------|--------|--------|--------|--------|--------|--------|
E|--------|--------|--------|--------|--------|--------|--------|--------|--------|


E|--------|--------|--------|--------|--------|--------|--------|--------|--------|
B|--------|--------|--------|--------|--------|--------|--------|--------|--------|
G|--------|--------|--------|--------|--------|--------|--------|--------|--------|
D|--------|--------|--------|--------|--------|--------|--------|--------|--------|
A|--------|--------|--------|--------|--------|--------|--------|--------|--------|
E|--------|--------|--------|--------|--------|--------|--------|--------|--------|


E|--------|--------|--------|--------|--------|--------|--------|--------|--------|
B|--------|--------|--------|--------|--------|--------|--------|--------|--------|
G|--------|--------|--------|--------|--------|--------|--------|--------|--------|
D|--------|--------|--------|--------|--------|--------|--------|--------|--------|
A|--------|--------|--------|--------|--------|--------|--------|--------|--------|
E|--------|--------|--------|--------|--------|--------|--------|--------|--------|


E|--------|--------|--------|--------|--------|--------|--------|--------|--------|
B|--------|--------|--------|--------|--------|--------|--------|--------|--------|
G|--------|--------|--------|--------|--------|--------|--------|--------|--------|
D|--------|--------|--------|--------|--------|--------|--------|--------|--------|
A|--------|--------|--------|--------|--------|--------|--------|--------|--------|
E|--------|--------|--------|--------|--------|--------|--------|--------|--------|


E|--------|--------|--------|--------|--------|--------|--------|--------|--------|
B|--------|--------|--------|--------|--------|--------|--------|--------|--------|
G|--------|--------|--------|--------|--------|--------|--------|--------|--------|
D|--------|--------|--------|--------|--------|--------|--------|--------|--------|
A|--------|--------|--------|--------|--------|--------|--------|--------|--------|
E|--------|--------|--------|--------|--------|--------|--------|--------|--------|


E|--------|--------|--------|--------|--------|--------|--------|--------|--------|
B|--------|--------|--------|--------|--------|--------|--------|--------|--------|
G|--------|--------|--------|--------|--------|--------|--------|--------|--------|
D|--------|--------|--------|--------|--------|--------|--------|--------|--------|
A|--------|--------|--------|--------|--------|--------|--------|--------|--------|
E|--------|--------|--------|--------|--------|--------|--------|--------|--------|


E|--------|--------|--------|--------|--------|--------|--------|--------|--------|
B|--------|--------|--------|--------|--------|--------|--------|--------|--------|
G|--------|--------|--------|--------|--------|--------|--------|--------|--------|
D|--------|--------|--------|--------|--------|--------|--------|--------|--------|
A|--------|--------|--------|--------|--------|--------|--------|--------|--------|
E|--------|--------|--------|--------|--------|--------|--------|--------|--------|


E|--------|--------|--------|--------|--------|--------|--------|--------|--------|
B|--------|--------|--------|--------|--------|--------|--------|--------|--------|
G|--------|--------|--------|--------|--------|--------|--------|--------|--------|
D|--------|--------|--------|--------|--------|--------|--------|--------|--------|
A|--------|--------|--------|--------|--------|--------|--------|--------|--------|
E|--------|--------|--------|--------|--------|--------|--------|--------|--------|


E|--------|--------|--------|--------|--------|-------------|-------------|------------------------------|
B|--------|--------|--------|--------|--------|-------------|-------------|------------------------------|
G|--------|--------|--------|--------|-2------|-------2-----|------2------|------------------------------|
D|--------|--------|--------|--------|-2------|-------2-----|------2------|------------------------------|
A|--------|--------|--------|--------|-0------|-------0-----|------0------|-2---2---2---2---2---2---2----|
E|--------|--------|--------|--------|--------|-------------|-------------|------------------------------|


E|---------------------------------|------------------------------|--------|-------------|
B|---------------------------------|------------------------------|--------|-------------|
G|---------------------------------|------------------------------|-2------|-------2-----|
D|---------------------------------|------------------------------|-2------|-------2-----|
A|-2---2---2---2---2---2---2---2---|-2---2---2----2---2---2---2---|-0------|-------0-----|
E|---------------------------------|------------------------------|--------|-------------|


E|-------------|------------------------------|---------------------------------|------------------------------|
B|-------------|------------------------------|---------------------------------|------------------------------|
G|------2------|------------------------------|---------------------------------|------------------------------|
D|------2------|------------------------------|---------------------------------|------------------------------|
A|------0------|-2---2---2---2---2---2---2----|-2---2---2---2---2---2---2---2---|-2---2---2----2---2---2---2---|
E|-------------|------------------------------|---------------------------------|------------------------------|


E|--------|-------------|-------------|------------------------------|---------------------------------|
B|--------|-------------|-------------|------------------------------|---------------------------------|
G|-2------|-------2-----|------2------|------------------------------|---------------------------------|
D|-2------|-------2-----|------2------|------------------------------|---------------------------------|
A|-0------|-------0-----|------0------|-2---2---2---2---2---2---2----|-2---2---2---2---2---2---2---2---|
E|--------|-------------|-------------|------------------------------|---------------------------------|


E|------------------------------|--------|-------------|-------------|--------|-------------|
B|------------------------------|--------|-------------|-------------|--------|-------------|
G|------------------------------|-2------|-------2-----|------2------|-4------|-------4-----|
D|------------------------------|-2------|-------2-----|------2------|-4------|-------4-----|
A|-2---2---2----2---2---2---2---|-0------|-------0-----|------0------|-2------|-------2-----|
E|------------------------------|--------|-------------|-------------|--------|-------------|


E|--------|--------|--------|--------|--------|--------|--------|--------|--------|
B|--------|--------|--------|--------|--------|--------|--------|--------|--------|
G|--------|--------|--------|--------|--------|--------|--------|--------|--------|
D|--------|--------|--------|--------|--------|--------|--------|--------|--------|
A|--------|--------|--------|--------|--------|--------|--------|--------|--------|
E|--------|--------|--------|--------|--------|--------|--------|--------|--------|


E|--------|--------|--------|--------|--------|--------|--------|--------|--------|
B|--------|--------|--------|--------|--------|--------|--------|--------|--------|
G|--------|--------|--------|--------|--------|--------|--------|--------|--------|
D|--------|--------|--------|--------|--------|--------|--------|--------|--------|
A|--------|--------|--------|--------|--------|--------|--------|--------|--------|
E|--------|--------|--------|--------|--------|--------|--------|--------|--------|


E|--------|--------|--------|--------|--------|--------|--------|--------|--------|
B|--------|--------|--------|--------|--------|--------|--------|--------|--------|
G|--------|--------|--------|--------|--------|--------|--------|--------|--------|
D|--------|--------|--------|--------|--------|--------|--------|--------|--------|
A|--------|--------|--------|--------|--------|--------|--------|--------|--------|
E|--------|--------|--------|--------|--------|--------|--------|--------|--------|


E|--------|--------|--------|--------|--------|--------|--------|--------|--------|
B|--------|--------|--------|--------|--------|--------|--------|--------|--------|
G|--------|--------|--------|--------|--------|--------|--------|--------|--------|
D|--------|--------|--------|--------|--------|--------|--------|--------|--------|
A|--------|--------|--------|--------|--------|--------|--------|--------|--------|
E|--------|--------|--------|--------|--------|--------|--------|--------|--------|


E|--------|--------|--------|--------|--------|--------|--------|--------|--------|
B|--------|--------|--------|--------|--------|--------|--------|--------|--------|
G|--------|--------|--------|--------|--------|--------|--------|--------|--------|
D|--------|--------|--------|--------|--------|--------|--------|--------|--------|
A|--------|--------|--------|--------|--------|--------|--------|--------|--------|
E|--------|--------|--------|--------|--------|--------|--------|--------|--------|


E|--------|--------|--------|
B|--------|--------|--------|
G|--------|--------|--------|
D|--------|--------|--------|
A|--------|--------|--------|
E|--------|--------|--------|





Track 3: Tony Iommi

E|--------|--------|--------|--------|--------|--------|--------|--------|--------|
B|--------|--------|--------|--------|--------|--------|--------|--------|--------|
G|--------|--------|--------|--------|--------|--------|--------|--------|--------|
D|--------|--------|--------|--------|--------|--------|--------|--------|--------|
A|--------|--------|--------|--------|--------|--------|--------|--------|--------|
E|--------|--------|--------|--------|--------|--------|--------|--------|--------|


E|--------|--------|--------|--------|--------|--------|--------|--------|--------|
B|--------|--------|--------|--------|--------|--------|--------|--------|--------|
G|--------|--------|--------|--------|--------|--------|--------|--------|--------|
D|--------|--------|--------|--------|--------|--------|--------|--------|--------|
A|--------|--------|--------|--------|--------|--------|--------|--------|--------|
E|--------|--------|--------|--------|--------|--------|--------|--------|--------|


E|--------|--------|--------|--------|--------|--------|--------|--------|--------|
B|--------|--------|--------|--------|--------|--------|--------|--------|--------|
G|--------|--------|--------|--------|--------|--------|--------|--------|--------|
D|--------|--------|--------|--------|--------|--------|--------|--------|--------|
A|--------|--------|--------|--------|--------|--------|--------|--------|--------|
E|--------|--------|--------|--------|--------|--------|--------|--------|--------|


E|--------|--------|--------|--------|--------|--------|--------|--------|--------|
B|--------|--------|--------|--------|--------|--------|--------|--------|--------|
G|--------|--------|--------|--------|--------|--------|--------|--------|--------|
D|--------|--------|--------|--------|--------|--------|--------|--------|--------|
A|--------|--------|--------|--------|--------|--------|--------|--------|--------|
E|--------|--------|--------|--------|--------|--------|--------|--------|--------|


E|--------|--------|--------|--------|--------|--------|--------|--------|--------|
B|--------|--------|--------|--------|--------|--------|--------|--------|--------|
G|--------|--------|--------|--------|--------|--------|--------|--------|--------|
D|--------|--------|--------|--------|--------|--------|--------|--------|--------|
A|--------|--------|--------|--------|--------|--------|--------|--------|--------|
E|--------|--------|--------|--------|--------|--------|--------|--------|--------|


E|--------|--------|--------|--------|--------|--------|--------|--------|--------|
B|--------|--------|--------|--------|--------|--------|--------|--------|--------|
G|--------|--------|--------|--------|--------|--------|--------|--------|--------|
D|--------|--------|--------|--------|--------|--------|--------|--------|--------|
A|--------|--------|--------|--------|--------|--------|--------|--------|--------|
E|--------|--------|--------|--------|--------|--------|--------|--------|--------|


E|--------|--------|--------|--------|--------|--------|--------|--------|--------|
B|--------|--------|--------|--------|--------|--------|--------|--------|--------|
G|--------|--------|--------|--------|--------|--------|--------|--------|--------|
D|--------|--------|--------|--------|--------|--------|--------|--------|--------|
A|--------|--------|--------|--------|--------|--------|--------|--------|--------|
E|--------|--------|--------|--------|--------|--------|--------|--------|--------|


E|--------|--------|--------|--------|--------|--------|--------|--------|--------|
B|--------|--------|--------|--------|--------|--------|--------|--------|--------|
G|--------|--------|--------|--------|--------|--------|--------|--------|--------|
D|--------|--------|--------|--------|--------|--------|--------|--------|--------|
A|--------|--------|--------|--------|--------|--------|--------|--------|--------|
E|--------|--------|--------|--------|--------|--------|--------|--------|--------|


E|--------|--------|--------|--------|--------|--------|--------|--------|--------|
B|--------|--------|--------|--------|--------|--------|--------|--------|--------|
G|--------|--------|--------|--------|--------|--------|--------|--------|--------|
D|--------|--------|--------|--------|--------|--------|--------|--------|--------|
A|--------|--------|--------|--------|--------|--------|--------|--------|--------|
E|--------|--------|--------|--------|--------|--------|--------|--------|--------|


E|--------|--------|--------|--------|--------|--------|--------|--------|--------|
B|--------|--------|--------|--------|--------|--------|--------|--------|--------|
G|--------|--------|--------|--------|--------|--------|--------|--------|--------|
D|--------|--------|--------|--------|--------|--------|--------|--------|--------|
A|--------|--------|--------|--------|--------|--------|--------|--------|--------|
E|--------|--------|--------|--------|--------|--------|--------|--------|--------|


E|--------|--------|--------|--------|--------|--------|--------|--------|--------|
B|--------|--------|--------|--------|--------|--------|--------|--------|--------|
G|--------|--------|--------|--------|--------|--------|--------|--------|--------|
D|--------|--------|--------|--------|--------|--------|--------|--------|--------|
A|--------|--------|--------|--------|--------|--------|--------|--------|--------|
E|--------|--------|--------|--------|--------|--------|--------|--------|--------|


E|--------|--------|--------|--------|--------|--------|--------|--------|--------|
B|--------|--------|--------|--------|--------|--------|--------|--------|--------|
G|--------|--------|--------|--------|--------|--------|--------|--------|--------|
D|--------|--------|--------|--------|--------|--------|--------|--------|--------|
A|--------|--------|--------|--------|--------|--------|--------|--------|--------|
E|--------|--------|--------|--------|--------|--------|--------|--------|--------|


E|--------|--------|--------|--------|--------|--------|--------|--------|--------|
B|--------|--------|--------|--------|--------|--------|--------|--------|--------|
G|--------|--------|--------|--------|--------|--------|--------|--------|--------|
D|--------|--------|--------|--------|--------|--------|--------|--------|--------|
A|--------|--------|--------|--------|--------|--------|--------|--------|--------|
E|--------|--------|--------|--------|--------|--------|--------|--------|--------|


E|--------|--------|--------|--------|--------|--------|--------|--------|--------|
B|--------|--------|--------|--------|--------|--------|--------|--------|--------|
G|--------|--------|--------|--------|--------|--------|--------|--------|--------|
D|--------|--------|--------|--------|--------|--------|--------|--------|--------|
A|--------|--------|--------|--------|--------|--------|--------|--------|--------|
E|--------|--------|--------|--------|--------|--------|--------|--------|--------|


E|--------|--------|--------|--------|--------|--------|--------|--------|--------|
B|--------|--------|--------|--------|--------|--------|--------|--------|--------|
G|--------|--------|--------|--------|--------|--------|--------|--------|--------|
D|--------|--------|--------|--------|--------|--------|--------|--------|--------|
A|--------|--------|--------|--------|--------|--------|--------|--------|--------|
E|--------|--------|--------|--------|--------|--------|--------|--------|--------|


E|--------|--------|--------|--------|--------|--------|--------|--------|--------|
B|--------|--------|--------|--------|--------|--------|--------|--------|--------|
G|--------|--------|--------|--------|--------|--------|--------|--------|--------|
D|--------|--------|--------|--------|--------|--------|--------|--------|--------|
A|--------|--------|--------|--------|--------|--------|--------|--------|--------|
E|--------|--------|--------|--------|--------|--------|--------|--------|--------|


E|--------|--------|--------|--------|--------|--------|--------|--------|--------|
B|--------|--------|--------|--------|--------|--------|--------|--------|--------|
G|--------|--------|--------|--------|--------|--------|--------|--------|--------|
D|--------|--------|--------|--------|--------|--------|--------|--------|--------|
A|--------|--------|--------|--------|--------|--------|--------|--------|--------|
E|--------|--------|--------|--------|--------|--------|--------|--------|--------|


E|--------|--------|--------|--------|--------|--------|--------|--------|--------|
B|--------|--------|--------|--------|--------|--------|--------|--------|--------|
G|--------|--------|--------|--------|--------|--------|--------|--------|--------|
D|--------|--------|--------|--------|--------|--------|--------|--------|--------|
A|--------|--------|--------|--------|--------|--------|--------|--------|--------|
E|--------|--------|--------|--------|--------|--------|--------|--------|--------|


E|--------|--------|--------|--------|--------|--------|--------|--------|--------|
B|--------|--------|--------|--------|--------|--------|--------|--------|--------|
G|--------|--------|--------|--------|--------|--------|--------|--------|--------|
D|--------|--------|--------|--------|--------|--------|--------|--------|--------|
A|--------|--------|--------|--------|--------|--------|--------|--------|--------|
E|--------|--------|--------|--------|--------|--------|--------|--------|--------|


E|--------|--------|--------|--------|--------|--------|--------|--------|--------|
B|--------|--------|--------|--------|--------|--------|--------|--------|--------|
G|--------|--------|--------|--------|--------|--------|--------|--------|--------|
D|--------|--------|--------|--------|--------|--------|--------|--------|--------|
A|--------|--------|--------|--------|--------|--------|--------|--------|--------|
E|--------|--------|--------|--------|--------|--------|--------|--------|--------|


E|--------|--------|--------|--------|--------|--------|--------|--------|--------|
B|--------|--------|--------|--------|--------|--------|--------|--------|--------|
G|--------|--------|--------|--------|--------|--------|--------|--------|--------|
D|--------|--------|--------|--------|--------|--------|--------|--------|--------|
A|--------|--------|--------|--------|--------|--------|--------|--------|--------|
E|--------|--------|--------|--------|--------|--------|--------|--------|--------|


E|--------|--------|--------|--------|--------|--------|--------|--------|--------|
B|--------|--------|--------|--------|--------|--------|--------|--------|--------|
G|--------|--------|--------|--------|--------|--------|--------|--------|--------|
D|--------|--------|--------|--------|--------|--------|--------|--------|--------|
A|--------|--------|--------|--------|--------|--------|--------|--------|--------|
E|--------|--------|--------|--------|--------|--------|--------|--------|--------|


E|--------|--------|--------|--------|--------|------2----5--5-----4---4----|-----------5--------4---------------|
B|--------|--------|--------|--------|--------|------2----5--5-----4---4----|--------------4--4-----4------4-----|
G|--------|--------|--------|--------|--------|-----------------------------|--------------------------4---------|
D|--------|--------|--------|--------|--------|-----------------------------|------------------------------------|
A|--------|--------|--------|--------|--------|-----------------------------|---------------------------------0--|
E|--------|--------|--------|--------|--------|-----------------------------|------------------------------------|


E|---------------------------|--------|--------|----2--4-----2--4-----2--2--4------------------|
B|---------------------------|--------|--------|----------5--------5-----------4---4---2---4---|
G|-------2--4--4--4--4----4--|--------|--------|-----------------------------------------------|
D|---------------------------|--------|--------|-----------------------------------------------|
A|---------------------------|--------|--------|-----------------------------------------------|
E|---------------------------|--------|--------|-----------------------------------------------|


E|-----------------------------------------------|--------|--------|-------5-----4-----------5-----4-------------|
B|-5---2-----2-----------------------------------|--------|--------|----2-----2-----2-----2-----2-----2--2-------|
G|--------4-----4--2--1--2--1-----2--------------|--------|--------|---------------------------------------------|
D|-----------------------------4-----4--2--4-----|--------|--------|---------------------------------------------|
A|-----------------------------------------------|--------|--------|---------------------------------------------|
E|-----------------------------------------------|--------|--------|---------------------------------------------|


E|-------5-----4-----------2-----------------------|-----2-4---2-5-------------|--------|
B|----2-----2-----2-----5-----5--2-----------------|---------5-----------------|--------|
G|----------------------------------5--4--2--------|---------------------------|--------|
D|-------------------------------------------4-----|---------------------------|--------|
A|-------------------------------------------------|---------------------------|--------|
E|-------------------------------------------------|---------------------------|--------|


E|----------------------------------------------|-----------------------------------------------|
B|----------------------------------------------|-----------------------------------------------|
G|----1--2-----1--2-----1--1--2-1----1--1-------|-------1--2-----1--2-----1--2-----1------------|
D|-4--------4--------4------------4---------4---|----4-----------------4--------4-----2---------|
A|----------------------------------------------|----------------------------------------4------|
E|----------------------------------------------|-----------------------------------------------|


E|-------------------------------------|-----------------|-----------------------------------------------|
B|-------------------------------------|-----------------|-----------------------------------------------|
G|----------------------1------1-------|-----------------|----------------------1--1---------------------|
D|---------2---------4------4-------4--|-4---------------|-4--4-----2--2--------------4------2-----1--2--|
A|------4-----4------------------------|-----------------|----------------4---------------4-----4--------|
E|-------------------------------------|-----------------|-----------------------------------------------|


E|-------------------------------|---------------------------------------|---------------------------|
B|-------------------------------|---------------------------------------|---------------------------|
G|----------------------4--4-----|------------------1--1-----------------|-6---4---2--1--------------|
D|-2--2--4-----2-----------------|------1--2--------------4----2---4--2--|------------------4--4-----|
A|----------4-----4--------------|-4----------4--------------------------|---------------------------|
E|-------------------------------|---------------------------------------|---------------------------|


E|------------2--4-----2--4--5--2--4-2----2--|----------------2--4-----2--5--2-4-2--2--2------|
B|---------2--------5------------------4-----|-4--5--2--4--2--------5-------------------------|
G|-------------------------------------------|------------------------------------------------|
D|-------------------------------------------|------------------------------------------------|
A|-------------------------------------------|------------------------------------------------|
E|-------------------------------------------|------------------------------------------------|


E|-----5---5---5---2-------------------------------|--------------------------------------------|
B|---------------------5---2-----------------------|-------------------------------2------------|
G|-----------------------------5---4---2---4---2---|-1---------------2---4---2--3------4---4----|
D|-------------------------------------------------|-----4---2---4------------------------------|
A|-------------------------------------------------|--------------------------------------------|
E|-------------------------------------------------|--------------------------------------------|


E|----9--9--9--9--9-----9--9--9--9--9--9--9------|----9--9--9--7---5---7---5---2-------2-------2---|
B|-----------------------------------------------|---------------------------------5-------5-------|
G|-----------------------------------------------|-------------------------------------------------|
D|-----------------------------------------------|-------------------------------------------------|
A|-----------------------------------------------|-------------------------------------------------|
E|-----------------------------------------------|-------------------------------------------------|


E|-------------------------------------------------|-------------------------------------------------|
B|-5---2-------------------------------------------|-------------------------------------------------|
G|---------5---4---2---4---2---1---2-------1-------|---------------------1---2---4---1---2-------1---|
D|-------------------------------------4-------2---|-4---2---1---2---------------------------4-------|
A|-------------------------------------------------|-----------------4-------------------------------|
E|-------------------------------------------------|-------------------------------------------------|


E|-------------------------|-------------------------------------------|-----------------------------------|
B|-------------------------|--------------------------2-----2--2-------|---------------4-----2-----2--2----|
G|-------------------------|--------------1--2--4----------------------|---------2-----4-------------------|
D|-4----4--4--4---4--------|-4---4--4--4----------------------------2--|-4----4-----4----------------------|
A|-------------------------|-------------------------------------------|-----------------------------------|
E|-------------------------|-------------------------------------------|-----------------------------------|


E|---------------------------------------------|-------------------------4------2-------|
B|-------2-----------------2-------------------|-------2--------------2------5----------|
G|-------------4--2----------------------------|-------------4--------------------------|
D|----4-----4-----------4--------4--2--2---4---|----4-----4-----2-----------------------|
A|---------------------------------------------|----------------------------------------|
E|---------------------------------------------|----------------------------------------|


E|----2--1--0------------------------------------|-2-----------2--2------------2--2-------|
B|-------------5--2---2--2-----------------2-----|-------2--4-----2------2--4-------------|
G|--------------------------4--2--4--2--3--------|----------------------------------------|
D|-----------------------------------------------|-----------------------------------4----|
A|-----------------------------------------------|----------------------------------------|
E|-----------------------------------------------|----------------------------------------|


E|-------5--2-----2------5--2-----2------2--1--|---------------------------------2---------|
B|----2--------2------2--------2---------------|------4--4--2-----------2--4--2------5-----|
G|---------------------------------------------|---------------4--2--3------------------4--|
D|---------------------------------------------|-------------------------------------------|
A|---------------------------------------------|-------------------------------------------|
E|---------------------------------------------|-------------------------------------------|


E|-------------------------------------------------|------------------------------------------|
B|-------------------------------------------2--4--|-4-5-4---------2--4--4-5----4--5--4-------|
G|-4--2--4-----2--3--------------2-----2--3--------|------------------------------------------|
D|----------4--------4--2--3--4-----4--------------|------------------------------------------|
A|-------------------------------------------------|------------------------------------------|
E|-------------------------------------------------|------------------------------------------|


E|----------4-----------4-----------5-------|----------4-----2------------------------------|
B|----4--5--------4--5--------4--5----------|----4--5--------------5-----2-----------2------|
G|------------------------------------------|-------------------------------4--4--4---------|
D|------------------------------------------|-----------------------------------------------|
A|------------------------------------------|-----------------------------------------------|
E|------------------------------------------|-----------------------------------------------|


E|--------------5--------5--------5--------5-----|
B|-----5--6--7-----6--7-----6--7-----6--7-----6--|
G|-----------------------------------------------|
D|-----------------------------------------------|
A|-----------------------------------------------|
E|-----------------------------------------------|





Track 4: Tony Iommi

E|--------|--------|--------|--------|--------|--------|--------|--------|--------|
B|--------|--------|--------|--------|--------|--------|--------|--------|--------|
G|--------|--------|--------|--------|--------|--------|--------|--------|--------|
D|--------|--------|--------|--------|--------|--------|--------|--------|--------|
A|--------|--------|--------|--------|--------|--------|--------|--------|--------|
E|--------|--------|--------|--------|--------|--------|--------|--------|--------|


E|--------|--------|--------|--------|--------|--------|--------|--------|--------|
B|--------|--------|--------|--------|--------|--------|--------|--------|--------|
G|--------|--------|--------|--------|--------|--------|--------|--------|--------|
D|--------|--------|--------|--------|--------|--------|--------|--------|--------|
A|--------|--------|--------|--------|--------|--------|--------|--------|--------|
E|--------|--------|--------|--------|--------|--------|--------|--------|--------|


E|--------|--------|--------|--------|--------|--------|--------|--------|--------|
B|--------|--------|--------|--------|--------|--------|--------|--------|--------|
G|--------|--------|--------|--------|--------|--------|--------|--------|--------|
D|--------|--------|--------|--------|--------|--------|--------|--------|--------|
A|--------|--------|--------|--------|--------|--------|--------|--------|--------|
E|--------|--------|--------|--------|--------|--------|--------|--------|--------|


E|--------|--------|--------|--------|--------|--------|--------|--------|--------|
B|--------|--------|--------|--------|--------|--------|--------|--------|--------|
G|--------|--------|--------|--------|--------|--------|--------|--------|--------|
D|--------|--------|--------|--------|--------|--------|--------|--------|--------|
A|--------|--------|--------|--------|--------|--------|--------|--------|--------|
E|--------|--------|--------|--------|--------|--------|--------|--------|--------|


E|--------|--------|--------|--------|--------|--------|--------|--------|--------|
B|--------|--------|--------|--------|--------|--------|--------|--------|--------|
G|--------|--------|--------|--------|--------|--------|--------|--------|--------|
D|--------|--------|--------|--------|--------|--------|--------|--------|--------|
A|--------|--------|--------|--------|--------|--------|--------|--------|--------|
E|--------|--------|--------|--------|--------|--------|--------|--------|--------|


E|--------|--------|--------|--------|--------|--------|--------|--------|--------|
B|--------|--------|--------|--------|--------|--------|--------|--------|--------|
G|--------|--------|--------|--------|--------|--------|--------|--------|--------|
D|--------|--------|--------|--------|--------|--------|--------|--------|--------|
A|--------|--------|--------|--------|--------|--------|--------|--------|--------|
E|--------|--------|--------|--------|--------|--------|--------|--------|--------|


E|--------|--------|--------|--------|--------|--------|--------|--------|--------|
B|--------|--------|--------|--------|--------|--------|--------|--------|--------|
G|--------|--------|--------|--------|--------|--------|--------|--------|--------|
D|--------|--------|--------|--------|--------|--------|--------|--------|--------|
A|--------|--------|--------|--------|--------|--------|--------|--------|--------|
E|--------|--------|--------|--------|--------|--------|--------|--------|--------|


E|--------|--------|--------|--------|--------|--------|--------|--------|--------|
B|--------|--------|--------|--------|--------|--------|--------|--------|--------|
G|--------|--------|--------|--------|--------|--------|--------|--------|--------|
D|--------|--------|--------|--------|--------|--------|--------|--------|--------|
A|--------|--------|--------|--------|--------|--------|--------|--------|--------|
E|--------|--------|--------|--------|--------|--------|--------|--------|--------|


E|--------|--------|--------|--------|--------|--------|--------|--------|--------|
B|--------|--------|--------|--------|--------|--------|--------|--------|--------|
G|--------|--------|--------|--------|--------|--------|--------|--------|--------|
D|--------|--------|--------|--------|--------|--------|--------|--------|--------|
A|--------|--------|--------|--------|--------|--------|--------|--------|--------|
E|--------|--------|--------|--------|--------|--------|--------|--------|--------|


E|--------|--------|--------|--------|--------|--------|--------|--------|--------|
B|--------|--------|--------|--------|--------|--------|--------|--------|--------|
G|--------|--------|--------|--------|--------|--------|--------|--------|--------|
D|--------|--------|--------|--------|--------|--------|--------|--------|--------|
A|--------|--------|--------|--------|--------|--------|--------|--------|--------|
E|--------|--------|--------|--------|--------|--------|--------|--------|--------|


E|--------|--------|--------|--------|--------|--------|--------|--------|--------|
B|--------|--------|--------|--------|--------|--------|--------|--------|--------|
G|--------|--------|--------|--------|--------|--------|--------|--------|--------|
D|--------|--------|--------|--------|--------|--------|--------|--------|--------|
A|--------|--------|--------|--------|--------|--------|--------|--------|--------|
E|--------|--------|--------|--------|--------|--------|--------|--------|--------|


E|--------|--------|--------|--------|--------|--------|--------|--------|--------|
B|--------|--------|--------|--------|--------|--------|--------|--------|--------|
G|--------|--------|--------|--------|--------|--------|--------|--------|--------|
D|--------|--------|--------|--------|--------|--------|--------|--------|--------|
A|--------|--------|--------|--------|--------|--------|--------|--------|--------|
E|--------|--------|--------|--------|--------|--------|--------|--------|--------|


E|--------|--------|--------|--------|--------|--------|--------|--------|--------|
B|--------|--------|--------|--------|--------|--------|--------|--------|--------|
G|--------|--------|--------|--------|--------|--------|--------|--------|--------|
D|--------|--------|--------|--------|--------|--------|--------|--------|--------|
A|--------|--------|--------|--------|--------|--------|--------|--------|--------|
E|--------|--------|--------|--------|--------|--------|--------|--------|--------|


E|--------|--------|--------|--------|--------|--------|--------|--------|--------|
B|--------|--------|--------|--------|--------|--------|--------|--------|--------|
G|--------|--------|--------|--------|--------|--------|--------|--------|--------|
D|--------|--------|--------|--------|--------|--------|--------|--------|--------|
A|--------|--------|--------|--------|--------|--------|--------|--------|--------|
E|--------|--------|--------|--------|--------|--------|--------|--------|--------|


E|--------|--------|--------|--------|--------|--------|--------|--------|--------|
B|--------|--------|--------|--------|--------|--------|--------|--------|--------|
G|--------|--------|--------|--------|--------|--------|--------|--------|--------|
D|--------|--------|--------|--------|--------|--------|--------|--------|--------|
A|--------|--------|--------|--------|--------|--------|--------|--------|--------|
E|--------|--------|--------|--------|--------|--------|--------|--------|--------|


E|--------|--------|--------|--------|--------|--------|--------|--------|--------|
B|--------|--------|--------|--------|--------|--------|--------|--------|--------|
G|--------|--------|--------|--------|--------|--------|--------|--------|--------|
D|--------|--------|--------|--------|--------|--------|--------|--------|--------|
A|--------|--------|--------|--------|--------|--------|--------|--------|--------|
E|--------|--------|--------|--------|--------|--------|--------|--------|--------|


E|--------|--------|--------|--------|--------|--------|--------|--------|--------|
B|--------|--------|--------|--------|--------|--------|--------|--------|--------|
G|--------|--------|--------|--------|--------|--------|--------|--------|--------|
D|--------|--------|--------|--------|--------|--------|--------|--------|--------|
A|--------|--------|--------|--------|--------|--------|--------|--------|--------|
E|--------|--------|--------|--------|--------|--------|--------|--------|--------|


E|--------|--------|--------|--------|--------|--------|--------|--------|--------|
B|--------|--------|--------|--------|--------|--------|--------|--------|--------|
G|--------|--------|--------|--------|--------|--------|--------|--------|--------|
D|--------|--------|--------|--------|--------|--------|--------|--------|--------|
A|--------|--------|--------|--------|--------|--------|--------|--------|--------|
E|--------|--------|--------|--------|--------|--------|--------|--------|--------|


E|--------|--------|--------|--------|--------|--------|--------|--------|--------|
B|--------|--------|--------|--------|--------|--------|--------|--------|--------|
G|--------|--------|--------|--------|--------|--------|--------|--------|--------|
D|--------|--------|--------|--------|--------|--------|--------|--------|--------|
A|--------|--------|--------|--------|--------|--------|--------|--------|--------|
E|--------|--------|--------|--------|--------|--------|--------|--------|--------|


E|--------|--------|--------|--------|--------|--------|--------|--------|--------|
B|--------|--------|--------|--------|--------|--------|--------|--------|--------|
G|--------|--------|--------|--------|--------|--------|--------|--------|--------|
D|--------|--------|--------|--------|--------|--------|--------|--------|--------|
A|--------|--------|--------|--------|--------|--------|--------|--------|--------|
E|--------|--------|--------|--------|--------|--------|--------|--------|--------|


E|--------|--------|--------|--------|--------|--------|--------|--------|--------|
B|--------|--------|--------|--------|--------|--------|--------|--------|--------|
G|--------|--------|--------|--------|--------|--------|--------|--------|--------|
D|--------|--------|--------|--------|--------|--------|--------|--------|--------|
A|--------|--------|--------|--------|--------|--------|--------|--------|--------|
E|--------|--------|--------|--------|--------|--------|--------|--------|--------|


E|--------|--------|--------|--------|--------|--------|--------|--------|--------|
B|--------|--------|--------|--------|--------|--------|--------|--------|--------|
G|--------|--------|--------|--------|--------|--------|--------|--------|--------|
D|--------|--------|--------|--------|--------|--------|--------|--------|--------|
A|--------|--------|--------|--------|--------|--------|--------|--------|--------|
E|--------|--------|--------|--------|--------|--------|--------|--------|--------|


E|--------|--------|--------|--------|--------|-------------------------------------------|
B|--------|--------|--------|--------|--------|-----------2--------5--5-----4---------4---|
G|--------|--------|--------|--------|--------|--------------2-----------------4----------|
D|--------|--------|--------|--------|--------|-----------------2--------4--------4-------|
A|--------|--------|--------|--------|--------|-------------------------------------------|
E|--------|--------|--------|--------|--------|-1--2---2----------------------------------|


E|-------------------------------------------|-------------------------------------------|
B|-----------2--------5--5-----4---------4---|-----------2--------5--5-----4---------4---|
G|--------------2-----------------4----------|--------------2-----------------4----------|
D|-----------------2--------4--------4-------|-----------------2--------4--------4-------|
A|-------------------------------------------|-------------------------------------------|
E|-1--2---2----------------------------------|-1--2---2----------------------------------|


E|-------------------------------------------|-------------------------------------------|
B|-----------2--------5--5-----4---------4---|-----------2--------5--5-----4---------4---|
G|--------------2-----------------4----------|--------------2-----------------4----------|
D|-----------------2--------4--------4-------|-----------------2--------4--------4-------|
A|-------------------------------------------|-------------------------------------------|
E|-1--2---2----------------------------------|-1--2---2----------------------------------|


E|-----------------------------|-----------------------------|-----------------------------|
B|-----------------------------|-----------------------------|-----------------------------|
G|-----------------------------|-----------------------------|-----------------------------|
D|-----------------------------|-----------------------------|-----------------------------|
A|--------------4-----2--2-----|--------------4-----2--2-----|--------------4-----2--2-----|
E|-1--2---2--2-----------------|-1--2---2--2-----------------|-1--2---2--2-----------------|


E|-----------------------------|-----------------------------|-----------------------------|
B|-----------------------------|-----------------------------|-----------------------------|
G|-----------------------------|-----------------------------|-----------------------------|
D|-----------------------------|-----------------------------|-----------------------------|
A|--------------4-----2--2-----|--------------4-----2--2-----|--------------4-----2--2-----|
E|-1--2---2--2-----------------|-1--2---2--2-----------------|-1--2---2--2-----------------|


E|-----------------------------|-----------------------------|-----------------------------|
B|-----------------------------|-----------------------------|-----------------------------|
G|-----------------------------|-----------------------------|-----------------------------|
D|-----------------------------|-----------------------------|-----------------------------|
A|--------------4-----2--2-----|--------------4-----2--2-----|--------------4-----2--2-----|
E|-1--2---2--2-----------------|-1--2---2--2-----------------|-1--2---2--2-----------------|


E|-----------------------------|-----------------------------|-----------------------------|
B|-----------------------------|-----------------------------|-----------------------------|
G|-----------------------------|-----------------------------|-----------------------------|
D|-----------------------------|-----------------------------|-----------------------------|
A|--------------4-----2--2-----|--------------4-----2--2-----|--------------4-----2--2-----|
E|-1--2---2--2-----------------|-1--2---2--2-----------------|-1--2---2--2-----------------|


E|-----------------------------|-----------------------------|-----------------------------|
B|-----------------------------|-----------------------------|-----------------------------|
G|-----------------------------|-----------------------------|-----------------------------|
D|-----------------------------|-----------------------------|-----------------------------|
A|--------------4-----2--2-----|--------------4-----2--2-----|--------------4-----2--2-----|
E|-1--2---2--2-----------------|-1--2---2--2-----------------|-1--2---2--2-----------------|


E|-----------------------------|-----------------------------|-----------------------------|
B|-----------------------------|-----------------------------|-----------------------------|
G|-----------------------------|-----------------------------|-----------------------------|
D|-----------------------------|-----------------------------|-----------------------------|
A|--------------4-----2--2-----|--------------4-----2--2-----|--------------4-----2--2-----|
E|-1--2---2--2-----------------|-1--2---2--2-----------------|-1--2---2--2-----------------|


E|-----------------------------|-----------------------------|-----------------------------|
B|-----------------------------|-----------------------------|-----------------------------|
G|-----------------------------|-----------------------------|-----------------------------|
D|-----------------------------|-----------------------------|-----------------------------|
A|--------------4-----2--2-----|--------------4-----2--2-----|--------------4-----2--2-----|
E|-1--2---2--2-----------------|-1--2---2--2-----------------|-1--2---2--2-----------------|


E|-----------------------------|-----------------------------|-----------------------------|
B|-----------------------------|-----------------------------|-----------------------------|
G|-----------------------------|-----------------------------|-----------------------------|
D|-----------------------------|-----------------------------|-----------------------------|
A|--------------4-----2--2-----|--------------4-----2--2-----|--------------4-----2--2-----|
E|-1--2---2--2-----------------|-1--2---2--2-----------------|-1--2---2--2-----------------|


E|-----------------------------|-----------------------------|-----------------------------|
B|-----------------------------|-----------------------------|-----------------------------|
G|-----------------------------|-----------------------------|-----------------------------|
D|-----------------------------|-----------------------------|-----------------------------|
A|--------------4-----2--2-----|--------------4-----2--2-----|--------------4-----2--2-----|
E|-1--2---2--2-----------------|-1--2---2--2-----------------|-1--2---2--2-----------------|


E|-----------------------------|-----------------------------|-----------------------------|
B|-----------------------------|-----------------------------|-----------------------------|
G|-----------------------------|-----------------------------|-----------------------------|
D|-----------------------------|-----------------------------|-----------------------------|
A|--------------4-----2--2-----|--------------4-----2--2-----|--------------4-----2--2-----|
E|-1--2---2--2-----------------|-1--2---2--2-----------------|-1--2---2--2-----------------|


E|-----------------------------|-----------------------------|-----------------------------|
B|-----------------------------|-----------------------------|-----------------------------|
G|-----------------------------|-----------------------------|-----------------------------|
D|-----------------------------|-----------------------------|-----------------------------|
A|--------------4-----2--2-----|--------------4-----2--2-----|--------------4-----2--2-----|
E|-1--2---2--2-----------------|-1--2---2--2-----------------|-1--2---2--2-----------------|


E|-----------------------------|-----------------------------|-----------------------------|
B|-----------------------------|-----------------------------|-----------------------------|
G|-----------------------------|-----------------------------|-----------------------------|
D|-----------------------------|-----------------------------|-----------------------------|
A|--------------4-----2--2-----|--------------4-----2--2-----|--------------4-----2--2-----|
E|-1--2---2--2-----------------|-1--2---2--2-----------------|-1--2---2--2-----------------|


E|-----------------------------|-----------------------------|
B|-----------------------------|-----------------------------|
G|-----------------------------|-----------------------------|
D|-----------------------------|-----------------------------|
A|--------------4-----2--2-----|--------------4-----2--2-----|
E|-1--2---2--2-----------------|-1--2---2--2-----------------|





Track 5: Tony Iommi

E|--------|--------|--------|--------|--------|--------|--------|--------|--------|
B|--------|--------|--------|--------|--------|--------|--------|--------|--------|
G|--------|--------|--------|--------|--------|--------|--------|--------|--------|
D|--------|--------|--------|--------|--------|--------|--------|--------|--------|
A|--------|--------|--------|--------|--------|--------|--------|--------|--------|
E|--------|--------|--------|--------|--------|--------|--------|--------|--------|


E|--------|--------|--------|--------|--------|--------|--------|--------|--------|
B|--------|--------|--------|--------|--------|--------|--------|--------|--------|
G|--------|--------|--------|--------|--------|--------|--------|--------|--------|
D|--------|--------|--------|--------|--------|--------|--------|--------|--------|
A|--------|--------|--------|--------|--------|--------|--------|--------|--------|
E|--------|--------|--------|--------|--------|--------|--------|--------|--------|


E|--------|--------|--------|--------|--------|--------|--------|--------|--------|
B|--------|--------|--------|--------|--------|--------|--------|--------|--------|
G|--------|--------|--------|--------|--------|--------|--------|--------|--------|
D|--------|--------|--------|--------|--------|--------|--------|--------|--------|
A|--------|--------|--------|--------|--------|--------|--------|--------|--------|
E|--------|--------|--------|--------|--------|--------|--------|--------|--------|


E|--------|--------|--------|--------|--------|--------|--------|--------|--------|
B|--------|--------|--------|--------|--------|--------|--------|--------|--------|
G|--------|--------|--------|--------|--------|--------|--------|--------|--------|
D|--------|--------|--------|--------|--------|--------|--------|--------|--------|
A|--------|--------|--------|--------|--------|--------|--------|--------|--------|
E|--------|--------|--------|--------|--------|--------|--------|--------|--------|


E|--------|--------|--------|--------|--------|--------|--------|--------|--------|
B|--------|--------|--------|--------|--------|--------|--------|--------|--------|
G|--------|--------|--------|--------|--------|--------|--------|--------|--------|
D|--------|--------|--------|--------|--------|--------|--------|--------|--------|
A|--------|--------|--------|--------|--------|--------|--------|--------|--------|
E|--------|--------|--------|--------|--------|--------|--------|--------|--------|


E|--------|--------|--------|--------|--------|--------|--------|--------|--------|
B|--------|--------|--------|--------|--------|--------|--------|--------|--------|
G|--------|--------|--------|--------|--------|--------|--------|--------|--------|
D|--------|--------|--------|--------|--------|--------|--------|--------|--------|
A|--------|--------|--------|--------|--------|--------|--------|--------|--------|
E|--------|--------|--------|--------|--------|--------|--------|--------|--------|


E|--------|--------|--------|--------|--------|--------|--------|--------|--------|
B|--------|--------|--------|--------|--------|--------|--------|--------|--------|
G|--------|--------|--------|--------|--------|--------|--------|--------|--------|
D|--------|--------|--------|--------|--------|--------|--------|--------|--------|
A|--------|--------|--------|--------|--------|--------|--------|--------|--------|
E|--------|--------|--------|--------|--------|--------|--------|--------|--------|


E|--------|--------|--------|--------|--------|--------|--------|--------|--------|
B|--------|--------|--------|--------|--------|--------|--------|--------|--------|
G|--------|--------|--------|--------|--------|--------|--------|--------|--------|
D|--------|--------|--------|--------|--------|--------|--------|--------|--------|
A|--------|--------|--------|--------|--------|--------|--------|--------|--------|
E|--------|--------|--------|--------|--------|--------|--------|--------|--------|


E|--------|--------|--------|--------|--------|--------|--------|--------|--------|
B|--------|--------|--------|--------|--------|--------|--------|--------|--------|
G|--------|--------|--------|--------|--------|--------|--------|--------|--------|
D|--------|--------|--------|--------|--------|--------|--------|--------|--------|
A|--------|--------|--------|--------|--------|--------|--------|--------|--------|
E|--------|--------|--------|--------|--------|--------|--------|--------|--------|


E|--------|--------|--------|--------|--------|--------|--------|--------|--------|
B|--------|--------|--------|--------|--------|--------|--------|--------|--------|
G|--------|--------|--------|--------|--------|--------|--------|--------|--------|
D|--------|--------|--------|--------|--------|--------|--------|--------|--------|
A|--------|--------|--------|--------|--------|--------|--------|--------|--------|
E|--------|--------|--------|--------|--------|--------|--------|--------|--------|


E|--------|--------|--------|--------|--------|--------|--------|--------|--------|
B|--------|--------|--------|--------|--------|--------|--------|--------|--------|
G|--------|--------|--------|--------|--------|--------|--------|--------|--------|
D|--------|--------|--------|--------|--------|--------|--------|--------|--------|
A|--------|--------|--------|--------|--------|--------|--------|--------|--------|
E|--------|--------|--------|--------|--------|--------|--------|--------|--------|


E|--------|--------|--------|--------|--------|--------|--------|--------|--------|
B|--------|--------|--------|--------|--------|--------|--------|--------|--------|
G|--------|--------|--------|--------|--------|--------|--------|--------|--------|
D|--------|--------|--------|--------|--------|--------|--------|--------|--------|
A|--------|--------|--------|--------|--------|--------|--------|--------|--------|
E|--------|--------|--------|--------|--------|--------|--------|--------|--------|


E|--------|--------|--------|--------|--------|--------|--------|--------|--------|
B|--------|--------|--------|--------|--------|--------|--------|--------|--------|
G|--------|--------|--------|--------|--------|--------|--------|--------|--------|
D|--------|--------|--------|--------|--------|--------|--------|--------|--------|
A|--------|--------|--------|--------|--------|--------|--------|--------|--------|
E|--------|--------|--------|--------|--------|--------|--------|--------|--------|


E|--------|--------|--------|--------|--------|--------|--------|--------|--------|
B|--------|--------|--------|--------|--------|--------|--------|--------|--------|
G|--------|--------|--------|--------|--------|--------|--------|--------|--------|
D|--------|--------|--------|--------|--------|--------|--------|--------|--------|
A|--------|--------|--------|--------|--------|--------|--------|--------|--------|
E|--------|--------|--------|--------|--------|--------|--------|--------|--------|


E|--------|--------|--------|--------|--------|--------|--------|--------|--------|
B|--------|--------|--------|--------|--------|--------|--------|--------|--------|
G|--------|--------|--------|--------|--------|--------|--------|--------|--------|
D|--------|--------|--------|--------|--------|--------|--------|--------|--------|
A|--------|--------|--------|--------|--------|--------|--------|--------|--------|
E|--------|--------|--------|--------|--------|--------|--------|--------|--------|


E|--------|--------|--------|--------|--------|--------|--------|--------|--------|
B|--------|--------|--------|--------|--------|--------|--------|--------|--------|
G|--------|--------|--------|--------|--------|--------|--------|--------|--------|
D|--------|--------|--------|--------|--------|--------|--------|--------|--------|
A|--------|--------|--------|--------|--------|--------|--------|--------|--------|
E|--------|--------|--------|--------|--------|--------|--------|--------|--------|


E|--------|--------|--------|--------|--------|--------|--------|--------|--------|
B|--------|--------|--------|--------|--------|--------|--------|--------|--------|
G|--------|--------|--------|--------|--------|--------|--------|--------|--------|
D|--------|--------|--------|--------|--------|--------|--------|--------|--------|
A|--------|--------|--------|--------|--------|--------|--------|--------|--------|
E|--------|--------|--------|--------|--------|--------|--------|--------|--------|


E|--------|--------|--------|--------|--------|--------|--------|--------|--------|
B|--------|--------|--------|--------|--------|--------|--------|--------|--------|
G|--------|--------|--------|--------|--------|--------|--------|--------|--------|
D|--------|--------|--------|--------|--------|--------|--------|--------|--------|
A|--------|--------|--------|--------|--------|--------|--------|--------|--------|
E|--------|--------|--------|--------|--------|--------|--------|--------|--------|


E|--------|--------|--------|--------|--------|--------|--------|--------|--------|
B|--------|--------|--------|--------|--------|--------|--------|--------|--------|
G|--------|--------|--------|--------|--------|--------|--------|--------|--------|
D|--------|--------|--------|--------|--------|--------|--------|--------|--------|
A|--------|--------|--------|--------|--------|--------|--------|--------|--------|
E|--------|--------|--------|--------|--------|--------|--------|--------|--------|


E|--------|--------|--------|--------|--------|--------|--------|--------|--------|
B|--------|--------|--------|--------|--------|--------|--------|--------|--------|
G|--------|--------|--------|--------|--------|--------|--------|--------|--------|
D|--------|--------|--------|--------|--------|--------|--------|--------|--------|
A|--------|--------|--------|--------|--------|--------|--------|--------|--------|
E|--------|--------|--------|--------|--------|--------|--------|--------|--------|


E|--------|--------|--------|--------|--------|--------|--------|--------|--------|
B|--------|--------|--------|--------|--------|--------|--------|--------|--------|
G|--------|--------|--------|--------|--------|--------|--------|--------|--------|
D|--------|--------|--------|--------|--------|--------|--------|--------|--------|
A|--------|--------|--------|--------|--------|--------|--------|--------|--------|
E|--------|--------|--------|--------|--------|--------|--------|--------|--------|


E|--------|--------|--------|--------|--------|--------|--------|--------|--------|
B|--------|--------|--------|--------|--------|--------|--------|--------|--------|
G|--------|--------|--------|--------|--------|--------|--------|--------|--------|
D|--------|--------|--------|--------|--------|--------|--------|--------|--------|
A|--------|--------|--------|--------|--------|--------|--------|--------|--------|
E|--------|--------|--------|--------|--------|--------|--------|--------|--------|


E|--------|--------|--------|--------|--------|--------|--------|--------|--------|
B|--------|--------|--------|--------|--------|--------|--------|--------|--------|
G|--------|--------|--------|--------|--------|--------|--------|--------|--------|
D|--------|--------|--------|--------|--------|--------|--------|--------|--------|
A|--------|--------|--------|--------|--------|--------|--------|--------|--------|
E|--------|--------|--------|--------|--------|--------|--------|--------|--------|


E|--------|-------------------------------------------|-------------------------------------------|
B|--------|-----------2--------5--5-----4---------4---|-----------2--------5--5-----4---------4---|
G|--------|--------------2-----------------4----------|--------------2-----------------4----------|
D|--------|-----------------2--------4--------4-------|-----------------2--------4--------4-------|
A|--------|-------------------------------------------|-------------------------------------------|
E|--------|-1--2---2----------------------------------|-1--2---2----------------------------------|


E|-------------------------------------------|-------------------------------------------|
B|-----------2--------5--5-----4---------4---|-----------2--------5--5-----4---------4---|
G|--------------2-----------------4----------|--------------2-----------------4----------|
D|-----------------2--------4--------4-------|-----------------2--------4--------4-------|
A|-------------------------------------------|-------------------------------------------|
E|-1--2---2----------------------------------|-1--2---2----------------------------------|


E|-------------------------------------------|-------------------------------------------|
B|-----------2--------5--5-----4---------4---|-----------2--------5--5-----4---------4---|
G|--------------2-----------------4----------|--------------2-----------------4----------|
D|-----------------2--------4--------4-------|-----------------2--------4--------4-------|
A|-------------------------------------------|-------------------------------------------|
E|-1--2---2----------------------------------|-1--2---2----------------------------------|


E|-------------------------------------------|-------------------------------------------|
B|-----------2--------5--5-----4---------4---|-----------2--------5--5-----4---------4---|
G|--------------2-----------------4----------|--------------2-----------------4----------|
D|-----------------2--------4--------4-------|-----------------2--------4--------4-------|
A|-------------------------------------------|-------------------------------------------|
E|-1--2---2----------------------------------|-1--2---2----------------------------------|


E|-------------------------------------------|-------------------------------------------|
B|-----------2--------5--5-----4---------4---|-----------2--------5--5-----4---------4---|
G|--------------2-----------------4----------|--------------2-----------------4----------|
D|-----------------2--------4--------4-------|-----------------2--------4--------4-------|
A|-------------------------------------------|-------------------------------------------|
E|-1--2---2----------------------------------|-1--2---2----------------------------------|


E|-------------------------------------------|-------------------------------------------|
B|-----------2--------5--5-----4---------4---|-----------2--------5--5-----4---------4---|
G|--------------2-----------------4----------|--------------2-----------------4----------|
D|-----------------2--------4--------4-------|-----------------2--------4--------4-------|
A|-------------------------------------------|-------------------------------------------|
E|-1--2---2----------------------------------|-1--2---2----------------------------------|


E|-------------------------------------------|-------------------------------------------|
B|-----------2--------5--5-----4---------4---|-----------2--------5--5-----4---------4---|
G|--------------2-----------------4----------|--------------2-----------------4----------|
D|-----------------2--------4--------4-------|-----------------2--------4--------4-------|
A|-------------------------------------------|-------------------------------------------|
E|-1--2---2----------------------------------|-1--2---2----------------------------------|


E|-------------------------------------------|-------------------------------------------|
B|-----------2--------5--5-----4---------4---|-----------2--------5--5-----4---------4---|
G|--------------2-----------------4----------|--------------2-----------------4----------|
D|-----------------2--------4--------4-------|-----------------2--------4--------4-------|
A|-------------------------------------------|-------------------------------------------|
E|-1--2---2----------------------------------|-1--2---2----------------------------------|


E|-------------------------------------------|-------------------------------------------|
B|-----------2--------5--5-----4---------4---|-----------2--------5--5-----4---------4---|
G|--------------2-----------------4----------|--------------2-----------------4----------|
D|-----------------2--------4--------4-------|-----------------2--------4--------4-------|
A|-------------------------------------------|-------------------------------------------|
E|-1--2---2----------------------------------|-1--2---2----------------------------------|


E|-------------------------------------------|-------------------------------------------|
B|-----------2--------5--5-----4---------4---|-----------2--------5--5-----4---------4---|
G|--------------2-----------------4----------|--------------2-----------------4----------|
D|-----------------2--------4--------4-------|-----------------2--------4--------4-------|
A|-------------------------------------------|-------------------------------------------|
E|-1--2---2----------------------------------|-1--2---2----------------------------------|


E|-------------------------------------------|-------------------------------------------|
B|-----------2--------5--5-----4---------4---|-----------2--------5--5-----4---------4---|
G|--------------2-----------------4----------|--------------2-----------------4----------|
D|-----------------2--------4--------4-------|-----------------2--------4--------4-------|
A|-------------------------------------------|-------------------------------------------|
E|-1--2---2----------------------------------|-1--2---2----------------------------------|


E|-------------------------------------------|-------------------------------------------|
B|-----------2--------5--5-----4---------4---|-----------2--------5--5-----4---------4---|
G|--------------2-----------------4----------|--------------2-----------------4----------|
D|-----------------2--------4--------4-------|-----------------2--------4--------4-------|
A|-------------------------------------------|-------------------------------------------|
E|-1--2---2----------------------------------|-1--2---2----------------------------------|


E|-------------------------------------------|-------------------------------------------|
B|-----------2--------5--5-----4---------4---|-----------2--------5--5-----4---------4---|
G|--------------2-----------------4----------|--------------2-----------------4----------|
D|-----------------2--------4--------4-------|-----------------2--------4--------4-------|
A|-------------------------------------------|-------------------------------------------|
E|-1--2---2----------------------------------|-1--2---2----------------------------------|


E|-------------------------------------------|-------------------------------------------|
B|-----------2--------5--5-----4---------4---|-----------2--------5--5-----4---------4---|
G|--------------2-----------------4----------|--------------2-----------------4----------|
D|-----------------2--------4--------4-------|-----------------2--------4--------4-------|
A|-------------------------------------------|-------------------------------------------|
E|-1--2---2----------------------------------|-1--2---2----------------------------------|


E|-------------------------------------------|-------------------------------------------|
B|-----------2--------5--5-----4---------4---|-----------2--------5--5-----4---------4---|
G|--------------2-----------------4----------|--------------2-----------------4----------|
D|-----------------2--------4--------4-------|-----------------2--------4--------4-------|
A|-------------------------------------------|-------------------------------------------|
E|-1--2---2----------------------------------|-1--2---2----------------------------------|


E|-------------------------------------------|-------------------------------------------|
B|-----------2--------5--5-----4---------4---|-----------2--------5--5-----4---------4---|
G|--------------2-----------------4----------|--------------2-----------------4----------|
D|-----------------2--------4--------4-------|-----------------2--------4--------4-------|
A|-------------------------------------------|-------------------------------------------|
E|-1--2---2----------------------------------|-1--2---2----------------------------------|


E|-------------------------------------------|-------------------------------------------|
B|-----------2--------5--5-----4---------4---|-----------2--------5--5-----4---------4---|
G|--------------2-----------------4----------|--------------2-----------------4----------|
D|-----------------2--------4--------4-------|-----------------2--------4--------4-------|
A|-------------------------------------------|-------------------------------------------|
E|-1--2---2----------------------------------|-1--2---2----------------------------------|


E|-------------------------------------------|-------------------------------------------|
B|-----------2--------5--5-----4---------4---|-----------2--------5--5-----4---------4---|
G|--------------2-----------------4----------|--------------2-----------------4----------|
D|-----------------2--------4--------4-------|-----------------2--------4--------4-------|
A|-------------------------------------------|-------------------------------------------|
E|-1--2---2----------------------------------|-1--2---2----------------------------------|


E|-------------------------------------------|-------------------------------------------|
B|-----------2--------5--5-----4---------4---|-----------2--------5--5-----4---------4---|
G|--------------2-----------------4----------|--------------2-----------------4----------|
D|-----------------2--------4--------4-------|-----------------2--------4--------4-------|
A|-------------------------------------------|-------------------------------------------|
E|-1--2---2----------------------------------|-1--2---2----------------------------------|





Track 6: Untitled

G|--------|--------|--------|--------|--------|--------|--------|--------|--------|
D|--------|--------|--------|--------|--------|--------|--------|--------|--------|
A|--------|--------|--------|--------|--------|--------|--------|--------|--------|
E|--------|--------|--------|--------|--------|--------|--------|--------|--------|


G|--------|--------|--------|--------|--------|--------|--------|--------|--------|
D|--------|--------|--------|--------|--------|--------|--------|--------|--------|
A|--------|--------|--------|--------|--------|--------|--------|--------|--------|
E|--------|--------|--------|--------|--------|--------|--------|--------|--------|


G|--------|--------|--------|--------|--------|--------|--------|--------|--------|
D|--------|--------|--------|--------|--------|--------|--------|--------|--------|
A|--------|--------|--------|--------|--------|--------|--------|--------|--------|
E|--------|--------|--------|--------|--------|--------|--------|--------|--------|


G|--------|--------|--------|--------|--------|--------|--------|--------|--------|
D|--------|--------|--------|--------|--------|--------|--------|--------|--------|
A|--------|--------|--------|--------|--------|--------|--------|--------|--------|
E|--------|--------|--------|--------|--------|--------|--------|--------|--------|


G|--------|--------|--------|--------|--------|--------|--------|--------|--------|
D|--------|--------|--------|--------|--------|--------|--------|--------|--------|
A|--------|--------|--------|--------|--------|--------|--------|--------|--------|
E|--------|--------|--------|--------|--------|--------|--------|--------|--------|


G|--------|--------|--------|--------|--------|--------|--------|--------|--------|
D|--------|--------|--------|--------|--------|--------|--------|--------|--------|
A|--------|--------|--------|--------|--------|--------|--------|--------|--------|
E|--------|--------|--------|--------|--------|--------|--------|--------|--------|


G|--------|--------|--------|--------|--------|--------|--------|--------|--------|
D|--------|--------|--------|--------|--------|--------|--------|--------|--------|
A|--------|--------|--------|--------|--------|--------|--------|--------|--------|
E|--------|--------|--------|--------|--------|--------|--------|--------|--------|


G|--------|--------|--------|--------|--------|--------|--------|--------|--------|
D|--------|--------|--------|--------|--------|--------|--------|--------|--------|
A|--------|--------|--------|--------|--------|--------|--------|--------|--------|
E|--------|--------|--------|--------|--------|--------|--------|--------|--------|


G|--------|--------|--------|--------|--------|--------|--------|--------|--------|
D|--------|--------|--------|--------|--------|--------|--------|--------|--------|
A|--------|--------|--------|--------|--------|--------|--------|--------|--------|
E|--------|--------|--------|--------|--------|--------|--------|--------|--------|


G|--------|--------|--------|--------|--------|--------|--------|--------|--------|
D|--------|--------|--------|--------|--------|--------|--------|--------|--------|
A|--------|--------|--------|--------|--------|--------|--------|--------|--------|
E|--------|--------|--------|--------|--------|--------|--------|--------|--------|


G|--------|--------|--------|--------|--------|--------|--------|--------|--------|
D|--------|--------|--------|--------|--------|--------|--------|--------|--------|
A|--------|--------|--------|--------|--------|--------|--------|--------|--------|
E|--------|--------|--------|--------|--------|--------|--------|--------|--------|


G|--------|--------|--------|--------|--------|--------|--------|--------|--------|
D|--------|--------|--------|--------|--------|--------|--------|--------|--------|
A|--------|--------|--------|--------|--------|--------|--------|--------|--------|
E|--------|--------|--------|--------|--------|--------|--------|--------|--------|


G|--------|--------|--------|--------|--------|--------|--------|--------|--------|
D|--------|--------|--------|--------|--------|--------|--------|--------|--------|
A|--------|--------|--------|--------|--------|--------|--------|--------|--------|
E|--------|--------|--------|--------|--------|--------|--------|--------|--------|


G|--------|--------|--------|--------|--------|--------|--------|--------|--------|
D|--------|--------|--------|--------|--------|--------|--------|--------|--------|
A|--------|--------|--------|--------|--------|--------|--------|--------|--------|
E|--------|--------|--------|--------|--------|--------|--------|--------|--------|


G|--------|--------|--------|--------|--------|--------|--------|--------|--------|
D|--------|--------|--------|--------|--------|--------|--------|--------|--------|
A|--------|--------|--------|--------|--------|--------|--------|--------|--------|
E|--------|--------|--------|--------|--------|--------|--------|--------|--------|


G|--------|--------|--------|--------|--------|--------|--------|--------|--------|
D|--------|--------|--------|--------|--------|--------|--------|--------|--------|
A|--------|--------|--------|--------|--------|--------|--------|--------|--------|
E|--------|--------|--------|--------|--------|--------|--------|--------|--------|


G|--------|--------|--------|--------|--------|--------|--------|--------|--------|
D|--------|--------|--------|--------|--------|--------|--------|--------|--------|
A|--------|--------|--------|--------|--------|--------|--------|--------|--------|
E|--------|--------|--------|--------|--------|--------|--------|--------|--------|


G|--------|--------|--------|--------|--------|--------|--------|--------|--------|
D|--------|--------|--------|--------|--------|--------|--------|--------|--------|
A|--------|--------|--------|--------|--------|--------|--------|--------|--------|
E|--------|--------|--------|--------|--------|--------|--------|--------|--------|


G|--------|--------|--------|--------|--------|--------|--------|--------|--------|
D|--------|--------|--------|--------|--------|--------|--------|--------|--------|
A|--------|--------|--------|--------|--------|--------|--------|--------|--------|
E|--------|--------|--------|--------|--------|--------|--------|--------|--------|


G|--------|--------|--------|--------|--------|--------|--------|--------|--------|
D|--------|--------|--------|--------|--------|--------|--------|--------|--------|
A|--------|--------|--------|--------|--------|--------|--------|--------|--------|
E|--------|--------|--------|--------|--------|--------|--------|--------|--------|


G|--------|--------|--------|--------|--------|--------|--------|--------|--------|
D|--------|--------|--------|--------|--------|--------|--------|--------|--------|
A|--------|--------|--------|--------|--------|--------|--------|--------|--------|
E|--------|--------|--------|--------|--------|--------|--------|--------|--------|


G|--------|--------|--------|--------|--------|--------|--------|--------|--------|
D|--------|--------|--------|--------|--------|--------|--------|--------|--------|
A|--------|--------|--------|--------|--------|--------|--------|--------|--------|
E|--------|--------|--------|--------|--------|--------|--------|--------|--------|


G|--------|--------|--------|--------|--------|--------|--------|--------|--------|
D|--------|--------|--------|--------|--------|--------|--------|--------|--------|
A|--------|--------|--------|--------|--------|--------|--------|--------|--------|
E|--------|--------|--------|--------|--------|--------|--------|--------|--------|


G|--------|--------|--------|--------|--------|--------|--------|--------|--------|
D|--------|--------|--------|--------|--------|--------|--------|--------|--------|
A|--------|--------|--------|--------|--------|--------|--------|--------|--------|
E|--------|--------|--------|--------|--------|--------|--------|--------|--------|


G|--------|--------|--------|--------|--------|--------|--------|--------|--------|
D|--------|--------|--------|--------|--------|--------|--------|--------|--------|
A|--------|--------|--------|--------|--------|--------|--------|--------|--------|
E|--------|--------|--------|--------|--------|--------|--------|--------|--------|


G|--------|--------|--------|--------|--------|--------|--------|--------|--------|
D|--------|--------|--------|--------|--------|--------|--------|--------|--------|
A|--------|--------|--------|--------|--------|--------|--------|--------|--------|
E|--------|--------|--------|--------|--------|--------|--------|--------|--------|


G|--------|--------|--------|--------|--------|--------|--------|--------|--------|
D|--------|--------|--------|--------|--------|--------|--------|--------|--------|
A|--------|--------|--------|--------|--------|--------|--------|--------|--------|
E|--------|--------|--------|--------|--------|--------|--------|--------|--------|


G|--------|--------|--------|
D|--------|--------|--------|
A|--------|--------|--------|
E|--------|--------|--------|