Menu:

 

Search:

 

biohazard - loss:

 



Title: Loss
Artist: 
Album: Urban Discipline
Author: Evan Seinfeld, Billy Graziadei, Danny Schuler, Bobby Hambel


Track 1: Gtr. 1 (Acoustic)

D|----------------0---|-0-----------------------------------------------|-------------------------------------------------|
A|----------------0---|-0-----------------------------------------------|-------------------------------------------------|
F|----------------0---|-0-----------0--------2--------2-----------0-----|-------------0--------2--------2-----------2--0--|
C|----------------4---|-4-----4--------4--------4--------4-----4-----4--|-4-----4--------4--------4--------4-----4--------|
G|----------------2---|-2--2-----2--2-----0-----0--0--------5-----------|----2-----2--2-----0-----0--0--------5-----------|
D|--------------------|-0-----------------------------------------------|-0-----------------------------------------------|


D|-------------------------------------------------|-------------------------------------------------|
A|-------------------------------------------------|-------------------------------------------------|
F|-0-----------0--------2--------2-----------0-----|-0--------0--------------------------0-----------|
C|-------4--------4--------4--------4-----4--------|----0--------4--------4--------0--------0--------|
G|----2-----2--2-----0-----0--0--------5--------5--|-------2--------2-----------1-----1--------1-----|
D|-0-----------------------------------------------|-3-----------------3-----2--------------------3--|


D|-------------------------------------------------|-------------------------------------------------|
A|-------------------------------------------------|-------------------------------------------------|
F|-------------0--------2--------2-----------0-----|-------------0--------2--------2-----------2--0--|
C|-------4--------4--------4--------4-----4-----4--|-4-----4--------4--------4--------4-----4--------|
G|----2-----2--2-----0-----0--0--------5-----------|----2-----2--2-----0-----0--0--------5-----------|
D|-0-----------------------------------------------|-0-----------------------------------------------|


D|-------------------------------------------------|-------------------------------------------------|
A|-------------------------------------------------|-------------------------------------------------|
F|-0-----------0--------2--------2-----------0-----|-0--------0--------------------------0-----------|
C|-------4--------4--------4--------4-----4--------|----0--------4--------4--------0--------0--------|
G|----2-----2--2-----0-----0--0--------5--------5--|-------2--------2-----------1-----1--------1-----|
D|-0-----------------------------------------------|-3-----------------3-----2--------------------3--|


D|-------------------------------0-----------------|-------------------------------------0-----------|
A|----------------------0-----------0-----0--------|-------------0--------------0-----------0--------|
F|-------------0-----------0-----------0-----0-----|-0-----0--------0--------------0-----------0-----|
C|-------4--------4-----------4-----------------0--|----2-----2--------2--2--4--------4-----------0--|
G|----2-----2--------2-----------------------------|-3--------------------3--5-----------------------|
D|-0-----------------------0-----------------------|-------------------------------------------------|


D|-----------------------------0-----------------|-------------------------------------0-----------|
A|--------------------0-----------0-----0--------|-------------0--------------0-----------0--0---0-|
F|-0---------0-----------0-----------0-----0-----|-0-----0--------0--------------0-----------0---0-|
C|--------4-----4-----------4-----------------0--|----2-----2--------2--2--4--------4--------4---2-|
G|-----2-----------2-----------------------------|-3--------------------3--5-----------------5---3-|
D|-0---------------------0-----------------------|-------------------------------------------------|


D|-0----0-----------------------------------|-------------------------------------------------|
A|-0-------0-----------0--------------------|-------------------------------------------------|
F|-0----------0-----0-----0-----------------|-------------0--------2--------2-----------0-----|
C|-2-------------------------0--------------|-------4--------4--------4--------4-----4-----4--|
G|-3-------------3--3--------------2--------|----2-----2--2-----0-----0--0--------5-----------|
D|------------------------------3-----2--3--|-0-----------------------------------------------|


D|-------------------------------------------------|-------------------------------------------------|
A|-------------------------------------------------|-------------------------------------------------|
F|-------------0--------2--------2-----------2--0--|-0-----------0--------2--------2-----------0-----|
C|-4-----4--------4--------4--------4-----4--------|-------4--------4--------4--------4-----4--------|
G|----2-----2--2-----0-----0--0--------5-----------|----2-----2--2-----0-----0--0--------5--------5--|
D|-0-----------------------------------------------|-0-----------------------------------------------|


D|-------------------------------------------------|-------------------------------0-----------------|
A|-------------------------------------------------|----------------------0-----------0-----0--------|
F|-0--------0--------------------------0-----------|-------------0-----------0-----------0-----0-----|
C|----0--------4--------4--------0--------0--------|-------4--------4-----------4-----------------4--|
G|-------2--------2-----------1-----1--------1-----|----2-----2--------2-----------------------------|
D|-3-----------------3-----2--------------------3--|-0-----------------------------------------------|


D|------0----------|--------|--------|--------|--------|--------|--------|--------|
A|------0----------|--------|--------|--------|--------|--------|--------|--------|
F|------0----------|--------|--------|--------|--------|--------|--------|--------|
C|------2----------|--------|--------|--------|--------|--------|--------|--------|
G|-2----2----------|--------|--------|--------|--------|--------|--------|--------|
D|-0----0----------|--------|--------|--------|--------|--------|--------|--------|


D|--------|--------|--------|--------|--------|--------|--------|--------|--------|
A|--------|--------|--------|--------|--------|--------|--------|--------|--------|
F|--------|--------|--------|--------|--------|--------|--------|--------|--------|
C|--------|--------|--------|--------|--------|--------|--------|--------|--------|
G|--------|--------|--------|--------|--------|--------|--------|--------|--------|
D|--------|--------|--------|--------|--------|--------|--------|--------|--------|


D|--------|--------|--------|--------|--------|--------|--------|--------|--------|
A|--------|--------|--------|--------|--------|--------|--------|--------|--------|
F|--------|--------|--------|--------|--------|--------|--------|--------|--------|
C|--------|--------|--------|--------|--------|--------|--------|--------|--------|
G|--------|--------|--------|--------|--------|--------|--------|--------|--------|
D|--------|--------|--------|--------|--------|--------|--------|--------|--------|


D|--------|--------|--------|--------|--------|--------|--------|--------|--------|
A|--------|--------|--------|--------|--------|--------|--------|--------|--------|
F|--------|--------|--------|--------|--------|--------|--------|--------|--------|
C|--------|--------|--------|--------|--------|--------|--------|--------|--------|
G|--------|--------|--------|--------|--------|--------|--------|--------|--------|
D|--------|--------|--------|--------|--------|--------|--------|--------|--------|


D|--------|--------|--------|--------|--------|--------|--------|--------|--------|
A|--------|--------|--------|--------|--------|--------|--------|--------|--------|
F|--------|--------|--------|--------|--------|--------|--------|--------|--------|
C|--------|--------|--------|--------|--------|--------|--------|--------|--------|
G|--------|--------|--------|--------|--------|--------|--------|--------|--------|
D|--------|--------|--------|--------|--------|--------|--------|--------|--------|


D|--------|--------|--------|--------|--------|--------|--------|--------|--------|
A|--------|--------|--------|--------|--------|--------|--------|--------|--------|
F|--------|--------|--------|--------|--------|--------|--------|--------|--------|
C|--------|--------|--------|--------|--------|--------|--------|--------|--------|
G|--------|--------|--------|--------|--------|--------|--------|--------|--------|
D|--------|--------|--------|--------|--------|--------|--------|--------|--------|


D|--------|--------|--------|--------|--------|--------|--------|--------|--------|
A|--------|--------|--------|--------|--------|--------|--------|--------|--------|
F|--------|--------|--------|--------|--------|--------|--------|--------|--------|
C|--------|--------|--------|--------|--------|--------|--------|--------|--------|
G|--------|--------|--------|--------|--------|--------|--------|--------|--------|
D|--------|--------|--------|--------|--------|--------|--------|--------|--------|


D|--------|--------|--------|--------|--------|--------|--------|--------|--------|
A|--------|--------|--------|--------|--------|--------|--------|--------|--------|
F|--------|--------|--------|--------|--------|--------|--------|--------|--------|
C|--------|--------|--------|--------|--------|--------|--------|--------|--------|
G|--------|--------|--------|--------|--------|--------|--------|--------|--------|
D|--------|--------|--------|--------|--------|--------|--------|--------|--------|


D|--------|--------|--------|--------|--------|--------|--------|--------|--------|
A|--------|--------|--------|--------|--------|--------|--------|--------|--------|
F|--------|--------|--------|--------|--------|--------|--------|--------|--------|
C|--------|--------|--------|--------|--------|--------|--------|--------|--------|
G|--------|--------|--------|--------|--------|--------|--------|--------|--------|
D|--------|--------|--------|--------|--------|--------|--------|--------|--------|


D|--------|--------|--------|--------|--------|--------|--------|--------|--------|
A|--------|--------|--------|--------|--------|--------|--------|--------|--------|
F|--------|--------|--------|--------|--------|--------|--------|--------|--------|
C|--------|--------|--------|--------|--------|--------|--------|--------|--------|
G|--------|--------|--------|--------|--------|--------|--------|--------|--------|
D|--------|--------|--------|--------|--------|--------|--------|--------|--------|


D|--------|--------|--------|--------|--------|--------|--------|--------|--------|
A|--------|--------|--------|--------|--------|--------|--------|--------|--------|
F|--------|--------|--------|--------|--------|--------|--------|--------|--------|
C|--------|--------|--------|--------|--------|--------|--------|--------|--------|
G|--------|--------|--------|--------|--------|--------|--------|--------|--------|
D|--------|--------|--------|--------|--------|--------|--------|--------|--------|


D|--------|--------|--------|--------|--------|--------|--------|--------|--------|
A|--------|--------|--------|--------|--------|--------|--------|--------|--------|
F|--------|--------|--------|--------|--------|--------|--------|--------|--------|
C|--------|--------|--------|--------|--------|--------|--------|--------|--------|
G|--------|--------|--------|--------|--------|--------|--------|--------|--------|
D|--------|--------|--------|--------|--------|--------|--------|--------|--------|


D|--------|--------|--------|--------|--------|--------|--------|--------|--------|
A|--------|--------|--------|--------|--------|--------|--------|--------|--------|
F|--------|--------|--------|--------|--------|--------|--------|--------|--------|
C|--------|--------|--------|--------|--------|--------|--------|--------|--------|
G|--------|--------|--------|--------|--------|--------|--------|--------|--------|
D|--------|--------|--------|--------|--------|--------|--------|--------|--------|


D|--------|--------|--------|--------|--------|--------|--------|--------|--------|
A|--------|--------|--------|--------|--------|--------|--------|--------|--------|
F|--------|--------|--------|--------|--------|--------|--------|--------|--------|
C|--------|--------|--------|--------|--------|--------|--------|--------|--------|
G|--------|--------|--------|--------|--------|--------|--------|--------|--------|
D|--------|--------|--------|--------|--------|--------|--------|--------|--------|


D|--------|--------|--------|--------|--------|--------|--------|
A|--------|--------|--------|--------|--------|--------|--------|
F|--------|--------|--------|--------|--------|--------|--------|
C|--------|--------|--------|--------|--------|--------|--------|
G|--------|--------|--------|--------|--------|--------|--------|
D|--------|--------|--------|--------|--------|--------|--------|





Track 2: Bass arr. for gtr.

D|--------|--------|--------|--------|--------|--------|--------|--------|--------|
A|--------|--------|--------|--------|--------|--------|--------|--------|--------|
F|--------|--------|--------|--------|--------|--------|--------|--------|--------|
C|--------|--------|--------|--------|--------|--------|--------|--------|--------|
G|--------|--------|--------|--------|--------|--------|--------|--------|--------|
D|--------|--------|--------|--------|--------|--------|--------|--------|--------|


D|--------|--------|--------|--------|--------|--------|--------|--------|--------|
A|--------|--------|--------|--------|--------|--------|--------|--------|--------|
F|--------|--------|--------|--------|--------|--------|--------|--------|--------|
C|--------|--------|--------|--------|--------|--------|--------|--------|--------|
G|--------|--------|--------|--------|--------|--------|--------|--------|--------|
D|--------|--------|--------|--------|--------|--------|--------|--------|--------|


D|--------|---------------------------|-----------------------------------------|-----------------------------------------|
A|--------|---------------------------|-----------------------------------------|-----------------------------------------|
F|--------|---------------------------|-----------------------------------------|-----------------------------------------|
C|--------|---------------------------|-----------------------------------------|-----------------------------------------|
G|--------|-------------7-------------|---------------------------7-------------|---------------------------7-------------|
D|--------|-------0--0------6---0--5--|-5--3---0--5--6--5---0--0------6---0--5--|-5--3---0--1--3--1---0--0------6---0--5--|


D|-----------------------------------------|-----------------------------------------|
A|-----------------------------------------|-----------------------------------------|
F|-----------------------------------------|-----------------------------------------|
C|-----------------------------------------|-----------------------------------------|
G|---------------------------7-------------|---------------------------7-------------|
D|-5--3---0--5--6--5---0--0------6---0--5--|-5--3---0--1--3--1---0--0------6---0--5--|


D|-----------------------------------------|-----------------------------------------|
A|-----------------------------------------|-----------------------------------------|
F|-----------------------------------------|-----------------------------------------|
C|-----------------------------------------|-----------------------------------------|
G|---------------------------7-------------|---------------------------7-------------|
D|-5--3---0--5--6--5---0--0------6---0--5--|-5--3---0--1--3--1---0--0------6---0--5--|


D|-----------------------------------------|-----------------------------------------|
A|-----------------------------------------|-----------------------------------------|
F|-----------------------------------------|-----------------------------------------|
C|-----------------------------------------|-----------------------------------------|
G|---------------------------7-------------|---------------------------7-------------|
D|-5--3---0--5--6--5---0--0------6---0--5--|-5--3---0--1--3--1---0--0------6---0--5--|


D|-----------------------------------------|-----------------------------------------|
A|-----------------------------------------|-----------------------------------------|
F|-----------------------------------------|-----------------------------------------|
C|-----------------------------------------|-----------------------------------------|
G|---------------------------7-------------|---------------------------7-------------|
D|-5--3---0--5--6--5---0--0------6---0--5--|-5--3---0--1--3--1---0--0------6---0--5--|


D|-----------------------------------------|---------------------------|--------|--------|
A|-----------------------------------------|---------------------------|--------|--------|
F|-----------------------------------------|---------------------------|--------|--------|
C|-----------------------------------------|---------------------------|--------|--------|
G|---------------------------7-------------|---------------------------|--------|--------|
D|-5--3---0--5--6--5---0--0------6---0--5--|-5--3---0--1--3--1---------|--------|--------|


D|--------|--------|--------|--------|--------|--------|--------|--------|--------|
A|--------|--------|--------|--------|--------|--------|--------|--------|--------|
F|--------|--------|--------|--------|--------|--------|--------|--------|--------|
C|--------|--------|--------|--------|--------|--------|--------|--------|--------|
G|--------|--------|--------|--------|--------|--------|--------|--------|--------|
D|--------|--------|--------|--------|--------|--------|--------|--------|--------|


D|--------|--------|--------|--------|--------|--------|--------|--------|--------|
A|--------|--------|--------|--------|--------|--------|--------|--------|--------|
F|--------|--------|--------|--------|--------|--------|--------|--------|--------|
C|--------|--------|--------|--------|--------|--------|--------|--------|--------|
G|--------|--------|--------|--------|--------|--------|--------|--------|--------|
D|--------|--------|--------|--------|--------|--------|--------|--------|--------|


D|--------|--------|--------|--------|--------|--------|--------|--------|--------|
A|--------|--------|--------|--------|--------|--------|--------|--------|--------|
F|--------|--------|--------|--------|--------|--------|--------|--------|--------|
C|--------|--------|--------|--------|--------|--------|--------|--------|--------|
G|--------|--------|--------|--------|--------|--------|--------|--------|--------|
D|--------|--------|--------|--------|--------|--------|--------|--------|--------|


D|--------|--------|--------|--------|--------|--------|--------|--------|--------|
A|--------|--------|--------|--------|--------|--------|--------|--------|--------|
F|--------|--------|--------|--------|--------|--------|--------|--------|--------|
C|--------|--------|--------|--------|--------|--------|--------|--------|--------|
G|--------|--------|--------|--------|--------|--------|--------|--------|--------|
D|--------|--------|--------|--------|--------|--------|--------|--------|--------|


D|--------|--------|--------|--------|--------|--------|--------|--------|--------|
A|--------|--------|--------|--------|--------|--------|--------|--------|--------|
F|--------|--------|--------|--------|--------|--------|--------|--------|--------|
C|--------|--------|--------|--------|--------|--------|--------|--------|--------|
G|--------|--------|--------|--------|--------|--------|--------|--------|--------|
D|--------|--------|--------|--------|--------|--------|--------|--------|--------|


D|--------|--------|--------|--------|--------|--------|--------|--------|--------|
A|--------|--------|--------|--------|--------|--------|--------|--------|--------|
F|--------|--------|--------|--------|--------|--------|--------|--------|--------|
C|--------|--------|--------|--------|--------|--------|--------|--------|--------|
G|--------|--------|--------|--------|--------|--------|--------|--------|--------|
D|--------|--------|--------|--------|--------|--------|--------|--------|--------|


D|--------|--------|--------|--------|--------|--------|--------|--------|--------|
A|--------|--------|--------|--------|--------|--------|--------|--------|--------|
F|--------|--------|--------|--------|--------|--------|--------|--------|--------|
C|--------|--------|--------|--------|--------|--------|--------|--------|--------|
G|--------|--------|--------|--------|--------|--------|--------|--------|--------|
D|--------|--------|--------|--------|--------|--------|--------|--------|--------|


D|--------|--------|--------|--------|--------|--------|--------|--------|--------|
A|--------|--------|--------|--------|--------|--------|--------|--------|--------|
F|--------|--------|--------|--------|--------|--------|--------|--------|--------|
C|--------|--------|--------|--------|--------|--------|--------|--------|--------|
G|--------|--------|--------|--------|--------|--------|--------|--------|--------|
D|--------|--------|--------|--------|--------|--------|--------|--------|--------|


D|--------|--------|--------|--------|--------|--------|--------|--------|--------|
A|--------|--------|--------|--------|--------|--------|--------|--------|--------|
F|--------|--------|--------|--------|--------|--------|--------|--------|--------|
C|--------|--------|--------|--------|--------|--------|--------|--------|--------|
G|--------|--------|--------|--------|--------|--------|--------|--------|--------|
D|--------|--------|--------|--------|--------|--------|--------|--------|--------|


D|--------|--------|--------|--------|--------|--------|--------|--------|--------|
A|--------|--------|--------|--------|--------|--------|--------|--------|--------|
F|--------|--------|--------|--------|--------|--------|--------|--------|--------|
C|--------|--------|--------|--------|--------|--------|--------|--------|--------|
G|--------|--------|--------|--------|--------|--------|--------|--------|--------|
D|--------|--------|--------|--------|--------|--------|--------|--------|--------|


D|--------|--------|--------|--------|--------|--------|--------|--------|--------|
A|--------|--------|--------|--------|--------|--------|--------|--------|--------|
F|--------|--------|--------|--------|--------|--------|--------|--------|--------|
C|--------|--------|--------|--------|--------|--------|--------|--------|--------|
G|--------|--------|--------|--------|--------|--------|--------|--------|--------|
D|--------|--------|--------|--------|--------|--------|--------|--------|--------|


D|--------|--------|--------|--------|--------|--------|--------|--------|--------|
A|--------|--------|--------|--------|--------|--------|--------|--------|--------|
F|--------|--------|--------|--------|--------|--------|--------|--------|--------|
C|--------|--------|--------|--------|--------|--------|--------|--------|--------|
G|--------|--------|--------|--------|--------|--------|--------|--------|--------|
D|--------|--------|--------|--------|--------|--------|--------|--------|--------|


D|--------|--------|--------|--------|--------|--------|--------|--------|--------|
A|--------|--------|--------|--------|--------|--------|--------|--------|--------|
F|--------|--------|--------|--------|--------|--------|--------|--------|--------|
C|--------|--------|--------|--------|--------|--------|--------|--------|--------|
G|--------|--------|--------|--------|--------|--------|--------|--------|--------|
D|--------|--------|--------|--------|--------|--------|--------|--------|--------|





Track 3: Gtr. 4

D|--------|--------|--------|--------|--------|--------|--------|--------|--------|
A|--------|--------|--------|--------|--------|--------|--------|--------|--------|
F|--------|--------|--------|--------|--------|--------|--------|--------|--------|
C|--------|--------|--------|--------|--------|--------|--------|--------|--------|
G|--------|--------|--------|--------|--------|--------|--------|--------|--------|
D|--------|--------|--------|--------|--------|--------|--------|--------|--------|


D|--------|--------|--------|--------|--------|--------|--------|--------|--------|
A|--------|--------|--------|--------|--------|--------|--------|--------|--------|
F|--------|--------|--------|--------|--------|--------|--------|--------|--------|
C|--------|--------|--------|--------|--------|--------|--------|--------|--------|
G|--------|--------|--------|--------|--------|--------|--------|--------|--------|
D|--------|--------|--------|--------|--------|--------|--------|--------|--------|


D|--------|--------|--------|--------|--------|-------------|-------------|-----------------|
A|--------|--------|--------|--------|--------|-------------|-------------|-----------------|
F|--------|--------|--------|--------|--------|-------------|-------------|-----------------|
C|--------|--------|--------|--------|--------|-------------|-------------|-----------------|
G|--------|--------|--------|--------|--------|-------2-----|-------5-----|------3----2-----|
D|--------|--------|--------|--------|--------|-------0-----|-------3-----|------1----0-----|


D|-------------|-----------------|-------------|-----------------|-------------|-----------------|
A|-------------|-----------------|-------------|-----------------|-------------|-----------------|
F|-------------|-----------------|-------------|-----------------|-------------|-----------------|
C|-------------|-----------------|-------------|-----------------|-------------|-----------------|
G|-------8-----|------3----2-----|-------5-----|------3----2-----|-------8-----|------3----------|
D|-------6-----|------1----0-----|-------3-----|------1----0-----|-------6-----|------1----------|


D|--------|--------|--------|--------|--------|--------|--------|--------|--------|
A|--------|--------|--------|--------|--------|--------|--------|--------|--------|
F|--------|--------|--------|--------|--------|--------|--------|--------|--------|
C|--------|--------|--------|--------|--------|--------|--------|--------|--------|
G|--------|--------|--------|--------|--------|--------|--------|--------|--------|
D|--------|--------|--------|--------|--------|--------|--------|--------|--------|


D|--------|--------|--------|--------|--------|--------|--------|--------|--------|
A|--------|--------|--------|--------|--------|--------|--------|--------|--------|
F|--------|--------|--------|--------|--------|--------|--------|--------|--------|
C|--------|--------|--------|--------|--------|--------|--------|--------|--------|
G|--------|--------|--------|--------|--------|--------|--------|--------|--------|
D|--------|--------|--------|--------|--------|--------|--------|--------|--------|


D|--------|--------|--------|--------|--------|--------|--------|--------|-------------|
A|--------|--------|--------|--------|--------|--------|--------|--------|-------------|
F|--------|--------|--------|--------|--------|--------|--------|--------|-------------|
C|--------|--------|--------|--------|--------|--------|--------|--------|-------------|
G|--------|--------|--------|--------|--------|--------|--------|--------|-------8-----|
D|--------|--------|--------|--------|--------|--------|--------|--------|-------6-----|


D|-------------------------|--------|--------|--------|--------|--------|--------|
A|-------------------------|--------|--------|--------|--------|--------|--------|
F|-------------------------|--------|--------|--------|--------|--------|--------|
C|-------------------------|--------|--------|--------|--------|--------|--------|
G|-8---3---3--5--3---------|--------|--------|--------|--------|--------|--------|
D|-6---1---1--3--1---------|--------|--------|--------|--------|--------|--------|


D|--------|--------|--------|--------|--------|--------|--------|--------|--------|
A|--------|--------|--------|--------|--------|--------|--------|--------|--------|
F|--------|--------|--------|--------|--------|--------|--------|--------|--------|
C|--------|--------|--------|--------|--------|--------|--------|--------|--------|
G|--------|--------|--------|--------|--------|--------|--------|--------|--------|
D|--------|--------|--------|--------|--------|--------|--------|--------|--------|


D|--------|--------|--------|--------|--------|--------|--------|--------|--------|
A|--------|--------|--------|--------|--------|--------|--------|--------|--------|
F|--------|--------|--------|--------|--------|--------|--------|--------|--------|
C|--------|--------|--------|--------|--------|--------|--------|--------|--------|
G|--------|--------|--------|--------|--------|--------|--------|--------|--------|
D|--------|--------|--------|--------|--------|--------|--------|--------|--------|


D|--------|--------|--------|--------|--------|--------|--------|--------|--------|
A|--------|--------|--------|--------|--------|--------|--------|--------|--------|
F|--------|--------|--------|--------|--------|--------|--------|--------|--------|
C|--------|--------|--------|--------|--------|--------|--------|--------|--------|
G|--------|--------|--------|--------|--------|--------|--------|--------|--------|
D|--------|--------|--------|--------|--------|--------|--------|--------|--------|


D|--------|--------|--------|--------|--------|--------|--------|--------|--------|
A|--------|--------|--------|--------|--------|--------|--------|--------|--------|
F|--------|--------|--------|--------|--------|--------|--------|--------|--------|
C|--------|--------|--------|--------|--------|--------|--------|--------|--------|
G|--------|--------|--------|--------|--------|--------|--------|--------|--------|
D|--------|--------|--------|--------|--------|--------|--------|--------|--------|


D|--------|--------|--------|--------|--------|--------|--------|--------|--------|
A|--------|--------|--------|--------|--------|--------|--------|--------|--------|
F|--------|--------|--------|--------|--------|--------|--------|--------|--------|
C|--------|--------|--------|--------|--------|--------|--------|--------|--------|
G|--------|--------|--------|--------|--------|--------|--------|--------|--------|
D|--------|--------|--------|--------|--------|--------|--------|--------|--------|


D|--------|--------|--------|--------|--------|--------|--------|--------|--------|
A|--------|--------|--------|--------|--------|--------|--------|--------|--------|
F|--------|--------|--------|--------|--------|--------|--------|--------|--------|
C|--------|--------|--------|--------|--------|--------|--------|--------|--------|
G|--------|--------|--------|--------|--------|--------|--------|--------|--------|
D|--------|--------|--------|--------|--------|--------|--------|--------|--------|


D|--------|--------|--------|--------|--------|--------|--------|--------|--------|
A|--------|--------|--------|--------|--------|--------|--------|--------|--------|
F|--------|--------|--------|--------|--------|--------|--------|--------|--------|
C|--------|--------|--------|--------|--------|--------|--------|--------|--------|
G|--------|--------|--------|--------|--------|--------|--------|--------|--------|
D|--------|--------|--------|--------|--------|--------|--------|--------|--------|


D|--------|--------|--------|--------|--------|--------|--------|--------|--------|
A|--------|--------|--------|--------|--------|--------|--------|--------|--------|
F|--------|--------|--------|--------|--------|--------|--------|--------|--------|
C|--------|--------|--------|--------|--------|--------|--------|--------|--------|
G|--------|--------|--------|--------|--------|--------|--------|--------|--------|
D|--------|--------|--------|--------|--------|--------|--------|--------|--------|


D|--------|--------|--------|--------|--------|--------|--------|--------|--------|
A|--------|--------|--------|--------|--------|--------|--------|--------|--------|
F|--------|--------|--------|--------|--------|--------|--------|--------|--------|
C|--------|--------|--------|--------|--------|--------|--------|--------|--------|
G|--------|--------|--------|--------|--------|--------|--------|--------|--------|
D|--------|--------|--------|--------|--------|--------|--------|--------|--------|


D|--------|--------|--------|--------|
A|--------|--------|--------|--------|
F|--------|--------|--------|--------|
C|--------|--------|--------|--------|
G|--------|--------|--------|--------|
D|--------|--------|--------|--------|





Track 4: Gtr. 3

D|--------|--------|--------|--------|--------|--------|--------|--------|--------|
A|--------|--------|--------|--------|--------|--------|--------|--------|--------|
F|--------|--------|--------|--------|--------|--------|--------|--------|--------|
C|--------|--------|--------|--------|--------|--------|--------|--------|--------|
G|--------|--------|--------|--------|--------|--------|--------|--------|--------|
D|--------|--------|--------|--------|--------|--------|--------|--------|--------|


D|--------|--------|--------|--------|--------|--------|--------|--------|--------|
A|--------|--------|--------|--------|--------|--------|--------|--------|--------|
F|--------|--------|--------|--------|--------|--------|--------|--------|--------|
C|--------|--------|--------|--------|--------|--------|--------|--------|--------|
G|--------|--------|--------|--------|--------|--------|--------|--------|--------|
D|--------|--------|--------|--------|--------|--------|--------|--------|--------|


D|--------|--------|--------|--------|--------|--------|--------|--------|--------|
A|--------|--------|--------|--------|--------|--------|--------|--------|--------|
F|--------|--------|--------|--------|--------|--------|--------|--------|--------|
C|--------|--------|--------|--------|--------|--------|--------|--------|--------|
G|--------|--------|--------|--------|--------|--------|--------|--------|--------|
D|--------|--------|--------|--------|--------|--------|--------|--------|--------|


D|--------|--------|--------|--------|---------------------------|---------------------------------------|
A|--------|--------|--------|--------|---------------------------|---------------------------------------|
F|--------|--------|--------|--------|---------------------------|---------------------------------------|
C|--------|--------|--------|--------|---------------------------|---------------------------------------|
G|--------|--------|--------|--------|-------------2---2---------|-2---2---------2---------5---5---------|
D|--------|--------|--------|--------|-------0--0--0---0---0--0--|-0---0---0--0--0---3--3--3---3---3--3--|


D|---------------------------------------|---------------------------------------|
A|---------------------------------------|---------------------------------------|
F|---------------------------------------|---------------------------------------|
C|---------------------------------------|---------------------------------------|
G|-5---5---------3---------2---2---------|-2---2---------2---------8---8---------|
D|-3---3---1--1--1---0--0--0---0---0--0--|-0---0---0--0--0---6--6--6---6---6--6--|


D|---------------------------------------|-----------------------------------------|
A|---------------------------------------|-----------------------------------------|
F|---------------------------------------|-----------------------------------------|
C|---------------------------------------|-----------------------------------------|
G|-8---3---3--5--3---------14--8------7--|-7--5------7--8--7---------14--8------7--|
D|-6---1---1--3--1---0--0--12--6---0--5--|-5--3---0--5--6--5---0--0--12--6---0--5--|


D|-----------------------------------------|-----------------------------------------|
A|-----------------------------------------|-----------------------------------------|
F|-----------------------------------------|-----------------------------------------|
C|-----------------------------------------|-----------------------------------------|
G|-7--5------3--5--3---------14--8------7--|-7--5------7--8--7---------14--8------7--|
D|-5--3---0--1--3--1---0--0--12--6---0--5--|-5--3---0--5--6--5---0--0--12--6---0--5--|


D|-------------------------|----------------------|-----------------------|----------------------|
A|-------------------------|----------------------|-----------------------|----------------------|
F|-------------------------|----------------------|-----------------------|----------------------|
C|-------------------------|----------------------|-----------------------|----------------------|
G|-7--5----------5---2-----|------2--2---2--5-----|-5---3------3----2-----|------2--2---2--8-----|
D|-5--3----------3---0-----|------0--0---0--3-----|-3---1------1----0-----|------0--0---0--6-----|


D|-----------------------|----------------------|-----------------------|----------------------|
A|-----------------------|----------------------|-----------------------|----------------------|
F|-----------------------|----------------------|-----------------------|----------------------|
C|-----------------------|----------------------|-----------------------|----------------------|
G|-8---3------3----2-----|------2--2---2--5-----|-5---3------3----2-----|------2--2---2--8-----|
D|-6---1------1----0-----|------0--0---0--3-----|-3---1------1----0-----|------0--0---0--6-----|


D|---------------------------------------|---------------------------------------|
A|---------------------------------------|---------------------------------------|
F|---------------------------------------|---------------------------------------|
C|---------------------------------------|---------------------------------------|
G|-8---3---3--5--3---------2---2---------|-2---2---------2---------5---5---------|
D|-6---1---1--3--1---0--0--0---0---0--0--|-0---0---0--0--0---3--3--3---3---3--3--|


D|---------------------------------------|---------------------------------------|
A|---------------------------------------|---------------------------------------|
F|---------------------------------------|---------------------------------------|
C|---------------------------------------|---------------------------------------|
G|-5---5---------3---------2---2---------|-2---2---------2---------8---8---------|
D|-3---3---1--1--1---0--0--0---0---0--0--|-0---0---0--0--0---6--6--6---6---6--6--|


D|-------------------------|----------------------|-----------------------|----------------------|
A|-------------------------|----------------------|-----------------------|----------------------|
F|-------------------------|----------------------|-----------------------|----------------------|
C|-------------------------|----------------------|-----------------------|----------------------|
G|-8---3---3--5--3---2-----|------2--2---2--5-----|-5---3------3----2-----|------2--2---2--8-----|
D|-6---1---1--3--1---0-----|------0--0---0--3-----|-3---1------1----0-----|------0--0---0--6-----|


D|-----------------------|----------------------|-----------------------|----------------------|
A|-----------------------|----------------------|-----------------------|----------------------|
F|-----------------------|----------------------|-----------------------|----------------------|
C|-----------------------|----------------------|-----------------------|----------------------|
G|-8---3------3----2-----|------2--2---2--5-----|-5---3------3----2-----|------2--2---2--------|
D|-6---1------1----0-----|------0--0---0--3-----|-3---1------1----0-----|------0--0---0--------|


D|---------------------------|---------------------------------------|---------------------------------------|
A|---------------------------|---------------------------------------|---------------------------------------|
F|---------------------------|---------------------------------------|---------------------------------------|
C|---------------------------|---------------------------------------|---------------------------------------|
G|-------------2---2---------|-2---2---------2---------5---5---------|-5---5---------3---------2---2---------|
D|-------0--0--0---0---0--0--|-0---0---0--0--0---3--3--3---3---3--3--|-3---3---1--1--1---0--0--0---0---0--0--|


D|---------------------------------------|---------------------------------------|
A|---------------------------------------|---------------------------------------|
F|---------------------------------------|---------------------------------------|
C|---------------------------------------|---------------------------------------|
G|-2---2---------2---------8---8---------|-8---3---3--5--3---------14--8------7--|
D|-0---0---0--0--0---6--6--6---6---6--6--|-6---1---1--3--1---0--0--12--6---0--5--|


D|-----------------------------------------|-----------------------------------------|
A|-----------------------------------------|-----------------------------------------|
F|-----------------------------------------|-----------------------------------------|
C|-----------------------------------------|-----------------------------------------|
G|-7--5------7--8--7---------14--8------7--|-7--5------3--5--3---------14--8------7--|
D|-5--3---0--5--6--5---0--0--12--6---0--5--|-5--3---0--1--3--1---0--0--12--6---0--5--|


D|-----------------------------------------|-----------------------------------------|
A|-----------------------------------------|-----------------------------------------|
F|-----------------------------------------|-----------------------------------------|
C|-----------------------------------------|-----------------------------------------|
G|-7--5------7--8--7---------14--8------7--|-7--5------3--5--3---------14--8------7--|
D|-5--3---0--5--6--5---0--0--12--6---0--5--|-5--3---0--1--3--1---0--0--12--6---0--5--|


D|-----------------------------------------|---------------------------|----------------------|
A|-----------------------------------------|---------------------------|----------------------|
F|-----------------------------------------|---------------------------|----------------------|
C|-----------------------------------------|---------------------------|----------------------|
G|-7--5------7--8--7---------14--8------7--|-7--5------3--5--3---2-----|------2--2---2--5-----|
D|-5--3---0--5--6--5---0--0--12--6---0--5--|-5--3---0--1--3--1---0-----|------0--0---0--3-----|


D|----------------------|----------------------|-------------------------|-------------------------------------|
A|----------------------|----------------------|-------------------------|-------------------------------------|
F|----------------------|----------------------|-------------------------|-----7---7---------------------------|
C|----------------------|----------------------|-------------------------|-5---5---5--7--7---------------------|
G|------3--3---3--2-----|------2--2---2--8-----|-------7---7---7--7--7---|-3----------5--5---7---7---7--7--7---|
D|------1--1---1--0-----|------0--0---0--6-----|-------5---5---5--5--5---|-------------------5---5---5--5--5---|


D|-------------------------------------|-------------------------------------|-------------------------------------|
A|-------------------------------------|-------------------------------------|-------------------------------------|
F|-----5---5---------------------------|-----7---7---------------------------|-------------------------------------|
C|-5---3---3--5--5---------------------|-5---5---5--7--7---8---8---8--8--8---|-8---7---7--5--5---------------------|
G|-3----------3--3---7---7---7--7--7---|-3----------5--5---6---6---6--6--6---|-6---5---5--3--3---7---7---7--7--7---|
D|-------------------5---5---5--5--5---|-------------------------------------|-------------------5---5---5--5--5---|


D|-------------------------------------|-------------------------------------|-------------------------------------|
A|-------------------------------------|-------------------------------------|-------------------------------------|
F|-----7---7---------------------------|-----5---5---------------------------|-----7---7---------------------------|
C|-5---5---5--7--7---------------------|-5---3---3--5--5---------------------|-5---5---5--7--7---8---8---8--8--8---|
G|-3----------5--5---7---7---7--7--7---|-3----------3--3---7---7---7--7--7---|-3----------5--5---6---6---6--6--6---|
D|-------------------5---5---5--5--5---|-------------------5---5---5--5--5---|-------------------------------------|


D|-------------------------------------|-------------------------------------|-------------------------------------|
A|-------------------------------------|-------------------------------------|-------------------------------------|
F|-------------------------------------|-----7---7---------------------------|-----5---5---------------------------|
C|-8---7---7--5--5---------------------|-5---5---5--7--7---------------------|-5---3---3--5--5---------------------|
G|-6---5---5--3--3---7---7---7--7--7---|-3----------5--5---7---7---7--7--7---|-3----------3--3---7---7---7--7--7---|
D|-------------------5---5---5--5--5---|-------------------5---5---5--5--5---|-------------------5---5---5--5--5---|


D|-------------------------------------|-------------------------------------|-------------------------------------|
A|-------------------------------------|-------------------------------------|-------------------------------------|
F|-----7---7---------------------------|-------------------------------------|-----7---7---------------------------|
C|-5---5---5--7--7---8---8---8--8--8---|-8---7---7--5--5---------------------|-5---5---5--7--7---------------------|
G|-3----------5--5---6---6---6--6--6---|-6---5---5--3--3---7---7---7--7--7---|-3----------5--5---7---7---7--7--7---|
D|-------------------------------------|-------------------5---5---5--5--5---|-------------------5---5---5--5--5---|


D|-------------------------------------|-------------------------------------|-------------------------------------|
A|-------------------------------------|-------------------------------------|-------------------------------------|
F|-----5---5---------------------------|-----7---7---------------------------|-------------------------------------|
C|-5---3---3--5--5---------------------|-5---5---5--7--7---8---8---8--8--8---|-8---7---7--5--5---------------------|
G|-3----------3--3---7---7---7--7--7---|-3----------5--5---6---6---6--6--6---|-6---5---5--3--3---7---7---7--7--7---|
D|-------------------5---5---5--5--5---|-------------------------------------|-------------------5---5---5--5--5---|


D|-------------------------------------|-------------------------------------|-------------------------|
A|-------------------------------------|-------------------------------------|-------------------------|
F|-----7---7---------------------------|-----5---5---------------------------|-----7---7---------------|
C|-5---5---5--7--7---------------------|-5---3---3--5--5---------------------|-5---5---5--7--7---------|
G|-3----------5--5---7---7---7--7--7---|-3----------3--3---7---7---7--7--7---|-3----------5--5---------|
D|-------------------5---5---5--5--5---|-------------------5---5---5--5--5---|-------------------------|


D|-------------|-------------|-------------|-------------|-------------|-------------|
A|-------------|-------------|-------------|-------------|-------------|-------------|
F|-------------|-------------|-------------|-------------|-------------|-------------|
C|-------------|-------------|-------------|-------------|-------------|-------------|
G|-------------|-------------|-------------|-------------|-------------|-------------|
D|-------------|-------------|-------------|-------------|-------------|-------------|


D|-------------|-------------|-------------|-------------|-------------|-------------|
A|-------------|-------------|-------------|-------------|-------------|-------------|
F|-------------|-------------|-------------|-------------|-------------|-------------|
C|-------------|-------------|-------------|-------------|-------------|-------------|
G|-------------|-------------|-------------|-------------|-------------|-------------|
D|-------------|-------------|-------------|-------------|-------------|-------------|


D|-------------|-------------|-------------|-------------|--------|--------|--------|
A|-------------|-------------|-------------|-------------|--------|--------|--------|
F|-------------|-------------|-------------|-------------|--------|--------|--------|
C|-------------|-------------|-------------|-------------|--------|--------|--------|
G|-------------|-------------|-------------|-------------|--------|--------|--------|
D|-------------|-------------|-------------|-------------|--------|--------|--------|


D|--------|--------|--------|--------|--------|--------|--------|--------|--------|
A|--------|--------|--------|--------|--------|--------|--------|--------|--------|
F|--------|--------|--------|--------|--------|--------|--------|--------|--------|
C|--------|--------|--------|--------|--------|--------|--------|--------|--------|
G|--------|--------|--------|--------|--------|--------|--------|--------|--------|
D|--------|--------|--------|--------|--------|--------|--------|--------|--------|


D|--------|--------|--------|--------|---------------------------|---------------------------------------|
A|--------|--------|--------|--------|---------------------------|---------------------------------------|
F|--------|--------|--------|--------|---------------------------|---------------------------------------|
C|--------|--------|--------|--------|---------------------------|---------------------------------------|
G|--------|--------|--------|--------|-------------2---2---------|-2---2---------2---------5---5---------|
D|--------|--------|--------|--------|-------0--0--0---0---0--0--|-0---0---0--0--0---3--3--3---3---3--3--|


D|---------------------------------------|---------------------------------------|
A|---------------------------------------|---------------------------------------|
F|---------------------------------------|---------------------------------------|
C|---------------------------------------|---------------------------------------|
G|-5---5---------3---------2---2---------|-2---2---------2---------8---8---------|
D|-3---3---1--1--1---0--0--0---0---0--0--|-0---0---0--0--0---6--6--6---6---6--6--|


D|-------------------------|----------------------|--------|--------|--------|--------|
A|-------------------------|----------------------|--------|--------|--------|--------|
F|-------------------------|----------------------|--------|--------|--------|--------|
C|-------------------------|----------------------|--------|--------|--------|--------|
G|-8---3---3--5--3---2-----|------2--2---2--------|--------|--------|--------|--------|
D|-6---1---1--3--1---0-----|------0--0---0--------|--------|--------|--------|--------|


D|--------|-------------|---------------------------------------|-----------------------------------------|
A|--------|-------------|---------------------------------------|-----------------------------------------|
F|--------|-------------|---------------------------------------|-----------------------------------------|
C|--------|-------------|---------------------------------------|-----------------------------------------|
G|--------|-------8-----|-8---3---3--5--3---------14--8------7--|-7--5------7--8--7---------14--8------7--|
D|--------|-------6-----|-6---1---1--3--1---0--0--12--6---0--5--|-5--3---0--5--6--5---0--0--12--6---0--5--|


D|-----------------------------------------|-----------------------------------------|
A|-----------------------------------------|-----------------------------------------|
F|-----------------------------------------|-----------------------------------------|
C|-----------------------------------------|-----------------------------------------|
G|-7--5------3--5--3---------14--8------7--|-7--5------7--8--7---------14--8------7--|
D|-5--3---0--1--3--1---0--0--12--6---0--5--|-5--3---0--5--6--5---0--0--12--6---0--5--|


D|-----------------------------------------|-----------------------------------------|
A|-----------------------------------------|-----------------------------------------|
F|-----------------------------------------|-----------------------------------------|
C|-----------------------------------------|-----------------------------------------|
G|-7--5------3--5--3---------14--8------7--|-7--5------7--8--7---------14--8------7--|
D|-5--3---0--1--3--1---0--0--12--6---0--5--|-5--3---0--5--6--5---0--0--12--6---0--5--|


D|-----------------------------------------|-----------------------------------------|
A|-----------------------------------------|-----------------------------------------|
F|-----------------------------------------|-----------------------------------------|
C|-----------------------------------------|-----------------------------------------|
G|-7--5------3--5--3---------14--8------7--|-7--5------7--8--7---------14--8------7--|
D|-5--3---0--1--3--1---0--0--12--6---0--5--|-5--3---0--5--6--5---0--0--12--6---0--5--|


D|-----------------------------------------|-----------------------------------------|
A|-----------------------------------------|-----------------------------------------|
F|-----------------------------------------|-----------------------------------------|
C|-----------------------------------------|-----------------------------------------|
G|-7--5------3--5--3---------14--8------7--|-7--5------7--8--7---------14--8------7--|
D|-5--3---0--1--3--1---0--0--12--6---0--5--|-5--3---0--5--6--5---0--0--12--6---0--5--|


D|-----------------------------------------|-----------------------------------------|
A|-----------------------------------------|-----------------------------------------|
F|-----------------------------------------|-----------------------------------------|
C|-----------------------------------------|-----------------------------------------|
G|-7--5------3--5--3---------14--8------7--|-7--5------7--8--7---------14--8------7--|
D|-5--3---0--1--3--1---0--0--12--6---0--5--|-5--3---0--5--6--5---0--0--12--6---0--5--|


D|--------------------------------|-------------|
A|--------------------------------|-------------|
F|--------------------------------|-------------|
C|--------------------------------|-------------|
G|-7--5----------5---2------------|-------------|
D|-5--3----------3---0------------|-------------|





Track 5: Gtr. 5

D|--------|--------|--------|--------|--------|--------|--------|--------|--------|
A|--------|--------|--------|--------|--------|--------|--------|--------|--------|
F|--------|--------|--------|--------|--------|--------|--------|--------|--------|
C|--------|--------|--------|--------|--------|--------|--------|--------|--------|
G|--------|--------|--------|--------|--------|--------|--------|--------|--------|
D|--------|--------|--------|--------|--------|--------|--------|--------|--------|


D|--------|--------|--------|--------|--------|--------|--------|--------|--------|
A|--------|--------|--------|--------|--------|--------|--------|--------|--------|
F|--------|--------|--------|--------|--------|--------|--------|--------|--------|
C|--------|--------|--------|--------|--------|--------|--------|--------|--------|
G|--------|--------|--------|--------|--------|--------|--------|--------|--------|
D|--------|--------|--------|--------|--------|--------|--------|--------|--------|


D|--------|--------|--------|--------|--------|--------|--------|--------|--------|
A|--------|--------|--------|--------|--------|--------|--------|--------|--------|
F|--------|--------|--------|--------|--------|--------|--------|--------|--------|
C|--------|--------|--------|--------|--------|--------|--------|--------|--------|
G|--------|--------|--------|--------|--------|--------|--------|--------|--------|
D|--------|--------|--------|--------|--------|--------|--------|--------|--------|


D|--------|--------|--------|--------|--------|--------|--------|--------|--------|
A|--------|--------|--------|--------|--------|--------|--------|--------|--------|
F|--------|--------|--------|--------|--------|--------|--------|--------|--------|
C|--------|--------|--------|--------|--------|--------|--------|--------|--------|
G|--------|--------|--------|--------|--------|--------|--------|--------|--------|
D|--------|--------|--------|--------|--------|--------|--------|--------|--------|


D|--------|--------|--------|--------|--------|--------|--------|--------|--------|
A|--------|--------|--------|--------|--------|--------|--------|--------|--------|
F|--------|--------|--------|--------|--------|--------|--------|--------|--------|
C|--------|--------|--------|--------|--------|--------|--------|--------|--------|
G|--------|--------|--------|--------|--------|--------|--------|--------|--------|
D|--------|--------|--------|--------|--------|--------|--------|--------|--------|


D|--------|--------|--------|--------|--------|--------|--------|--------|--------|
A|--------|--------|--------|--------|--------|--------|--------|--------|--------|
F|--------|--------|--------|--------|--------|--------|--------|--------|--------|
C|--------|--------|--------|--------|--------|--------|--------|--------|--------|
G|--------|--------|--------|--------|--------|--------|--------|--------|--------|
D|--------|--------|--------|--------|--------|--------|--------|--------|--------|


D|--------|--------|--------|--------|--------|--------|--------|--------|--------|
A|--------|--------|--------|--------|--------|--------|--------|--------|--------|
F|--------|--------|--------|--------|--------|--------|--------|--------|--------|
C|--------|--------|--------|--------|--------|--------|--------|--------|--------|
G|--------|--------|--------|--------|--------|--------|--------|--------|--------|
D|--------|--------|--------|--------|--------|--------|--------|--------|--------|


D|--------|--------|--------|--------|--------|--------|--------|--------|--------|
A|--------|--------|--------|--------|--------|--------|--------|--------|--------|
F|--------|--------|--------|--------|--------|--------|--------|--------|--------|
C|--------|--------|--------|--------|--------|--------|--------|--------|--------|
G|--------|--------|--------|--------|--------|--------|--------|--------|--------|
D|--------|--------|--------|--------|--------|--------|--------|--------|--------|


D|--------|--------|--------|--------|--------|--------|--------|--------|--------|
A|--------|--------|--------|--------|--------|--------|--------|--------|--------|
F|--------|--------|--------|--------|--------|--------|--------|--------|--------|
C|--------|--------|--------|--------|--------|--------|--------|--------|--------|
G|--------|--------|--------|--------|--------|--------|--------|--------|--------|
D|--------|--------|--------|--------|--------|--------|--------|--------|--------|


D|--------|--------|--------|--------|--------|--------|--------|--------|--------|
A|--------|--------|--------|--------|--------|--------|--------|--------|--------|
F|--------|--------|--------|--------|--------|--------|--------|--------|--------|
C|--------|--------|--------|--------|--------|--------|--------|--------|--------|
G|--------|--------|--------|--------|--------|--------|--------|--------|--------|
D|--------|--------|--------|--------|--------|--------|--------|--------|--------|


D|--------|--------|--------|--------|--------|--------|--------|--------|--------|
A|--------|--------|--------|--------|--------|--------|--------|--------|--------|
F|--------|--------|--------|--------|--------|--------|--------|--------|--------|
C|--------|--------|--------|--------|--------|--------|--------|--------|--------|
G|--------|--------|--------|--------|--------|--------|--------|--------|--------|
D|--------|--------|--------|--------|--------|--------|--------|--------|--------|


D|--------|--------|--------|--------|--------|--------|--------|--------|--------|
A|--------|--------|--------|--------|--------|--------|--------|--------|--------|
F|--------|--------|--------|--------|--------|--------|--------|--------|--------|
C|--------|--------|--------|--------|--------|--------|--------|--------|--------|
G|--------|--------|--------|--------|--------|--------|--------|--------|--------|
D|--------|--------|--------|--------|--------|--------|--------|--------|--------|


D|--------|-------------|-------------|-------------17-20-20-18-17-------------------|
A|--------|-------20----|-------20----|-20--20--20-----------------20-18-16-18-20-18-|
F|--------|-------------|-------------|----------------------------------------------|
C|--------|-------------|-------------|----------------------------------------------|
G|--------|-------------|-------------|----------------------------------------------|
D|--------|-------------|-------------|----------------------------------------------|


D|------------------------------------------|------------------------15-15------|-15---15-15--15--15----|
A|-16-16------------------------------------|---------------------15--------18--|-----------------------|
F|-------19-17-15-19--17-15-----------------|-------------17--17----------------|-----------------------|
C|--------------------------19---15-17-17---|-17--17----------------------------|-----------------------|
G|------------------------------------------|-----------------------------------|-----------------------|
D|------------------------------------------|-----------------------------------|-----------------------|


D|-15----15----|-18--18----18----18--|-18---18-----18-17-15-20-17-15------|-----------------------------------------------|
A|-------------|-----------18----18--|-18---18--20--------------------18--|-16-15-18-16-15--------------------------------|
F|-------------|---------------------|------------------------------------|----------------18-15-14-15-17--15-14----------|
C|-------------|---------------------|------------------------------------|--------------------------------------17-15-13-|
G|-------------|---------------------|------------------------------------|-----------------------------------------------|
D|-------------|---------------------|------------------------------------|-----------------------------------------------|


D|-------------------------------|-----18----18-----------|-------------------15------|
A|-------------------------------|-----18----18--18---18--|-18-------15--18-------18--|
F|------------------------15-17--|-17--17----17--17---17--|-17--17--------------------|
C|-15----15------15-17-17--------|------------------------|---------------------------|
G|-----------17------------------|------------------------|---------------------------|
D|-------------------------------|------------------------|---------------------------|


D|-----15--15-15-15--15----|-17---18-18-20---17--18-20-20-18-17-22-|-22-18-17---18--20--22--22--22---|
A|-18----------------------|---------------------------------------|---------------------------------|
F|-------------------------|---------------------------------------|---------------------------------|
C|-------------------------|---------------------------------------|---------------------------------|
G|-------------------------|---------------------------------------|---------------------------------|
D|-------------------------|---------------------------------------|---------------------------------|


D|-22---22----------------|-------------------------------------|----------------------------------------------------|
A|--------------15---15---|-15-15-12--15---15-15------------15--|----------------------------------------12-15-12----|
F|------------------------|-----------------------14-14-14--14--|-14-12-------------------------12-14-14----------14-|
C|----------0-------------|-------------------------------------|-------14-12-14---14-----12-14----------------------|
G|------------------------|-------------------------------------|---------------------14-----------------------------|
D|------------------------|-------------------------------------|----------------------------------------------------|


D|---------------------------12---12---|-12---15--15-15-12-------|--------------------|
A|----12-15------------------15---15---|-15----------------15----|-15-----------------|
F|-14-------14--14-12-15-12------------|-------------------------|--------------------|
C|-------------------------------------|-------------------------|--------------------|
G|-------------------------------------|-------------------------|--------------5-----|
D|-------------------------------------|-------------------------|--------------3-----|


D|-----------------------|----------------------|-----------------------|----------------------|
A|-----------------------|----------------------|-----------------------|----------------------|
F|-----------------------|----------------------|-----------------------|----------------------|
C|-----------------------|----------------------|-----------------------|----------------------|
G|-5---3------3----2-----|------2--2---2--8-----|-8---3------3----2-----|------2--2---2--5-----|
D|-3---1------1----0-----|------0--0---0--6-----|-6---1------1----0-----|------0--0---0--3-----|


D|-----------------------|----------------------|-------------|-------------|--------|
A|-----------------------|----------------------|-------------|-------------|--------|
F|-----------------------|----------------------|-------------|-------------|--------|
C|-----------------------|----------------------|-------------|-------------|--------|
G|-5---3------3----2-----|------2--2---2--------|-------------|-------------|--------|
D|-3---1------1----0-----|------0--0---0--------|-------------|-------------|--------|


D|--------|--------|--------|--------|--------|--------|--------|--------|--------|
A|--------|--------|--------|--------|--------|--------|--------|--------|--------|
F|--------|--------|--------|--------|--------|--------|--------|--------|--------|
C|--------|--------|--------|--------|--------|--------|--------|--------|--------|
G|--------|--------|--------|--------|--------|--------|--------|--------|--------|
D|--------|--------|--------|--------|--------|--------|--------|--------|--------|


D|--------|--------|
A|--------|--------|
F|--------|--------|
C|--------|--------|
G|--------|--------|
D|--------|--------|





Track 6: Gtr. 1 (Acoustic)

D|--------|--------|--------|--------|--------|--------|--------|--------|--------|
A|--------|--------|--------|--------|--------|--------|--------|--------|--------|
F|--------|--------|--------|--------|--------|--------|--------|--------|--------|
C|--------|--------|--------|--------|--------|--------|--------|--------|--------|
G|--------|--------|--------|--------|--------|--------|--------|--------|--------|
D|--------|--------|--------|--------|--------|--------|--------|--------|--------|


D|--------|--------|--------|--------|--------|--------|--------|--------|--------|
A|--------|--------|--------|--------|--------|--------|--------|--------|--------|
F|--------|--------|--------|--------|--------|--------|--------|--------|--------|
C|--------|--------|--------|--------|--------|--------|--------|--------|--------|
G|--------|--------|--------|--------|--------|--------|--------|--------|--------|
D|--------|--------|--------|--------|--------|--------|--------|--------|--------|


D|--------|--------|--------|--------|--------|--------|--------|--------|--------|
A|--------|--------|--------|--------|--------|--------|--------|--------|--------|
F|--------|--------|--------|--------|--------|--------|--------|--------|--------|
C|--------|--------|--------|--------|--------|--------|--------|--------|--------|
G|--------|--------|--------|--------|--------|--------|--------|--------|--------|
D|--------|--------|--------|--------|--------|--------|--------|--------|--------|


D|--------|--------|--------|--------|--------|--------|--------|--------|--------|
A|--------|--------|--------|--------|--------|--------|--------|--------|--------|
F|--------|--------|--------|--------|--------|--------|--------|--------|--------|
C|--------|--------|--------|--------|--------|--------|--------|--------|--------|
G|--------|--------|--------|--------|--------|--------|--------|--------|--------|
D|--------|--------|--------|--------|--------|--------|--------|--------|--------|


D|--------|--------|--------|--------|--------|--------|--------|--------|--------|
A|--------|--------|--------|--------|--------|--------|--------|--------|--------|
F|--------|--------|--------|--------|--------|--------|--------|--------|--------|
C|--------|--------|--------|--------|--------|--------|--------|--------|--------|
G|--------|--------|--------|--------|--------|--------|--------|--------|--------|
D|--------|--------|--------|--------|--------|--------|--------|--------|--------|


D|--------|--------|--------|--------|--------|--------|--------|--------|--------|
A|--------|--------|--------|--------|--------|--------|--------|--------|--------|
F|--------|--------|--------|--------|--------|--------|--------|--------|--------|
C|--------|--------|--------|--------|--------|--------|--------|--------|--------|
G|--------|--------|--------|--------|--------|--------|--------|--------|--------|
D|--------|--------|--------|--------|--------|--------|--------|--------|--------|


D|--------|--------|--------|--------|--------|--------|--------|--------|--------|
A|--------|--------|--------|--------|--------|--------|--------|--------|--------|
F|--------|--------|--------|--------|--------|--------|--------|--------|--------|
C|--------|--------|--------|--------|--------|--------|--------|--------|--------|
G|--------|--------|--------|--------|--------|--------|--------|--------|--------|
D|--------|--------|--------|--------|--------|--------|--------|--------|--------|


D|--------|--------|--------|--------|--------|--------|--------|--------|--------|
A|--------|--------|--------|--------|--------|--------|--------|--------|--------|
F|--------|--------|--------|--------|--------|--------|--------|--------|--------|
C|--------|--------|--------|--------|--------|--------|--------|--------|--------|
G|--------|--------|--------|--------|--------|--------|--------|--------|--------|
D|--------|--------|--------|--------|--------|--------|--------|--------|--------|


D|--------|--------|--------|--------|--------|--------|--------|--------|--------|
A|--------|--------|--------|--------|--------|--------|--------|--------|--------|
F|--------|--------|--------|--------|--------|--------|--------|--------|--------|
C|--------|--------|--------|--------|--------|--------|--------|--------|--------|
G|--------|--------|--------|--------|--------|--------|--------|--------|--------|
D|--------|--------|--------|--------|--------|--------|--------|--------|--------|


D|--------|--------|--------|--------|--------|--------|--------|--------|--------|
A|--------|--------|--------|--------|--------|--------|--------|--------|--------|
F|--------|--------|--------|--------|--------|--------|--------|--------|--------|
C|--------|--------|--------|--------|--------|--------|--------|--------|--------|
G|--------|--------|--------|--------|--------|--------|--------|--------|--------|
D|--------|--------|--------|--------|--------|--------|--------|--------|--------|


D|--------|--------|--------|--------|--------|--------|--------|--------|--------|
A|--------|--------|--------|--------|--------|--------|--------|--------|--------|
F|--------|--------|--------|--------|--------|--------|--------|--------|--------|
C|--------|--------|--------|--------|--------|--------|--------|--------|--------|
G|--------|--------|--------|--------|--------|--------|--------|--------|--------|
D|--------|--------|--------|--------|--------|--------|--------|--------|--------|


D|--------|--------|--------|--------|--------|--------|--------|--------|--------|
A|--------|--------|--------|--------|--------|--------|--------|--------|--------|
F|--------|--------|--------|--------|--------|--------|--------|--------|--------|
C|--------|--------|--------|--------|--------|--------|--------|--------|--------|
G|--------|--------|--------|--------|--------|--------|--------|--------|--------|
D|--------|--------|--------|--------|--------|--------|--------|--------|--------|


D|--------|--------|--------|--------|--------|--------|--------|--------|--------|
A|--------|--------|--------|--------|--------|--------|--------|--------|--------|
F|--------|--------|--------|--------|--------|--------|--------|--------|--------|
C|--------|--------|--------|--------|--------|--------|--------|--------|--------|
G|--------|--------|--------|--------|--------|--------|--------|--------|--------|
D|--------|--------|--------|--------|--------|--------|--------|--------|--------|


D|--------|--------|--------|--------|--------|--------|--------|-------------|--------|
A|--------|--------|--------|--------|--------|--------|--------|-------------|--------|
F|--------|--------|--------|--------|--------|--------|--------|-------------|--------|
C|--------|--------|--------|--------|--------|--------|--------|-------------|--------|
G|--------|--------|--------|--------|--------|--------|--------|-------------|--------|
D|--------|--------|--------|--------|--------|--------|--------|-------------|--------|


D|--------|--------|--------|--------|--------|--------|--------|--------|--------|
A|--------|--------|--------|--------|--------|--------|--------|--------|--------|
F|--------|--------|--------|--------|--------|--------|--------|--------|--------|
C|--------|--------|--------|--------|--------|--------|--------|--------|--------|
G|--------|--------|--------|--------|--------|--------|--------|--------|--------|
D|--------|--------|--------|--------|--------|--------|--------|--------|--------|


D|--------|--------|--------|--------|--------|--------|--------|--------|--------|
A|--------|--------|--------|--------|--------|--------|--------|--------|--------|
F|--------|--------|--------|--------|--------|--------|--------|--------|--------|
C|--------|--------|--------|--------|--------|--------|--------|--------|--------|
G|--------|--------|--------|--------|--------|--------|--------|--------|--------|
D|--------|--------|--------|--------|--------|--------|--------|--------|--------|


D|--------|--------|--------|--------|--------|--------|--------|
A|--------|--------|--------|--------|--------|--------|--------|
F|--------|--------|--------|--------|--------|--------|--------|
C|--------|--------|--------|--------|--------|--------|--------|
G|--------|--------|--------|--------|--------|--------|--------|
D|--------|--------|--------|--------|--------|--------|--------|





Track 7: Untitled

G|--------|--------|--------|--------|--------|--------|--------|--------|--------|
D|--------|--------|--------|--------|--------|--------|--------|--------|--------|
A|--------|--------|--------|--------|--------|--------|--------|--------|--------|
E|--------|--------|--------|--------|--------|--------|--------|--------|--------|


G|--------|--------|--------|--------|--------|--------|--------|--------|--------|
D|--------|--------|--------|--------|--------|--------|--------|--------|--------|
A|--------|--------|--------|--------|--------|--------|--------|--------|--------|
E|--------|--------|--------|--------|--------|--------|--------|--------|--------|


G|--------|--------|--------|--------|--------|--------|--------|--------|--------|
D|--------|--------|--------|--------|--------|--------|--------|--------|--------|
A|--------|--------|--------|--------|--------|--------|--------|--------|--------|
E|--------|--------|--------|--------|--------|--------|--------|--------|--------|


G|--------|--------|--------|--------|--------|--------|--------|--------|--------|
D|--------|--------|--------|--------|--------|--------|--------|--------|--------|
A|--------|--------|--------|--------|--------|--------|--------|--------|--------|
E|--------|--------|--------|--------|--------|--------|--------|--------|--------|


G|--------|--------|--------|--------|--------|--------|--------|--------|--------|
D|--------|--------|--------|--------|--------|--------|--------|--------|--------|
A|--------|--------|--------|--------|--------|--------|--------|--------|--------|
E|--------|--------|--------|--------|--------|--------|--------|--------|--------|


G|--------|--------|--------|--------|--------|--------|--------|--------|--------|
D|--------|--------|--------|--------|--------|--------|--------|--------|--------|
A|--------|--------|--------|--------|--------|--------|--------|--------|--------|
E|--------|--------|--------|--------|--------|--------|--------|--------|--------|


G|--------|--------|--------|--------|--------|--------|--------|--------|--------|
D|--------|--------|--------|--------|--------|--------|--------|--------|--------|
A|--------|--------|--------|--------|--------|--------|--------|--------|--------|
E|--------|--------|--------|--------|--------|--------|--------|--------|--------|


G|--------|--------|--------|--------|--------|--------|--------|--------|--------|
D|--------|--------|--------|--------|--------|--------|--------|--------|--------|
A|--------|--------|--------|--------|--------|--------|--------|--------|--------|
E|--------|--------|--------|--------|--------|--------|--------|--------|--------|


G|--------|--------|--------|--------|--------|--------|--------|--------|--------|
D|--------|--------|--------|--------|--------|--------|--------|--------|--------|
A|--------|--------|--------|--------|--------|--------|--------|--------|--------|
E|--------|--------|--------|--------|--------|--------|--------|--------|--------|


G|--------|--------|--------|--------|--------|--------|--------|--------|--------|
D|--------|--------|--------|--------|--------|--------|--------|--------|--------|
A|--------|--------|--------|--------|--------|--------|--------|--------|--------|
E|--------|--------|--------|--------|--------|--------|--------|--------|--------|


G|--------|--------|--------|--------|--------|--------|--------|--------|--------|
D|--------|--------|--------|--------|--------|--------|--------|--------|--------|
A|--------|--------|--------|--------|--------|--------|--------|--------|--------|
E|--------|--------|--------|--------|--------|--------|--------|--------|--------|


G|--------|--------|--------|--------|--------|--------|--------|--------|--------|
D|--------|--------|--------|--------|--------|--------|--------|--------|--------|
A|--------|--------|--------|--------|--------|--------|--------|--------|--------|
E|--------|--------|--------|--------|--------|--------|--------|--------|--------|


G|--------|--------|--------|--------|--------|--------|--------|--------|--------|
D|--------|--------|--------|--------|--------|--------|--------|--------|--------|
A|--------|--------|--------|--------|--------|--------|--------|--------|--------|
E|--------|--------|--------|--------|--------|--------|--------|--------|--------|


G|--------|--------|--------|--------|--------|--------|--------|--------|--------|
D|--------|--------|--------|--------|--------|--------|--------|--------|--------|
A|--------|--------|--------|--------|--------|--------|--------|--------|--------|
E|--------|--------|--------|--------|--------|--------|--------|--------|--------|


G|--------|--------|--------|--------|--------|--------|--------|--------|--------|
D|--------|--------|--------|--------|--------|--------|--------|--------|--------|
A|--------|--------|--------|--------|--------|--------|--------|--------|--------|
E|--------|--------|--------|--------|--------|--------|--------|--------|--------|


G|--------|--------|--------|--------|--------|--------|--------|--------|--------|
D|--------|--------|--------|--------|--------|--------|--------|--------|--------|
A|--------|--------|--------|--------|--------|--------|--------|--------|--------|
E|--------|--------|--------|--------|--------|--------|--------|--------|--------|


G|--------|--------|--------|--------|--------|--------|--------|
D|--------|--------|--------|--------|--------|--------|--------|
A|--------|--------|--------|--------|--------|--------|--------|
E|--------|--------|--------|--------|--------|--------|--------|