Menu:

 

Search:

 

billy talent - prisoners of today:

 



Title: Prisoners of Today
Artist: 
Album: Billy Talent
Author: Ben Kowalewicz, Ian D'sa, John Gallant & Aaron Solowoniuk


Track 1: Untitled

E|-----------------|---------------------------------|---------------------------------|
B|-----------------|---------------------------------|---------------------------------|
G|-----------------|-8-----------7-----------5-------|---------5-------5-------5-------|
D|-------------5---|-----5---5-------5---5-------5---|-5---8-------7-------5-------0---|
A|-----------------|---------------------------------|---------------------------------|
D|-----------------|---------------------------------|---------------------------------|


E|---------------------------------|---------------------------------|---------------------------------|
B|---------------------------------|---------------------------------|---------------------------------|
G|-7-----------5-----------3-------|---------3-------3-------3-------|-2---2---2---5---5---2---5---5---|
D|-----3---3-------3---3-------3---|-3---7-------5-------3-------0---|-0---0---0---0---0---0---0---0---|
A|---------------------------------|---------------------------------|---------------------------------|
D|---------------------------------|---------------------------------|---------------------------------|


E|---------------------------|---------------------------------|---------------------------|
B|---------------------------|---------------------------------|---------------------------|
G|-2---5---5---2---5----5----|-2---2---2---5---5---2---5---5---|-2---5---5---2---5---5-----|
D|-0---0---0---0-------------|-3---3---3---3---3---3---3---3---|-3---3---3---3---3---------|
A|---------------------------|---------------------------------|---------------------------|
D|---------------------------|---------------------------------|---------------------------|


E|---------------------------------|---------------------------------|---------------------------------|
B|---------------------------------|---------------------------------|---------------------------------|
G|-8---8---8---7---7---7---5---5---|-5-------------------------------|-7---7---7---5---5---5---3---3---|
D|---------------------------------|-----8---8---8---7---7---5---5---|---------------------------------|
A|---------------------------------|---------------------------------|---------------------------------|
D|---------------------------------|---------------------------------|---------------------------------|


E|---------------------------------|---------------------------------|---------------------------|
B|---------------------------------|---------------------------------|---------------------------|
G|-3-------------------------------|-2---2---2---5---5---2---5---5---|-2---5---5---2---5----5----|
D|-----7---7---7---5---5---3---3---|---------------------------------|---------------------------|
A|---------------------------------|---------------------------------|---------------------------|
D|---------------------------------|---------------------------------|---------------------------|


E|---------------------------------|------------------------------|-----------------------|
B|---------------------------------|------------------------------|-----------------------|
G|-2---2---2---5---5---2---5---5---|-2---5---5---2---5------------|-----------------------|
D|---------------------------------|------------------------------|-5---5-----------------|
A|---------------------------------|----------------------3---3---|-5---5---------3---3---|
D|---------------------------------|------------------------------|-----------------------|


E|-----------------------|-----------------------|-----------------------|-----------------------|
B|-----------------------|-----------------------|-----------------------|-----------------------|
G|-----------------------|-----------------------|-----------------------|-----------------------|
D|-7---7-----------------|-5---5-----------------|-7---7-----------------|-5---5-----------------|
A|-5---5---------3---3---|-5---5---------3---3---|-5---5---------3---3---|-5---5---------3---3---|
D|-----------------------|-----------------------|-----------------------|-----------------------|


E|-----------------------|-----------------------|-----------------------|-------------3---3---------------|
B|-----------------------|-----------------------|-----------------------|-------------3---3---------------|
G|-----------------------|-----------------------|-----------------------|-------------3---3---------------|
D|-7---7-----------------|-5---5-----------------|-7---7-----------------|-5---5---------------------------|
A|-5---5---------3---3---|-5---5---------3---3---|-5---5---------3---3---|-5---5-------------------3---3---|
D|-----------------------|-----------------------|-----------------------|---------------------------------|


E|-------------5---5---------------|---------------------------------|-------------5---5---------------|
B|-------------4---4---------------|-------------3---3---------------|-------------4---4---------------|
G|-------------5---5---------------|-------------3---3---------------|-------------5---5---------------|
D|-7---7---------------------------|-5---5-------5---5---------------|-7---7---------------------------|
A|-5---5-------------------3---3---|-5---5-------------------3---3---|-5---5-------------------3---3---|
D|---------------------------------|---------------------------------|---------------------------------|


E|-------------3---3---------------|-------------5---5---------------|---------------------------------|
B|-------------3---3---------------|-------------4---4---------------|-------------3---3---------------|
G|-------------3---3---------------|-------------5---5---------------|-------------3---3---------------|
D|-5---5---------------------------|-7---7---------------------------|-5---5-------5---5---------------|
A|-5---5-------------------3---3---|-5---5-------------------3---3---|-5---5-------------------3---3---|
D|---------------------------------|---------------------------------|---------------------------------|


E|-------------5---5---------------|-------------3---3---------------|-------------5---5---------------|
B|-------------4---4---------------|-------------3---3---------------|-------------4---4---------------|
G|-------------5---5---------------|-------------3---3---------------|-------------5---5---------------|
D|-7---7---------------------------|-5---5---------------------------|-7---7---------------------------|
A|-5---5-------------------3---3---|-5---5-------------------3---3---|-5---5-------------------3---3---|
D|---------------------------------|---------------------------------|---------------------------------|


E|---------------------------------|-------------5---5---------------|---------------------------------|
B|-------------3---3---------------|-------------4---4---------------|---------------------------------|
G|-------------3---3---------------|-------------5---5---------------|-8-----------7-----------5-------|
D|-5---5-------5---5---------------|-7---7-----------------------5---|-----5---5-------5---5-------5---|
A|-5---5-------------------3---3---|-5---5---------------------------|---------------------------------|
D|---------------------------------|---------------------------------|---------------------------------|


E|---------------------------------|---------------------------------|---------------------------------|
B|---------------------------------|---------------------------------|---------------------------------|
G|---------5-------5-------5-------|-7-----------5-----------3-------|---------3-------3-------3-------|
D|-5---8-------7-------5-------0---|-----3---3-------3---3-------3---|-3---7-------5-------3-------0---|
A|---------------------------------|---------------------------------|---------------------------------|
D|---------------------------------|---------------------------------|---------------------------------|


E|---------------------------------|---------------------------|---------------------------------|
B|---------------------------------|---------------------------|---------------------------------|
G|-2---2---2---5---2---2---5---2---|-2---5---2---2---5----5----|-2---2---2---5---5---2---5---5---|
D|-0---0---0---0---0---0---0---0---|-0---0---0---0-------------|-3---3---3---3---3---3---3---3---|
A|---------------------------------|---------------------------|---------------------------------|
D|---------------------------------|---------------------------|---------------------------------|


E|------------------------------|-------------3---3---------------|-------------5---5---------------|
B|------------------------------|-------------3---3---------------|-------------4---4---------------|
G|-2---5---5---2---5------------|-------------3---3---------------|-------------5---5---------------|
D|-3---3---3---3---3------------|-5---5---------------------------|-7---7---------------------------|
A|----------------------3---3---|-5---5-------------------3---3---|-5---5-------------------3---3---|
D|------------------------------|---------------------------------|---------------------------------|


E|---------------------------------|-------------5---5---------------|-----------------------|
B|-------------3---3---------------|-------------4---4---------------|-----------------------|
G|-------------3---3---------------|-------------5---5---------------|-----------------------|
D|-5---5-------5---5---------------|-7---7---------------------------|-5---5-----------------|
A|-5---5-------------------3---3---|-5---5-------------------3---3---|-5---5---------3---3---|
D|---------------------------------|---------------------------------|-----------------------|


E|-----------------------|-----------------------|-----------------------|-----------------------|
B|-----------------------|-----------------------|-----------------------|-----------------------|
G|-----------------------|-----------------------|-----------------------|-----------------------|
D|-7---7-----------------|-5---5-----------------|-7---7-----------------|-5---5-----------------|
A|-5---5---------3---3---|-5---5---------3---3---|-5---5---------3---3---|-5---5---------3---3---|
D|-----------------------|-----------------------|-----------------------|-----------------------|


E|-----------------------|-----------------------|-----------------------|-------------3---3---------------|
B|-----------------------|-----------------------|-----------------------|-------------3---3---------------|
G|-----------------------|-----------------------|-----------------------|-------------3---3---------------|
D|-7---7-----------------|-5---5-----------------|-7---7-----------------|-5---5---------------------------|
A|-5---5---------3---3---|-5---5---------3---3---|-5---5---------3---3---|-5---5-------------------3---3---|
D|-----------------------|-----------------------|-----------------------|---------------------------------|


E|-------------5---5---------------|---------------------------------|-------------5---5---------------|
B|-------------4---4---------------|-------------3---3---------------|-------------4---4---------------|
G|-------------5---5---------------|-------------3---3---------------|-------------5---5---------------|
D|-7---7---------------------------|-5---5-------5---5---------------|-7---7---------------------------|
A|-5---5-------------------3---3---|-5---5-------------------3---3---|-5---5-------------------3---3---|
D|---------------------------------|---------------------------------|---------------------------------|


E|-------------3---3---------------|-------------5---5---------------|---------------------------------|
B|-------------3---3---------------|-------------4---4---------------|-------------3---3---------------|
G|-------------3---3---------------|-------------5---5---------------|-------------3---3---------------|
D|-5---5---------------------------|-7---7---------------------------|-5---5-------5---5---------------|
A|-5---5-------------------3---3---|-5---5-------------------3---3---|-5---5-------------------3---3---|
D|---------------------------------|---------------------------------|---------------------------------|


E|-------------5---5---------------|---------------------------------|---------------------------------|
B|-------------4---4---------------|---------------------------------|---------------------------------|
G|-------------5---5---------------|-8-----------7-----------5-------|---------5-------5-------5-------|
D|-7---7-----------------------5---|-----5---5-------5---5-------5---|-5---8-------7-------5-------0---|
A|-5---5---------------------------|---------------------------------|---------------------------------|
D|---------------------------------|---------------------------------|---------------------------------|


E|---------------------------------|---------------------------------|---------------------------------|
B|---------------------------------|---------------------------------|---------------------------------|
G|-7-----------5-----------3-------|---------3-------3-------3-------|-2---2---2---5---2---2---5---2---|
D|-----3---3-------3---3-------3---|-3---7-------5-------3-------0---|-0---0---0---0---0---0---0---0---|
A|---------------------------------|---------------------------------|---------------------------------|
D|---------------------------------|---------------------------------|---------------------------------|


E|---------------------------|---------------------------------|-----------------------|
B|---------------------------|---------------------------------|-----------------------|
G|-2---5---2---2---5----5----|-2---2---2---5---5---2---5---5---|-2---5---5---2---5-----|
D|-0---0---0---0-------------|-3---3---3---3---3---3---3---3---|-3---3---3---3---3-----|
A|---------------------------|---------------------------------|-----------------------|
D|---------------------------|---------------------------------|-----------------------|


E|---------------------------------|---------------------------------|---------------------------------|
B|---------------------------------|---------------------------------|---------------------------------|
G|-8---8---8---7---7---7---5---5---|-5-------------------------------|-7---7---7---5---5---5---3---3---|
D|---------------------------------|-----8---8---8---7---7---5---5---|---------------------------------|
A|---------------------------------|---------------------------------|---------------------------------|
D|---------------------------------|---------------------------------|---------------------------------|


E|---------------------------------|---------------------------------|---------------------------|
B|---------------------------------|---------------------------------|---------------------------|
G|-3-------------------------------|-2---2---2---5---5---2---5---5---|-2---5---5---2---5----5----|
D|-----7---7---7---5---5---3---3---|---------------------------------|---------------------------|
A|---------------------------------|---------------------------------|---------------------------|
D|---------------------------------|---------------------------------|---------------------------|


E|---------------------------------|-----------------------|---------------------------------|
B|---------------------------------|-----------------------|---------------------------------|
G|-2---2---2---5---5---2---5---5---|-2---5---5---2---5-----|-8---8---8---7---7---7---5---5---|
D|---------------------------------|-----------------------|---------------------------------|
A|---------------------------------|-----------------------|---------------------------------|
D|---------------------------------|-----------------------|---------------------------------|


E|---------------------------------|---------------------------------|---------------------------------|
B|---------------------------------|---------------------------------|---------------------------------|
G|-5-------------------------------|-7---7---7---5---5---5---3---3---|-3-------------------------------|
D|-----8---8---8---7---7---5---5---|---------------------------------|-----7---7---7---5---5---3---3---|
A|---------------------------------|---------------------------------|---------------------------------|
D|---------------------------------|---------------------------------|---------------------------------|


E|---------------------------------|---------------------------|---------------------------------|
B|---------------------------------|---------------------------|---------------------------------|
G|-2---2---2---5---5---2---5---5---|-2---5---5---2---5----5----|-2---2---2---5---5---2---5---5---|
D|---------------------------------|---------------------------|---------------------------------|
A|---------------------------------|---------------------------|---------------------------------|
D|---------------------------------|---------------------------|---------------------------------|


E|-----------------------|-3---3-------3---3----3-------|-1---1-------1---1----1-------|
B|-----------------------|-4---4-------4---4----4-------|-3---3-------3---3----3-------|
G|-2---5---5---2---5-----|-5---5-------5---5----5-------|-3---3-------3---3----3-------|
D|-----------------------|------------------------------|------------------------------|
A|-----------------------|------------------------------|------------------------------|
D|-----------------------|------------------------------|------------------------------|


E|------------------------------|------------------------------|-3---3-------3---3----3-------|
B|-6---6-------6---6----6-------|------------------------------|-4---4-------4---4----4-------|
G|-0---0-------0---0----0-------|------------------------------|-5---5-------5---5----5-------|
D|-7---7-------7---7----7-------|-5---5-------5---5----5-------|------------------------------|
A|------------------------------|-6---6-------6---6----6-------|------------------------------|
D|------------------------------|------------------------------|------------------------------|


E|-1---1-------1---1----1-------|-0---0-------0---0----0-------|------------------------------|
B|-3---3-------3---3----3-------|-6---6-------6---6----6-------|------------------------------|
G|-3---3-------3---3----3-------|-7---7-------7---7----7-------|------------------------------|
D|------------------------------|-7---7-------7---7----7-------|-5---5-------5---5----5-------|
A|------------------------------|------------------------------|-6---6-------6---6----6-------|
D|------------------------------|------------------------------|------------------------------|


E|-3---3-------3---3----3-------|-1---1-------1---1----1-------|------------------------------|
B|-4---4-------4---4----4-------|-3---3-------3---3----3-------|-6---6-------6---6----6-------|
G|-5---5-------5---5----5-------|-3---3-------3---3----3-------|-0---0-------0---0----0-------|
D|------------------------------|------------------------------|-7---7-------7---7----7-------|
A|------------------------------|------------------------------|------------------------------|
D|------------------------------|------------------------------|------------------------------|


E|------------------------------|-3---3-------3---3----3-------|-1---1-------1---1----1-------|
B|------------------------------|-4---4-------4---4----4-------|-3---3-------3---3----3-------|
G|------------------------------|-5---5-------5---5----5-------|-3---3-------3---3----3-------|
D|-5---5-------5---5----5-------|------------------------------|------------------------------|
A|-6---6-------6---6----6-------|------------------------------|------------------------------|
D|------------------------------|------------------------------|------------------------------|


E|-0---0-------0---0----0-------|------------------------------|-3---3---3---3---3---3---3---3---|
B|-6---6-------6---6----6-------|------------------------------|-4---4---4---4---4---4---4---4---|
G|-7---7-------7---7----7-------|------------------------------|-5---5---5---5---5---5---5---5---|
D|-7---7-------7---7----7-------|-5---5-------5---5----5-------|---------------------------------|
A|------------------------------|-6---6-------6---6----6-------|---------------------------------|
D|------------------------------|------------------------------|---------------------------------|


E|-1---1---1---1---1---1---1---1---|-0---0---0---0---0---0---0---0---|---------------------------------|
B|-3---3---3---3---3---3---3---3---|-6---6---6---6---6---6---6---6---|---------------------------------|
G|-3---3---3---3---3---3---3---3---|-7---7---7---7---7---7---7---7---|---------------------------------|
D|---------------------------------|-7---7---7---7---7---7---7---7---|-5---5---5---5---5---5---5---5---|
A|---------------------------------|---------------------------------|-6---6---6---6---6---6---6---6---|
D|---------------------------------|---------------------------------|---------------------------------|


E|-3---3---3---3---3---3---3---3---|-1---1---1---1---1---1---1---1---|-0---0---0---0---0---0---0---0---|
B|-4---4---4---4---4---4---4---4---|-3---3---3---3---3---3---3---3---|-6---6---6---6---6---6---6---6---|
G|-5---5---5---5---5---5---5---5---|-3---3---3---3---3---3---3---3---|-7---7---7---7---7---7---7---7---|
D|---------------------------------|---------------------------------|-7---7---7---7---7---7---7---7---|
A|---------------------------------|---------------------------------|---------------------------------|
D|---------------------------------|---------------------------------|---------------------------------|


E|---------------------------------|---------------------------------|---------------------------------|
B|---------------------------------|---------------------------------|---------------------------------|
G|---------------------------------|-8-----------7-----------5-------|---------5-------5-------5-------|
D|-5---5---5---5---5---5---5---5---|-----5---5-------5---5-------5---|-5---8-------7-------5-------0---|
A|-6---6---6---6---6---6---6-------|---------------------------------|---------------------------------|
D|---------------------------------|---------------------------------|---------------------------------|


E|---------------------------------|---------------------------------|---------------------------------|
B|---------------------------------|---------------------------------|---------------------------------|
G|-7-----------5-----------3-------|---------3-------3-------3-------|-2---2---2---5---2---2---5---2---|
D|-----3---3-------3---3-------3---|-3---7-------5-------3-------0---|-0---0---0---0---0---0---0---0---|
A|---------------------------------|---------------------------------|---------------------------------|
D|---------------------------------|---------------------------------|---------------------------------|


E|---------------------------|---------------------------------|-----------------------|
B|---------------------------|---------------------------------|-----------------------|
G|-2---5---2---2---5----5----|-2---2---2---5---5---2---5---5---|-2---5---5---2---5-----|
D|-0---0---0---0-------------|-3---3---3---3---3---3---3---3---|-3---3---3---3---3-----|
A|---------------------------|---------------------------------|-----------------------|
D|---------------------------|---------------------------------|-----------------------|


E|---------------------------------|---------------------------------|---------------------------------|
B|---------------------------------|---------------------------------|---------------------------------|
G|-8-----------7-----------5-------|---------5-------5-------5-------|-7-----------5-----------3-------|
D|-----5---5-------5---5-------5---|-5---8-------7-------5-------0---|-----3---3-------3---3-------3---|
A|---------------------------------|---------------------------------|---------------------------------|
D|---------------------------------|---------------------------------|---------------------------------|


E|---------------------------------|---------------------------------|---------------------------|
B|---------------------------------|---------------------------------|---------------------------|
G|---------3-------3-------3-------|-2---2---2---5---2---2---5---2---|-2---5---2---2---5----5----|
D|-3---7-------5-------3-------0---|-0---0---0---0---0---0---0---0---|-0---0---0---0-------------|
A|---------------------------------|---------------------------------|---------------------------|
D|---------------------------------|---------------------------------|---------------------------|


E|---------------------------------|-----------------------|---------------------------------|
B|---------------------------------|-----------------------|---------------------------------|
G|-2---2---2---5---5---2---5---5---|-2---5---5---2---5-----|-8---8---8---7---7---7---5---5---|
D|-3---3---3---3---3---3---3---3---|-3---3---3---3---3-----|---------------------------------|
A|---------------------------------|-----------------------|---------------------------------|
D|---------------------------------|-----------------------|---------------------------------|


E|---------------------------------|---------------------------------|---------------------------------|
B|---------------------------------|---------------------------------|---------------------------------|
G|-5-------------------------------|-7---7---7---5---5---5---3---3---|-3-------------------------------|
D|-----8---8---8---7---7---5---5---|---------------------------------|-----7---7---7---5---5---3---3---|
A|---------------------------------|---------------------------------|---------------------------------|
D|---------------------------------|---------------------------------|---------------------------------|


E|---------------------------------|---------------------------|---------------------------------|
B|---------------------------------|---------------------------|---------------------------------|
G|-2---2---2---5---5---2---5---5---|-2---5---5---2---5----5----|-2---2---2---5---5---2---5---5---|
D|---------------------------------|---------------------------|---------------------------------|
A|---------------------------------|---------------------------|---------------------------------|
D|---------------------------------|---------------------------|---------------------------------|


E|-----------------------|---------------------------------|---------------------------------|
B|-----------------------|---------------------------------|---------------------------------|
G|-2---5---5---2---5-----|-8---8---8---7---7---7---5---5---|-5-------------------------------|
D|-----------------------|---------------------------------|-----8---8---8---7---7---5---5---|
A|-----------------------|---------------------------------|---------------------------------|
D|-----------------------|---------------------------------|---------------------------------|


E|---------------------------------|---------------------------------|---------------------------------|
B|---------------------------------|---------------------------------|---------------------------------|
G|-7---7---7---5---5---5---3---3---|-3-------------------------------|-2---2---2---5---5---2---5---5---|
D|---------------------------------|-----7---7---7---5---5---3---3---|---------------------------------|
A|---------------------------------|---------------------------------|---------------------------------|
D|---------------------------------|---------------------------------|---------------------------------|


E|---------------------------|---------------------------------|-----------------------|
B|---------------------------|---------------------------------|-----------------------|
G|-2---5---5---2---5----5----|-2---2---2---5---5---2---5---5---|-2---5---5---2---5-----|
D|---------------------------|---------------------------------|-----------------------|
A|---------------------------|---------------------------------|-----------------------|
D|---------------------------|---------------------------------|-----------------------|


E|---------------------------------|---------------------------------|---------------------------------|
B|---------------------------------|---------------------------------|---------------------------------|
G|-8---8---8---7---7---7---5---5---|-5-------------------------------|-7---7---7---5---5---5---3---3---|
D|---------------------------------|-----8---8---8---7---7---5---5---|---------------------------------|
A|---------------------------------|---------------------------------|---------------------------------|
D|---------------------------------|---------------------------------|---------------------------------|


E|---------------------------------|---------------------------------|---------------------------|
B|---------------------------------|---------------------------------|---------------------------|
G|-3-------------------------------|-2---2---2---5---5---2---5---5---|-2---5---5---2---5----5----|
D|-----7---7---7---5---5---3---3---|---------------------------------|---------------------------|
A|---------------------------------|---------------------------------|---------------------------|
D|---------------------------------|---------------------------------|---------------------------|


E|---------------------------------|-----------------------|---------------------------------|
B|---------------------------------|-----------------------|---------------------------------|
G|-2---2---2---5---5---2---5---5---|-2---5---5---2---5-----|-8---8---8---7---7---7---5---5---|
D|---------------------------------|-----------------------|---------------------------------|
A|---------------------------------|-----------------------|---------------------------------|
D|---------------------------------|-----------------------|---------------------------------|


E|---------------------------------|---------------------------------|---------------------------------|
B|---------------------------------|---------------------------------|---------------------------------|
G|-5-------------------------------|-7---7---7---5---5---5---3---3---|-3-------------------------------|
D|-----8---8---8---7---7---5---5---|---------------------------------|-----7---7---7---5---5---3---3---|
A|---------------------------------|---------------------------------|---------------------------------|
D|---------------------------------|---------------------------------|---------------------------------|


E|---------------------------------|---------------------------|---------------------------------|
B|---------------------------------|---------------------------|---------------------------------|
G|-2---2---2---5---5---2---5---5---|-2---5---5---2---5----5----|-2---2---2---5---5---2---5---5---|
D|---------------------------------|---------------------------|---------------------------------|
A|---------------------------------|---------------------------|---------------------------------|
D|---------------------------------|---------------------------|---------------------------------|


E|------------------------------|-------------3---3------------|
B|------------------------------|-------------3---3------------|
G|-2---5---5---2---5------------|-------------3---3------------|
D|------------------------------|-5---5------------------------|
A|----------------------3---3---|-5---5------------------------|
D|------------------------------|------------------------------|





Track 2: Untitled

E|--------|--------|--------|--------|--------|--------|--------|--------|--------|
B|--------|--------|--------|--------|--------|--------|--------|--------|--------|
G|--------|--------|--------|--------|--------|--------|--------|--------|--------|
D|--------|--------|--------|--------|--------|--------|--------|--------|--------|
A|--------|--------|--------|--------|--------|--------|--------|--------|--------|
D|--------|--------|--------|--------|--------|--------|--------|--------|--------|


E|---------------------------------|---------------------------------|---------------------------------|
B|---------------------------------|---------------------------------|---------------------------------|
G|---------------------------------|---------------------------------|---------------------------------|
D|-5---5---5---5---5---5---5---5---|-5---5---5---5---5---5---5---5---|-3---3---3---3---3---3---3---3---|
A|-5---5---5---5---5---5---5---5---|-5---5---5---5---5---5---5---5---|-3---3---3---3---3---3---3---3---|
D|-5---5---5---5---5---5---5---5---|-5---5---5---5---5---5---5---5---|-3---3---3---3---3---3---3---3---|


E|---------------------------------|---------------------------------|---------------------------------|
B|---------------------------------|---------------------------------|---------------------------------|
G|---------------------------------|---------------------------------|---------------------------------|
D|-3---3---3---3---3---3---3---3---|-0---0---0---0---0---0---0---0---|-0---0---0---0---0---0---0---0---|
A|-3---3---3---3---3---3---3---3---|-0---0---0---0---0---0---0---0---|-0---0---0---0---0---0---0---0---|
D|-3---3---3---3---3---3---3---3---|-0---0---0---0---0---0---0---0---|-0---0---0---0---0---0---0---0---|


E|---------------------------------|------------------------------|--------|--------|
B|---------------------------------|------------------------------|--------|--------|
G|---------------------------------|------------------------------|--------|--------|
D|-3---3---3---3---3---3---3---3---|-3---3---3---3---3---3--------|--------|--------|
A|-3---3---3---3---3---3---3---3---|-3---3---3---3---3---3--------|--------|--------|
D|-3---3---3---3---3---3---3---3---|-3---3---3---3---3---3--------|--------|--------|


E|--------|--------|--------|--------|--------|--------|--------|--------|--------|
B|--------|--------|--------|--------|--------|--------|--------|--------|--------|
G|--------|--------|--------|--------|--------|--------|--------|--------|--------|
D|--------|--------|--------|--------|--------|--------|--------|--------|--------|
A|--------|--------|--------|--------|--------|--------|--------|--------|--------|
D|--------|--------|--------|--------|--------|--------|--------|--------|--------|


E|--------|--------|--------|--------|--------|--------|--------|--------|--------|
B|--------|--------|--------|--------|--------|--------|--------|--------|--------|
G|--------|--------|--------|--------|--------|--------|--------|--------|--------|
D|--------|--------|--------|--------|--------|--------|--------|--------|--------|
A|--------|--------|--------|--------|--------|--------|--------|--------|--------|
D|--------|--------|--------|--------|--------|--------|--------|--------|--------|


E|--------|--------|--------|--------|--------|--------|--------|--------|--------|
B|--------|--------|--------|--------|--------|--------|--------|--------|--------|
G|--------|--------|--------|--------|--------|--------|--------|--------|--------|
D|--------|--------|--------|--------|--------|--------|--------|--------|--------|
A|--------|--------|--------|--------|--------|--------|--------|--------|--------|
D|--------|--------|--------|--------|--------|--------|--------|--------|--------|


E|--------|--------|--------|--------|--------|--------|--------|--------|--------|
B|--------|--------|--------|--------|--------|--------|--------|--------|--------|
G|--------|--------|--------|--------|--------|--------|--------|--------|--------|
D|--------|--------|--------|--------|--------|--------|--------|--------|--------|
A|--------|--------|--------|--------|--------|--------|--------|--------|--------|
D|--------|--------|--------|--------|--------|--------|--------|--------|--------|


E|--------|--------|--------|--------|--------|--------|--------|--------|--------|
B|--------|--------|--------|--------|--------|--------|--------|--------|--------|
G|--------|--------|--------|--------|--------|--------|--------|--------|--------|
D|--------|--------|--------|--------|--------|--------|--------|--------|--------|
A|--------|--------|--------|--------|--------|--------|--------|--------|--------|
D|--------|--------|--------|--------|--------|--------|--------|--------|--------|


E|--------|--------|--------|--------|--------|--------|--------|--------|--------|
B|--------|--------|--------|--------|--------|--------|--------|--------|--------|
G|--------|--------|--------|--------|--------|--------|--------|--------|--------|
D|--------|--------|--------|--------|--------|--------|--------|--------|--------|
A|--------|--------|--------|--------|--------|--------|--------|--------|--------|
D|--------|--------|--------|--------|--------|--------|--------|--------|--------|


E|---------------------------------|---------------------------------|---------------------------------|
B|---------------------------------|---------------------------------|---------------------------------|
G|---------------------------------|---------------------------------|---------------------------------|
D|-5---5---5---5---5---5---5---5---|-5---5---5---5---5---5---5---5---|-3---3---3---3---3---3---3---3---|
A|-5---5---5---5---5---5---5---5---|-5---5---5---5---5---5---5---5---|-3---3---3---3---3---3---3---3---|
D|-5---5---5---5---5---5---5---5---|-5---5---5---5---5---5---5---5---|-3---3---3---3---3---3---3---3---|


E|---------------------------------|---------------------------------|---------------------------------|
B|---------------------------------|---------------------------------|---------------------------------|
G|---------------------------------|---------------------------------|---------------------------------|
D|-3---3---3---3---3---3---3---3---|-0---0---0---0---0---0---0---0---|-0---0---0---0---0---0---0---0---|
A|-3---3---3---3---3---3---3---3---|-0---0---0---0---0---0---0---0---|-0---0---0---0---0---0---0---0---|
D|-3---3---3---3---3---3---3---3---|-0---0---0---0---0---0---0---0---|-0---0---0---0---0---0---0---0---|


E|---------------------------------|---------------------------------|---------------------------------|
B|---------------------------------|---------------------------------|---------------------------------|
G|---------------------------------|---------------------------------|---------------------------------|
D|-3---3---3---3---3---3---3---3---|-3---3---3---3---3---3---3---3---|-5---5---5---5---5---5---5---5---|
A|-3---3---3---3---3---3---3---3---|-3---3---3---3---3---3---3---3---|-5---5---5---5---5---5---5---5---|
D|-3---3---3---3---3---3---3---3---|-3---3---3---3---3---3---3---3---|-5---5---5---5---5---5---5---5---|


E|---------------------------------|---------------------------------|---------------------------------|
B|---------------------------------|---------------------------------|---------------------------------|
G|---------------------------------|---------------------------------|---------------------------------|
D|-5---5---5---5---5---5---5---5---|-3---3---3---3---3---3---3---3---|-3---3---3---3---3---3---3---3---|
A|-5---5---5---5---5---5---5---5---|-3---3---3---3---3---3---3---3---|-3---3---3---3---3---3---3---3---|
D|-5---5---5---5---5---5---5---5---|-3---3---3---3---3---3---3---3---|-3---3---3---3---3---3---3---3---|


E|---------------------------------|---------------------------------|---------------------------------|
B|---------------------------------|---------------------------------|---------------------------------|
G|---------------------------------|---------------------------------|---------------------------------|
D|-0---0---0---0---0---0---0---0---|-0---0---0---0---0---0---0---0---|-3---3---3---3---3---3---3---3---|
A|-0---0---0---0---0---0---0---0---|-0---0---0---0---0---0---0---0---|-3---3---3---3---3---3---3---3---|
D|-0---0---0---0---0---0---0---0---|-0---0---0---0---0---0---0---0---|-3---3---3---3---3---3---3---3---|


E|---------------------------------|--------|--------|--------|--------|--------|--------|
B|---------------------------------|--------|--------|--------|--------|--------|--------|
G|---------------------------------|--------|--------|--------|--------|--------|--------|
D|-3---3---3---3---3---3---3---3---|--------|--------|--------|--------|--------|--------|
A|-3---3---3---3---3---3---3---3---|--------|--------|--------|--------|--------|--------|
D|-3---3---3---3---3---3---3---3---|--------|--------|--------|--------|--------|--------|


E|--------|--------|--------|--------|--------|--------|--------|--------|--------|
B|--------|--------|--------|--------|--------|--------|--------|--------|--------|
G|--------|--------|--------|--------|--------|--------|--------|--------|--------|
D|--------|--------|--------|--------|--------|--------|--------|--------|--------|
A|--------|--------|--------|--------|--------|--------|--------|--------|--------|
D|--------|--------|--------|--------|--------|--------|--------|--------|--------|


E|--------|--------|--------|--------|--------|--------|--------|--------|--------|
B|--------|--------|--------|--------|--------|--------|--------|--------|--------|
G|--------|--------|--------|--------|--------|--------|--------|--------|--------|
D|--------|--------|--------|--------|--------|--------|--------|--------|--------|
A|--------|--------|--------|--------|--------|--------|--------|--------|--------|
D|--------|--------|--------|--------|--------|--------|--------|--------|--------|


E|--------|--------|--------|--------|--------|--------|--------|--------|--------|
B|--------|--------|--------|--------|--------|--------|--------|--------|--------|
G|--------|--------|--------|--------|--------|--------|--------|--------|--------|
D|--------|--------|--------|--------|--------|--------|--------|--------|--------|
A|--------|--------|--------|--------|--------|--------|--------|--------|--------|
D|--------|--------|--------|--------|--------|--------|--------|--------|--------|


E|--------|--------|--------|--------|--------|--------|--------|---------------------------------|
B|--------|--------|--------|--------|--------|--------|--------|---------------------------------|
G|--------|--------|--------|--------|--------|--------|--------|---------------------------------|
D|--------|--------|--------|--------|--------|--------|--------|-5---5---5---5---5---5---5---5---|
A|--------|--------|--------|--------|--------|--------|--------|-5---5---5---5---5---5---5---5---|
D|--------|--------|--------|--------|--------|--------|--------|-5---5---5---5---5---5---5---5---|


E|---------------------------------|---------------------------------|---------------------------------|
B|---------------------------------|---------------------------------|---------------------------------|
G|---------------------------------|---------------------------------|---------------------------------|
D|-5---5---5---5---5---5---5---5---|-3---3---3---3---3---3---3---3---|-3---3---3---3---3---3---3---3---|
A|-5---5---5---5---5---5---5---5---|-3---3---3---3---3---3---3---3---|-3---3---3---3---3---3---3---3---|
D|-5---5---5---5---5---5---5---5---|-3---3---3---3---3---3---3---3---|-3---3---3---3---3---3---3---3---|


E|---------------------------------|---------------------------------|---------------------------------|
B|---------------------------------|---------------------------------|---------------------------------|
G|---------------------------------|---------------------------------|---------------------------------|
D|-0---0---0---0---0---0---0---0---|-0---0---0---0---0---0---0---0---|-3---3---3---3---3---3---3---3---|
A|-0---0---0---0---0---0---0---0---|-0---0---0---0---0---0---0---0---|-3---3---3---3---3---3---3---3---|
D|-0---0---0---0---0---0---0---0---|-0---0---0---0---0---0---0---0---|-3---3---3---3---3---3---3---3---|


E|---------------------------------|---------------------------------|---------------------------------|
B|---------------------------------|---------------------------------|---------------------------------|
G|---------------------------------|---------------------------------|---------------------------------|
D|-3---3---3---3---3---3---3---3---|-5---5---5---5---5---5---5---5---|-5---5---5---5---5---5---5---5---|
A|-3---3---3---3---3---3---3---3---|-5---5---5---5---5---5---5---5---|-5---5---5---5---5---5---5---5---|
D|-3---3---3---3---3---3---3---3---|-5---5---5---5---5---5---5---5---|-5---5---5---5---5---5---5---5---|


E|---------------------------------|---------------------------------|---------------------------------|
B|---------------------------------|---------------------------------|---------------------------------|
G|---------------------------------|---------------------------------|---------------------------------|
D|-3---3---3---3---3---3---3---3---|-3---3---3---3---3---3---3---3---|-0---0---0---0---0---0---0---0---|
A|-3---3---3---3---3---3---3---3---|-3---3---3---3---3---3---3---3---|-0---0---0---0---0---0---0---0---|
D|-3---3---3---3---3---3---3---3---|-3---3---3---3---3---3---3---3---|-0---0---0---0---0---0---0---0---|


E|---------------------------------|---------------------------------|---------------------------------|
B|---------------------------------|---------------------------------|---------------------------------|
G|---------------------------------|---------------------------------|---------------------------------|
D|-0---0---0---0---0---0---0---0---|-3---3---3---3---3---3---3---3---|-3---3---3---3---3---3---3---3---|
A|-0---0---0---0---0---0---0---0---|-3---3---3---3---3---3---3---3---|-3---3---3---3---3---3---3---3---|
D|-0---0---0---0---0---0---0---0---|-3---3---3---3---3---3---3---3---|-3---3---3---3---3---3---3---3---|


E|---------------------------------|---------------------------------|---------------------------------|
B|---------------------------------|---------------------------------|---------------------------------|
G|---------------------------------|---------------------------------|---------------------------------|
D|-5---5---5---5---5---5---5---5---|-5---5---5---5---5---5---5---5---|-3---3---3---3---3---3---3---3---|
A|-5---5---5---5---5---5---5---5---|-5---5---5---5---5---5---5---5---|-3---3---3---3---3---3---3---3---|
D|-5---5---5---5---5---5---5---5---|-5---5---5---5---5---5---5---5---|-3---3---3---3---3---3---3---3---|


E|---------------------------------|---------------------------------|---------------------------------|
B|---------------------------------|---------------------------------|---------------------------------|
G|---------------------------------|---------------------------------|---------------------------------|
D|-3---3---3---3---3---3---3---3---|-0---0---0---0---0---0---0---0---|-0---0---0---0---0---0---0---0---|
A|-3---3---3---3---3---3---3---3---|-0---0---0---0---0---0---0---0---|-0---0---0---0---0---0---0---0---|
D|-3---3---3---3---3---3---3---3---|-0---0---0---0---0---0---0---0---|-0---0---0---0---0---0---0---0---|


E|---------------------------------|---------------------------------|---------------------------------|
B|---------------------------------|---------------------------------|---------------------------------|
G|---------------------------------|---------------------------------|---------------------------------|
D|-3---3---3---3---3---3---3---3---|-3---3---3---3---3---3---3---3---|-5---5---5---5---5---5---5---5---|
A|-3---3---3---3---3---3---3---3---|-3---3---3---3---3---3---3---3---|-5---5---5---5---5---5---5---5---|
D|-3---3---3---3---3---3---3---3---|-3---3---3---3---3---3---3---3---|-5---5---5---5---5---5---5---5---|


E|---------------------------------|---------------------------------|---------------------------------|
B|---------------------------------|---------------------------------|---------------------------------|
G|---------------------------------|---------------------------------|---------------------------------|
D|-5---5---5---5---5---5---5---5---|-3---3---3---3---3---3---3---3---|-3---3---3---3---3---3---3---3---|
A|-5---5---5---5---5---5---5---5---|-3---3---3---3---3---3---3---3---|-3---3---3---3---3---3---3---3---|
D|-5---5---5---5---5---5---5---5---|-3---3---3---3---3---3---3---3---|-3---3---3---3---3---3---3---3---|


E|---------------------------------|---------------------------------|---------------------------------|
B|---------------------------------|---------------------------------|---------------------------------|
G|---------------------------------|---------------------------------|---------------------------------|
D|-0---0---0---0---0---0---0---0---|-0---0---0---0---0---0---0---0---|-3---3---3---3---3---3---3---3---|
A|-0---0---0---0---0---0---0---0---|-0---0---0---0---0---0---0---0---|-3---3---3---3---3---3---3---3---|
D|-0---0---0---0---0---0---0---0---|-0---0---0---0---0---0---0---0---|-3---3---3---3---3---3---3---3---|


E|------------------------------|--------|
B|------------------------------|--------|
G|------------------------------|--------|
D|-3---3---3---3---3---3--------|--------|
A|-3---3---3---3---3---3--------|--------|
D|-3---3---3---3---3---3--------|--------|





Track 3: Untitled

G|--------|--------|--------|--------|--------|--------|--------|--------|--------|
D|--------|--------|--------|--------|--------|--------|--------|--------|--------|
A|--------|--------|--------|--------|--------|--------|--------|--------|--------|
D|--------|--------|--------|--------|--------|--------|--------|--------|--------|


G|---------------------------------|---------------------------------|---------------------------------|
D|-5---5---5---5---5---5---5---5---|-5---5---5---5---5---5---5---5---|-3---3---3---3---3---3---3---3---|
A|---------------------------------|---------------------------------|---------------------------------|
D|---------------------------------|---------------------------------|---------------------------------|


G|---------------------------------|---------------------------------|---------------------------------|
D|-3---3---3---3---3---3---3---3---|-0---0---0---0---0---0---0---0---|-0---0---0---0---0---0---0---0---|
A|---------------------------------|---------------------------------|---------------------------------|
D|---------------------------------|---------------------------------|---------------------------------|


G|---------------------------------|---------------------------------|-----------------------|
D|-3---3---3---3---3---3---3---3---|-3---3---3---3---3---3---3---3---|-5---5---------3---3---|
A|---------------------------------|---------------------------------|-----------------------|
D|---------------------------------|---------------------------------|-----------------------|


G|-----------------------|-----------------------|-----------------------|-----------------------|
D|-3---3---------1---1---|-1---1---------3---3---|-3---3---------3---3---|-5---5---------3---3---|
A|-----------------------|-----------------------|-----------------------|-----------------------|
D|-----------------------|-----------------------|-----------------------|-----------------------|


G|-----------------------|-----------------------|-----------------------|------------------------------|
D|-3---3---------1---1---|-1---1---------3---3---|-3---3---------3---3---|-5---5----5---8---7---5---5---|
A|-----------------------|-----------------------|-----------------------|------------------------------|
D|-----------------------|-----------------------|-----------------------|------------------------------|


G|------------------------------|------------------------------|------------------------------|
D|-3---3----3---7---5---3---3---|-1---1----1---5---3---1---1---|-3---3----3---7---5---3---3---|
A|------------------------------|------------------------------|------------------------------|
D|------------------------------|------------------------------|------------------------------|


G|------------------------------|------------------------------|------------------------------|
D|-5---5----5---8---7---5---5---|-3---3----3---7---5---3---3---|-1---1----1---5---3---1---1---|
A|------------------------------|------------------------------|------------------------------|
D|------------------------------|------------------------------|------------------------------|


G|------------------------------|------------------------------|------------------------------|
D|-3---3----3---7---5---3---3---|-5---5----5---8---7---5---5---|-3---3----3---7---5---3---3---|
A|------------------------------|------------------------------|------------------------------|
D|------------------------------|------------------------------|------------------------------|


G|------------------------------|---------------------------|--------|--------|--------|
D|-1---1----1---5---3---1---1---|-3---3----3---7---5---3----|-5------|-5------|-3------|
A|------------------------------|---------------------------|--------|--------|--------|
D|------------------------------|---------------------------|--------|--------|--------|


G|--------|--------|--------|--------|-------------|---------------------------------|
D|-3------|-12-----|-12-----|-3------|-3-----------|-------------5---5---------------|
A|--------|--------|--------|--------|-------------|---------------------------------|
D|--------|--------|--------|--------|-------------|-5---5-------------------3---3---|


G|---------------------------------|---------------------------------|---------------------------------|
D|-------------3---3---------------|-------------1---1---------------|-------------3---3-------3---3---|
A|---------------------------------|---------------------------------|---------------------------------|
D|-3---3-------------------1---1---|-1---1-------------------3---3---|-3---3---------------------------|


G|-----------------------|-----------------------|-----------------------|-----------------------|
D|-5---5---------3---3---|-3---3---------1---1---|-1---1---------3---3---|-3---3---------5---5---|
A|-----------------------|-----------------------|-----------------------|-----------------------|
D|-----------------------|-----------------------|-----------------------|-----------------------|


G|-----------------------|-----------------------|-----------------------|-----------------------|
D|-5---5---------3---3---|-3---3---------1---1---|-1---1---------3---3---|-3---3---------3---3---|
A|-----------------------|-----------------------|-----------------------|-----------------------|
D|-----------------------|-----------------------|-----------------------|-----------------------|


G|------------------------------|------------------------------|------------------------------|
D|-5---5----5---8---7---5---5---|-3---3----3---7---5---3---3---|-1---1----1---5---3---1---1---|
A|------------------------------|------------------------------|------------------------------|
D|------------------------------|------------------------------|------------------------------|


G|------------------------------|------------------------------|------------------------------|
D|-3---3----3---7---5---3---3---|-5---5----5---8---7---5---5---|-3---3----3---7---5---3---3---|
A|------------------------------|------------------------------|------------------------------|
D|------------------------------|------------------------------|------------------------------|


G|------------------------------|---------------------------|--------|--------|--------|
D|-1---1----1---5---3---1---1---|-3---3----3---7---5---3----|-5------|-5------|-3------|
A|------------------------------|---------------------------|--------|--------|--------|
D|------------------------------|---------------------------|--------|--------|--------|


G|--------|--------|--------|--------|--------|---------------------------------|---------------------------------|
D|-3------|-0------|-0------|-3------|-3------|-5---5---5---5---5---5---5---5---|-5---5---5---5---5---5---5---5---|
A|--------|--------|--------|--------|--------|---------------------------------|---------------------------------|
D|--------|--------|--------|--------|--------|---------------------------------|---------------------------------|


G|---------------------------------|---------------------------------|---------------------------------|
D|-3---3---3---3---3---3---3---3---|-3---3---3---3---3---3---3---3---|-0---0---0---0---0---0---0---0---|
A|---------------------------------|---------------------------------|---------------------------------|
D|---------------------------------|---------------------------------|---------------------------------|


G|---------------------------------|---------------------------------|---------------------------------|
D|-0---0---0---0---0---0---0---0---|-3---3---3---3---3---3---3---3---|-3---3---3---3---3---3---3---3---|
A|---------------------------------|---------------------------------|---------------------------------|
D|---------------------------------|---------------------------------|---------------------------------|


G|---------------------------------|---------------------------------|---------------------------------|
D|-5---5---5---5---5---5---5---5---|-5---5---5---5---5---5---5---5---|-3---3---3---3---3---3---3---3---|
A|---------------------------------|---------------------------------|---------------------------------|
D|---------------------------------|---------------------------------|---------------------------------|


G|---------------------------------|---------------------------------|---------------------------------|
D|-3---3---3---3---3---3---3---3---|-0---0---0---0---0---0---0---0---|-0---0---0---0---0---0---0---0---|
A|---------------------------------|---------------------------------|---------------------------------|
D|---------------------------------|---------------------------------|---------------------------------|


G|---------------------------------|---------------------------------|-5---5-----------5----5-------|
D|-3---3---3---3---3---3---3---3---|-3---3---3---3---3---3---3---3---|-------------5----------------|
A|---------------------------------|---------------------------------|------------------------------|
D|---------------------------------|---------------------------------|------------------------------|


G|-3---3-----------3----3-------|-7---7-----------7----7-------|-8---8-----------8----8-------|
D|-------------3----------------|-------------7----------------|-------------8----------------|
A|------------------------------|------------------------------|------------------------------|
D|------------------------------|------------------------------|------------------------------|


G|-5---5-----------5----5-------|-3---3-----------3----3-------|-7---7-----------7----7-------|
D|-------------5----------------|-------------3----------------|-------------7----------------|
A|------------------------------|------------------------------|------------------------------|
D|------------------------------|------------------------------|------------------------------|


G|-8---8-----------8----8-------|-5---5---5---5---5---5---5---5---|-3---3---3---3---3---3---3---3---|
D|-------------8----------------|---------------------------------|---------------------------------|
A|------------------------------|---------------------------------|---------------------------------|
D|------------------------------|---------------------------------|---------------------------------|


G|-7---7---7---7---7---7---7---7---|-8---8---8---8---8---8---8---8---|-5---5---5---5---5---5---5---5---|
D|---------------------------------|---------------------------------|---------------------------------|
A|---------------------------------|---------------------------------|---------------------------------|
D|---------------------------------|---------------------------------|---------------------------------|


G|-3---3---3---3---3---3---3---3---|---------------------------------|---------------------------------|
D|---------------------------------|-0---0---0---0---0---0---0---0---|-1---1---1---1---1---1---1---1---|
A|---------------------------------|---------------------------------|---------------------------------|
D|---------------------------------|---------------------------------|---------------------------------|


G|-5---5---5---5---5---5---5---5---|-3---3---3---3---3---3---3---3---|-7---7---7---7---7---7---7---7---|
D|---------------------------------|---------------------------------|---------------------------------|
A|---------------------------------|---------------------------------|---------------------------------|
D|---------------------------------|---------------------------------|---------------------------------|


G|-8---8---8---8---8---8---8---8---|-5---5---5---5---5---5---5---5---|-3---3---3---3---3---3---3---3---|
D|---------------------------------|---------------------------------|---------------------------------|
A|---------------------------------|---------------------------------|---------------------------------|
D|---------------------------------|---------------------------------|---------------------------------|


G|---------------------------------|---------------------------------|--------|--------|
D|-0---0---0---0---0---0---0---0---|-1---1---1---1---1---1---1---1---|--------|--------|
A|---------------------------------|---------------------------------|--------|--------|
D|---------------------------------|---------------------------------|--------|--------|


G|--------|--------|--------|--------|--------|--------|--------|--------|--------|
D|--------|--------|--------|--------|--------|--------|-5------|-5------|-3------|
A|--------|--------|--------|--------|--------|--------|--------|--------|--------|
D|--------|--------|--------|--------|--------|--------|--------|--------|--------|


G|--------|--------|--------|--------|--------|---------------------------------|---------------------------------|
D|-3------|-0------|-0------|-3------|-3------|-5---5---5---5---5---5---5---5---|-5---5---5---5---5---5---5---5---|
A|--------|--------|--------|--------|--------|---------------------------------|---------------------------------|
D|--------|--------|--------|--------|--------|---------------------------------|---------------------------------|


G|---------------------------------|---------------------------------|---------------------------------|
D|-3---3---3---3---3---3---3---3---|-3---3---3---3---3---3---3---3---|-0---0---0---0---0---0---0---0---|
A|---------------------------------|---------------------------------|---------------------------------|
D|---------------------------------|---------------------------------|---------------------------------|


G|---------------------------------|---------------------------------|---------------------------------|
D|-0---0---0---0---0---0---0---0---|-3---3---3---3---3---3---3---3---|-3---3---3---3---3---3---3---3---|
A|---------------------------------|---------------------------------|---------------------------------|
D|---------------------------------|---------------------------------|---------------------------------|


G|---------------------------------|---------------------------------|---------------------------------|
D|-5---5---5---5---5---5---5---5---|-5---5---5---5---5---5---5---5---|-3---3---3---3---3---3---3---3---|
A|---------------------------------|---------------------------------|---------------------------------|
D|---------------------------------|---------------------------------|---------------------------------|


G|---------------------------------|---------------------------------|---------------------------------|
D|-3---3---3---3---3---3---3---3---|-0---0---0---0---0---0---0---0---|-0---0---0---0---0---0---0---0---|
A|---------------------------------|---------------------------------|---------------------------------|
D|---------------------------------|---------------------------------|---------------------------------|


G|---------------------------------|---------------------------------|---------------------------------|
D|-3---3---3---3---3---3---3---3---|-3---3---3---3---3---3---3---3---|-5---5---5---5---5---5---5---5---|
A|---------------------------------|---------------------------------|---------------------------------|
D|---------------------------------|---------------------------------|---------------------------------|


G|---------------------------------|---------------------------------|---------------------------------|
D|-5---5---5---5---5---5---5---5---|-3---3---3---3---3---3---3---3---|-3---3---3---3---3---3---3---3---|
A|---------------------------------|---------------------------------|---------------------------------|
D|---------------------------------|---------------------------------|---------------------------------|


G|---------------------------------|---------------------------------|---------------------------------|
D|-0---0---0---0---0---0---0---0---|-0---0---0---0---0---0---0---0---|-3---3---3---3---3---3---3---3---|
A|---------------------------------|---------------------------------|---------------------------------|
D|---------------------------------|---------------------------------|---------------------------------|


G|---------------------------------|---------------------------------|---------------------------------|
D|-3---3---3---3---3---3---3---3---|-5---5---5---5---5---5---5---5---|-5---5---5---5---5---5---5---5---|
A|---------------------------------|---------------------------------|---------------------------------|
D|---------------------------------|---------------------------------|---------------------------------|


G|---------------------------------|---------------------------------|---------------------------------|
D|-3---3---3---3---3---3---3---3---|-3---3---3---3---3---3---3---3---|-0---0---0---0---0---0---0---0---|
A|---------------------------------|---------------------------------|---------------------------------|
D|---------------------------------|---------------------------------|---------------------------------|


G|---------------------------------|---------------------------------|---------------------------------|
D|-0---0---0---0---0---0---0---0---|-3---3---3---3---3---3---3---3---|-3---3---3---3---3---3-----------|
A|---------------------------------|---------------------------------|-------------------------8---8---|
D|---------------------------------|---------------------------------|---------------------------------|


G|-------------12--12-----------|
D|------------------------------|
A|-10--10-----------------------|
D|------------------------------|