Menu:

 

Search:

 

billy idol - rebel yell:

 



Title: Rebel Yell
Artist: 
Album: Rebel Yell - Expanded Edition
Author: Billy Idol, Steve Stevens


Track 1: Dist. GTR

E|-10--10--10--10--10--10--10--10--|-10--10--10--10--10--10--10--10--|-10--10--10--10--10--10--10--10--|
B|-10--10--10--10--10--10--10--10--|-10--10--10--10--10--10--10--10--|-10--10--10--10--10--10--10--10--|
G|---------------------------------|---------------------------------|---------------------------------|
D|---------------------------------|---------------------------------|---------------------------------|
A|---------------------------------|---------------------------------|---------------------------------|
E|---------------------------------|---------------------------------|---------------------------------|


E|-10--10--10--10--10--10--10--10--|---------------------------------|---------------------------------|
B|-10--10--10--10--10--10--10--10--|---------------------------------|---------------------------------|
G|---------------------------------|---------------------------------|---------------------4-------4---|
D|---------------------------------|---------------------------------|---------------------2-------2---|
A|---------------------------------|-------------------------5---5---|---------------------------------|
E|---------------------------------|-3---3---3---3---3---3-----------|-2---2---2---2---2---------------|


E|---------------------------------|---------------------------------|---------------------------------|
B|---------------------------------|---------------------------------|---------------------------------|
G|-4-------------------------------|---------------------4-------4---|---------------------------------|
D|-2-------------------------------|---------------------2-------2---|---------------------------------|
A|-------------------------5---5---|---------------------------------|-------------------------5---5---|
E|-0---0---0---0---0---0-----------|-0---0---0---0---0---------------|-3---3---3---3---3---3-----------|


E|---------------------------------|---------------------------------|---------------------------|
B|---------------------------------|---------------------------------|---------------------------|
G|---------------------4-------4---|-4-------------------------------|-----------------7---------|
D|---------------------2-------2---|-2-------------------------------|-----------------7----7----|
A|---------------------------------|-------------------------5---5---|-----------------5----7----|
E|-2---2---2---2---2---------------|-0---0---0---0---0---0-----------|-0---0---0---0--------5----|


E|--------|-------------|--------|-------------|---------------7-----------|---------------7-----------|
B|--------|-------10----|-10-----|-10----------|-7----7----7---7-------7---|-7----7----7---7-------7---|
G|--------|-------------|--------|-------------|-7----7----7---7-------7---|-7----7----7---7-------7---|
D|-9------|-9-----------|-9------|-9-----26----|-9----9----9---9-------9---|-9----9----9---9-------9---|
A|-9------|-9-----------|-9------|-9-----26----|-9----9----9---9-------9---|-9----9----9---9-------9---|
E|-7------|-7-----------|-7------|-7-----------|-7----7--------------------|-7----7--------------------|


E|---------------7-----------|---------------7-----------|---------------5-----------|
B|-7----7----7---7-------7---|-7----7----7---7-------7---|-5----5----5---5-------5---|
G|-7----7----7---7-------7---|-7----7----7---7-------7---|-7----7----4---7-------4---|
D|-9----9----9---9-------9---|-9----9----9---9-------9---|-7----7----7---7-------7---|
A|-9----9----9---9-------9---|-9----9----9---9-------9---|-5----5----5---5-------5---|
E|-7----7--------------------|-7----7--------------------|-5----5--------------------|


E|---------------5-----------|---------------3-----------|-7----7--------------------|
B|-5----5----5---5-------5---|-3----3----3---3-------3---|-7----7--------------------|
G|-7----7----4---7-------4---|-4----4----4---4-------4---|-7----7--------------------|
D|-7----7----7---7-------7---|-4----4----4---4-------4---|-5----5----7---7-----------|
A|-5----5----5---5-------5---|-5----5----5---5-------5---|-5---------5---5---7---7---|
E|-5----5--------------------|-3----3--------------------|-------------------5---5---|


E|---------------7-----------|---------------7-----------|---------------7-----------|
B|-7----7----7---7-------7---|-7----7----7---7-------7---|-7----7----7---7-------7---|
G|-7----7----7---7-------7---|-7----7----7---7-------7---|-7----7----7---7-------7---|
D|-9----9----9---9-------9---|-9----9----9---9-------9---|-9----9----9---9-------9---|
A|-9----9----9---9-------9---|-9----9----9---9-------9---|-9----9----9---9-------9---|
E|-7----7--------------------|-7----7--------------------|-7----7--------------------|


E|---------------7-----------|---------------5-----------|---------------5-----------|
B|-7----7----7---7-------7---|-5----5----5---5-------5---|-5----5----5---5-------5---|
G|-7----7----7---7-------7---|-7----7----4---7-------4---|-7----7----4---7-------4---|
D|-9----9----9---9-------9---|-7----7----7---7-------7---|-7----7----7---7-------7---|
A|-9----9----9---9-------9---|-5----5----5---5-------5---|-5----5----5---5-------5---|
E|-7----7--------------------|-5----5--------------------|-5----5--------------------|


E|---------------3-----------|-7----7--------------|---------------------------|------------------------|
B|-3----3----3---3-------3---|-7----7--------------|-----------7---7---7---7---|-7----7-----------------|
G|-4----4----4---4-------4---|-7----7----7---------|-7----7----7---7---7---7---|-7----7-----------------|
D|-4----4----4---4-------4---|-5----5----7----7----|-9----9----9---9---9---7---|-7----7-----------------|
A|-5----5----5---5-------5---|-----------5----7----|-9----9----9---9---9---9---|-9----------------------|
E|-3----3--------------------|----------------5----|-7----7--------------------|-----------5---7---5----|


E|---------------------------|------------------------|---------------------------|
B|-----------7---7---7---7---|-7----7-----------------|-7----7----7---7---7---7---|
G|-7----7----7---7---7---7---|-7----7-----------------|-7----7----7---7---7---7---|
D|-9----9----9---9---9---7---|-7----7-----------------|-7----7----7---7---7---7---|
A|-9----9----9---9---9---9---|-9----------------------|-5----5----------------5---|
E|-7----7--------------------|-----------5---7---5----|---------------------------|


E|------------------------|-----------------------7---|-7----7--------------------|
B|-7----7-----------------|-7----7----7---7---7---7---|-7----7--------------------|
G|-7----7-----------------|-7----7----7---7---7---7---|-7----7--------------------|
D|-7----7-----------------|-5----5----5---5---5---5---|-5----5----7---7---0---0---|
A|-5----------------------|-5----5--------------------|-----------5---5---0---0---|
E|-----------5---7---5----|---------------------------|---------------------------|


E|---------------------------|------------------------|---------------------------|
B|-----------7---7---7---7---|-7----7-----------------|-----------7---7---7---7---|
G|-7----7----7---7---7---7---|-7----7-----------------|-7----7----7---7---7---7---|
D|-9----9----9---9---9---7---|-7----7-----------------|-9----9----9---9---9---7---|
A|-9----9----9---9---9---9---|-9----------------------|-9----9----9---9---9---9---|
E|-7----7--------------------|-----------5---7---5----|-7----7--------------------|


E|------------------------|---------------------------|------------------------|-----------------------7---|
B|-7----7-----------------|-7----7----7---7---7---7---|-7----7-----------------|-7----7----7---7---7---7---|
G|-7----7-----------------|-7----7----7---7---7---7---|-7----7-----------------|-7----7----7---7---7---7---|
D|-7----7-----------------|-7----7----7---7---7---7---|-7----7-----------------|-5----5----5---5---5---5---|
A|-9----------------------|-5----5----------------5---|-5----------------------|-5----5--------------------|
E|-----------5---7---5----|---------------------------|-----------5---7---5----|---------------------------|


E|-7----7--------------|---------------------------|-----------------|--------|-----------------|
B|-7----7--------------|---------------------------|-----------------|--------|-----------------|
G|-7----7----7---------|-9---9---9----9----9---9---|-9----9----9-----|-9------|-17--------------|
D|-5----5----7----7----|---------------------------|-----------------|--------|-17---22---9-----|
A|-----------5----7----|---------------------------|-----------------|--------|------22---9-----|
E|----------------5----|---------------------------|-----------------|--------|-----------------|


E|---------------7-----------|---------------7-----------|---------------7-----------|
B|-7----7----7---7-------7---|-7----7----7---7-------7---|-7----7----7---7-------7---|
G|-7----7----7---7-------7---|-7----7----7---7-------7---|-7----7----7---7-------7---|
D|-9----9----9---9-------9---|-9----9----9---9-------9---|-9----9----9---9-------9---|
A|-9----9----9---9-------9---|-9----9----9---9-------9---|-9----9----9---9-------9---|
E|-7----7--------------------|-7----7--------------------|-7----7--------------------|


E|---------------7-----------|---------------5-----------|---------------5-----------|
B|-7----7----7---7-------7---|-5----5----5---5-------5---|-5----5----5---5-------5---|
G|-7----7----7---7-------7---|-7----7----4---7-------4---|-7----7----4---7-------4---|
D|-9----9----9---9-------9---|-7----7----7---7-------7---|-7----7----7---7-------7---|
A|-9----9----9---9-------9---|-5----5----5---5-------5---|-5----5----5---5-------5---|
E|-7----7--------------------|-5----5--------------------|-5----5--------------------|


E|---------------3-----------|-7----7--------------------|---------------7-----------|
B|-3----3----3---3-------3---|-7----7--------------------|-7----7----7---7-------7---|
G|-4----4----4---4-------4---|-7----7--------------------|-7----7----7---7-------7---|
D|-4----4----4---4-------4---|-5----5----7---7-----------|-9----9----9---9-------9---|
A|-5----5----5---5-------5---|-5---------5---5---7---7---|-9----9----9---9-------9---|
E|-3----3--------------------|-------------------5---5---|-7----7--------------------|


E|---------------7-----------|---------------7-----------|---------------7-----------|
B|-7----7----7---7-------7---|-7----7----7---7-------7---|-7----7----7---7-------7---|
G|-7----7----7---7-------7---|-7----7----7---7-------7---|-7----7----7---7-------7---|
D|-9----9----9---9-------9---|-9----9----9---9-------9---|-9----9----9---9-------9---|
A|-9----9----9---9-------9---|-9----9----9---9-------9---|-9----9----9---9-------9---|
E|-7----7--------------------|-7----7--------------------|-7----7--------------------|


E|---------------5-----------|---------------5-----------|---------------3-----------|
B|-5----5----5---5-------5---|-5----5----5---5-------5---|-3----3----3---3-------3---|
G|-7----7----4---7-------4---|-7----7----4---7-------4---|-4----4----4---4-------4---|
D|-7----7----7---7-------7---|-7----7----7---7-------7---|-4----4----4---4-------4---|
A|-5----5----5---5-------5---|-5----5----5---5-------5---|-5----5----5---5-------5---|
E|-5----5--------------------|-5----5--------------------|-3----3--------------------|


E|-7----7--------------|---------------------------|------------------------|---------------------------|
B|-7----7--------------|-----------7---7---7---7---|-7----7-----------------|-----------7---7---7---7---|
G|-7----7----7---------|-7----7----7---7---7---7---|-7----7-----------------|-7----7----7---7---7---7---|
D|-5----5----7----7----|-9----9----9---9---9---7---|-7----7-----------------|-9----9----9---9---9---7---|
A|-----------5----7----|-9----9----9---9---9---9---|-9----------------------|-9----9----9---9---9---9---|
E|----------------5----|-7----7--------------------|-----------5---7---5----|-7----7--------------------|


E|------------------------|---------------------------|------------------------|-----------------------7---|
B|-7----7-----------------|-7----7----7---7---7---7---|-7----7-----------------|-7----7----7---7---7---7---|
G|-7----7-----------------|-7----7----7---7---7---7---|-7----7-----------------|-7----7----7---7---7---7---|
D|-7----7-----------------|-7----7----7---7---7---7---|-7----7-----------------|-5----5----5---5---5---5---|
A|-9----------------------|-5----5----------------5---|-5----------------------|-5----5--------------------|
E|-----------5---7---5----|---------------------------|-----------5---7---5----|---------------------------|


E|-7----7--------------------|---------------------------|------------------------|
B|-7----7--------------------|-----------7---7---7---7---|-7----7-----------------|
G|-7----7--------------------|-7----7----7---7---7---7---|-7----7-----------------|
D|-5----5----7---7---0---0---|-9----9----9---9---9---7---|-7----7-----------------|
A|-----------5---5---0---0---|-9----9----9---9---9---9---|-9----------------------|
E|---------------------------|-7----7--------------------|-----------5---7---5----|


E|---------------------------|------------------------|---------------------------|
B|-----------7---7---7---7---|-7----7-----------------|-7----7----7---7---7---7---|
G|-7----7----7---7---7---7---|-7----7-----------------|-7----7----7---7---7---7---|
D|-9----9----9---9---9---7---|-7----7-----------------|-7----7----7---7---7---7---|
A|-9----9----9---9---9---9---|-9----------------------|-5----5----------------5---|
E|-7----7--------------------|-----------5---7---5----|---------------------------|


E|------------------------|-----------7---7---7---7---|-7----7-----------------|---------------------------------|
B|-7----7-----------------|-7----7----7---7---7---7---|-7----7-----------------|---------------------------------|
G|-7----7-----------------|-7----7----7---7---7---7---|-7----7-----------------|---------------------------------|
D|-7----7-----------------|-5----5--------------------|-5----5-----------------|---------------------------------|
A|-5----------------------|-5-------------------------|------------------------|-------------------------5---5---|
E|-----------5---7---5----|---------------------------|----------------0---2---|-3---3---3---3---3---3-----------|


E|---------------------------------|---------------------------------|---------------------------------|
B|---------------------------------|---------------------------------|---------------------------------|
G|---------------------4-------4---|-4-------------------------------|---------------------4-------4---|
D|---------------------2-------2---|-2-------------------------------|---------------------2-------2---|
A|---------------------------------|-------------------------5---5---|---------------------------------|
E|-2---2---2---2---2---------------|-0---0---0---0---0---0-----------|-0---0---0---0---0---------------|


E|---------------------------------|---------------------------------|---------------------------------|
B|---------------------------------|---------------------------------|---------------------------------|
G|---------------------------------|---------------------4-------4---|-4-------------------------------|
D|---------------------------------|---------------------2-------2---|-2-------------------------------|
A|-------------------------5---5---|---------------------------------|-------------------------5---5---|
E|-3---3---3---3---3---3-----------|-2---2---2---2---2---------------|-0---0---0---0---0---0-----------|


E|---------------------------------|---------------------------------|---------------------------------|
B|---------------------------------|---------------------------------|---------------------------------|
G|---------------------4-------4---|---------------------------------|---------------------4-------4---|
D|---------------------2-------2---|---------------------------------|---------------------2-------2---|
A|---------------------------------|-------------------------5---5---|---------------------------------|
E|-0---0---0---0---0---------------|-3---3---3---3---3---3-----------|-2---2---2---2---2---------------|


E|---------------------------------|---------------------------------|---------------------------------|
B|---------------------------------|---------------------------------|---------------------------------|
G|-4-------------------------------|---------------------4-------4---|---------------------------------|
D|-2-------------------------------|---------------------2-------2---|---------------------------------|
A|-------------------------5---5---|---------------------------------|-------------------------5---5---|
E|-0---0---0---0---0---0-----------|-0---0---0---0---0---------------|-3---3---3---3---3---3-----------|


E|---------------------------------|---------------------------------|---------------------------|
B|---------------------------------|---------------------------------|----------------------2----|
G|---------------------4-------4---|-4-------------------------------|-----------------7----2----|
D|---------------------2-------2---|-2-------------------------------|-----------------7----2----|
A|---------------------------------|-------------------------5---5---|-----------------5----0----|
E|-2---2---2---2---2---------------|-0---0---0---0---0---0-----------|-0---0---0---0-------------|


E|--------|--------|----------------|---------------------------|---------7-----------7---7-------|
B|--------|--------|-10-------------|-----10--10---10-----------|-----7-----------7---------------|
G|-4------|-4------|-4------2---4---|-----9---9----9----7---7---|-9-----------9---------------9---|
D|-4------|-4------|-4------2---4---|---------------------------|---------------------------------|
A|-2------|-2------|-2------0---2---|---------------------------|---------------------------------|
E|--------|--------|----------------|---------------------------|---------------------------------|


E|-----7---7-----------------|-------------|---------------------------------|------------------------------|
B|-7-----------7---7---------|-------------|---------------------------------|-----8---8----8---------------|
G|-----------------------9---|-------------|---------------------------------|-7------------------------7---|
D|-----------------------9---|-------------|-------------7---9---8---7---8---|------------------7---8-------|
A|---------------------------|-------------|-----7---9-----------------------|------------------------------|
E|---------------------------|-9----9------|-10------------------------------|------------------------------|


E|------------------------------|------------------------------|------------------|
B|-8---8----------------8---8---|-8--8--7---5--------5-----5---|------------------|
G|------------------7-----------|---------------7--------------|------------------|
D|----------7---8---------------|------------------------------|------------------|
A|------------------------------|------------------------------|------------------|
E|------------------------------|------------------------------|------------5--6--|


E|------------------------------------|------------------------------------|----------------------------------|
B|------------------------------------|------------------------------10-11-|-12--10-11-12--10-12-12---12---10-|
G|------------------------------------|---------------------7--------------|----------------------------------|
D|------------------------------7--8--|-9---7--8--9---7--8-------9---------|----------------------------------|
A|---------------------5--------------|------------------------------------|----------------------------------|
E|-7---5--6--7---5--6-------7---------|------------------------------------|----------------------------------|


E|--------------------------7---|-------------------------------------|-----------------------------12--|
B|-10--10--10--10--10-----------|-------------------------------------|---------------------12----------|
G|----------------------9-------|-9--9--7---9---9--9--7---9---9---7---|-9---9---9---7-----------10------|
D|------------------------------|-------------------------------------|-----------------9---------------|
A|------------------------------|-------------------------------------|---------------------------------|
E|------------------------------|-------------------------------------|---------------------------------|


E|-12----12--------|--------|--------|--------|--------|--------|--------|--------|
B|-------------9---|--------|--------|--------|--------|--------|--------|--------|
G|-------------9---|--------|--------|--------|--------|--------|--------|--------|
D|-----------------|--------|--------|--------|--------|--------|--------|--------|
A|-----------------|--------|--------|--------|--------|--------|--------|--------|
E|-----------------|--------|--------|--------|--------|--------|--------|--------|


E|--------|--------|--------|--------|--------|--------|--------|--------|--------|
B|--------|--------|--------|--------|--------|--------|--------|--------|--------|
G|--------|--------|--------|--------|--------|--------|--------|--------|--------|
D|--------|--------|--------|--------|--------|--------|--------|--------|--------|
A|--------|--------|--------|--------|--------|--------|--------|--------|--------|
E|--------|--------|--------|--------|--------|--------|--------|--------|--------|


E|--------|--------|--------|--------|--------|--------|--------|--------|--------|
B|--------|--------|--------|--------|--------|--------|--------|--------|--------|
G|--------|--------|--------|--------|--------|--------|--------|--------|--------|
D|--------|--------|--------|--------|--------|--------|--------|--------|--------|
A|--------|--------|--------|--------|--------|--------|--------|--------|--------|
E|--------|--------|--------|--------|--------|--------|--------|--------|--------|


E|--------|--------|--------|--------|--------|--------|--------|--------|--------|
B|--------|--------|--------|--------|--------|--------|--------|--------|--------|
G|--------|--------|--------|--------|--------|--------|--------|--------|--------|
D|--------|--------|--------|--------|--------|--------|--------|--------|--------|
A|--------|--------|--------|--------|--------|--------|--------|--------|--------|
E|--------|--------|--------|--------|--------|--------|--------|--------|--------|


E|--------|--------|--------|--------|--------|--------|-----------------|---------------------------|
B|--------|--------|--------|--------|--------|--------|-----------------|-----------7---7---7---7---|
G|--------|--------|--------|--------|--------|--------|-------7---------|-7----7----7---7---7---7---|
D|--------|--------|--------|--------|--------|--------|-------7----7----|-9----9----9---9---9---7---|
A|--------|--------|--------|--------|--------|--------|-------5----7----|-9----9----9---9---9---9---|
E|--------|--------|--------|--------|--------|--------|------------5----|-7----7--------------------|


E|------------------------|---------------------------|------------------------|---------------------------|
B|-7----7-----------------|-----------7---7---7---7---|-7----7-----------------|-7----7----7---7---7---7---|
G|-7----7-----------------|-7----7----7---7---7---7---|-7----7-----------------|-7----7----7---7---7---7---|
D|-7----7-----------------|-9----9----9---9---9---7---|-7----7-----------------|-7----7----7---7---7---7---|
A|-9----------------------|-9----9----9---9---9---9---|-9----------------------|-5----5----------------5---|
E|-----------5---7---5----|-7----7--------------------|-----------5---7---5----|---------------------------|


E|------------------------|-----------------------7---|-7----7--------------------|
B|-7----7-----------------|-7----7----7---7---7---7---|-7----7--------------------|
G|-7----7-----------------|-7----7----7---7---7---7---|-7----7--------------------|
D|-7----7-----------------|-5----5----5---5---5---5---|-5----5----7---7---0---0---|
A|-5----------------------|-5----5--------------------|-----------5---5---0---0---|
E|-----------5---7---5----|---------------------------|---------------------------|


E|---------------------------|------------------------|---------------------------|
B|-----------7---7---7---7---|-7----7-----------------|-----------7---7---7---7---|
G|-7----7----7---7---7---7---|-7----7-----------------|-7----7----7---7---7---7---|
D|-9----9----9---9---9---7---|-7----7-----------------|-9----9----9---9---9---7---|
A|-9----9----9---9---9---9---|-9----------------------|-9----9----9---9---9---9---|
E|-7----7--------------------|-----------5---7---5----|-7----7--------------------|


E|------------------------|---------------------------|------------------------|-----------------------7---|
B|-7----7-----------------|-7----7----7---7---7---7---|-7----7-----------------|-7----7----7---7---7---7---|
G|-7----7-----------------|-7----7----7---7---7---7---|-7----7-----------------|-7----7----7---7---7---7---|
D|-7----7-----------------|-7----7----7---7---7---7---|-7----7-----------------|-5----5----5---5---5---5---|
A|-9----------------------|-5----5----------------5---|-5----------------------|-5----5--------------------|
E|-----------5---7---5----|---------------------------|-----------5---7---5----|---------------------------|


E|-7----7--------------------|---------------------------|------------------------|
B|-7----7--------------------|-----------7---7---7---7---|-7----7-----------------|
G|-7----7--------------------|-7----7----7---7---7---7---|-7----7-----------------|
D|-5----5----7---7---0---0---|-9----9----9---9---9---7---|-7----7-----------------|
A|-----------5---5---0---0---|-9----9----9---9---9---9---|-9----------------------|
E|---------------------------|-7----7--------------------|-----------5---7---5----|


E|---------------------------|------------------------|---------------------------|
B|-----------7---7---7---7---|-7----7-----------------|-7----7----7---7---7---7---|
G|-7----7----7---7---7---7---|-7----7-----------------|-7----7----7---7---7---7---|
D|-9----9----9---9---9---7---|-7----7-----------------|-7----7----7---7---7---7---|
A|-9----9----9---9---9---9---|-9----------------------|-5----5----------------5---|
E|-7----7--------------------|-----------5---7---5----|---------------------------|


E|------------------------|-----------------------7---|-7----7--------------------|
B|-7----7-----------------|-7----7----7---7---7---7---|-7----7--------------------|
G|-7----7-----------------|-7----7----7---7---7---7---|-7----7--------------------|
D|-7----7-----------------|-5----5----5---5---5---5---|-5----5----7---7---0---0---|
A|-5----------------------|-5----5--------------------|-----------5---5---0---0---|
E|-----------5---7---5----|---------------------------|---------------------------|


E|-----------7---7---7---7---|-7----7-----------------|-----------------|---------------------|
B|-7----7----7---7---7---7---|-7----7-----------------|------------7----|-9----9----9----9----|
G|-7----7----7---7---7---7---|-7----7----7----2---2---|-------9---------|---------------------|
D|-5----5--------------------|-5----5----7----2---2---|-9---------------|---------------------|
A|-5-------------------------|-----------5----0---0---|-9---------------|---------------------|
E|---------------------------|------------------------|-7---------------|---------------------|


E|---------------------|-----------------------|--------|--------|
B|-9----9----9----9----|-9-----9---------------|--------|--------|
G|---------------------|---------------2---4---|--------|--------|
D|---------------------|---------------2---4---|--------|--------|
A|---------------------|---------------0---2---|--------|--------|
E|---------------------|-----------------------|--------|--------|





Track 2: OD GTR

E|------------------------|------------------------|------------------------|------------------------|
B|------------------------|------------------------|------------------------|------------------------|
G|------------------------|------------------------|------------------------|------------------------|
D|----------------7---9---|----------------7---9---|----------------7---9---|----------------7---9---|
A|-------9---9------------|-------9---9------------|-------9---9------------|-------9---9------------|
E|-7----------------------|-7----------------------|-7----------------------|-7----------------------|


E|--------|--------|--------|--------|--------|--------|--------|--------|--------|
B|--------|--------|--------|--------|--------|--------|--------|--------|--------|
G|--------|--------|--------|--------|--------|--------|--------|--------|--------|
D|--------|--------|--------|--------|--------|--------|--------|--------|--------|
A|--------|--------|--------|--------|--------|--------|--------|--------|--------|
E|--------|--------|--------|--------|--------|--------|--------|--------|--------|


E|--------|--------|--------|--------|--------|--------|--------|--------|--------|
B|--------|--------|--------|--------|--------|--------|--------|--------|--------|
G|--------|--------|--------|--------|--------|--------|--------|--------|--------|
D|--------|--------|--------|--------|--------|--------|--------|--------|--------|
A|--------|--------|--------|--------|--------|--------|--------|--------|--------|
E|--------|--------|--------|--------|--------|--------|--------|--------|--------|


E|--------|--------|--------|--------|--------|--------|--------|--------|--------|
B|--------|--------|--------|--------|--------|--------|--------|--------|--------|
G|--------|--------|--------|--------|--------|--------|--------|--------|--------|
D|--------|--------|--------|--------|--------|--------|--------|--------|--------|
A|--------|--------|--------|--------|--------|--------|--------|--------|--------|
E|--------|--------|--------|--------|--------|--------|--------|--------|--------|


E|--------|--------|--------|--------|--------|--------|--------|--------|--------|
B|--------|--------|--------|--------|--------|--------|--------|--------|--------|
G|--------|--------|--------|--------|--------|--------|--------|--------|--------|
D|--------|--------|--------|--------|--------|--------|--------|--------|--------|
A|--------|--------|--------|--------|--------|--------|--------|--------|--------|
E|--------|--------|--------|--------|--------|--------|--------|--------|--------|


E|--------|--------|--------|--------|--------|--------|--------|--------|--------|
B|--------|--------|--------|--------|--------|--------|--------|--------|--------|
G|--------|--------|--------|--------|--------|--------|--------|--------|--------|
D|--------|--------|--------|--------|--------|--------|--------|--------|--------|
A|--------|--------|--------|--------|--------|--------|--------|--------|--------|
E|--------|--------|--------|--------|--------|--------|--------|--------|--------|


E|--------|--------|--------|--------|--------|--------|--------|--------|--------|
B|--------|--------|--------|--------|--------|--------|--------|--------|--------|
G|--------|--------|--------|--------|--------|--------|--------|--------|--------|
D|--------|--------|--------|--------|--------|--------|--------|--------|--------|
A|--------|--------|--------|--------|--------|--------|--------|--------|--------|
E|--------|--------|--------|--------|--------|--------|--------|--------|--------|


E|--------|--------|--------|--------|--------|--------|--------|--------|--------|
B|--------|--------|--------|--------|--------|--------|--------|--------|--------|
G|--------|--------|--------|--------|--------|--------|--------|--------|--------|
D|--------|--------|--------|--------|--------|--------|--------|--------|--------|
A|--------|--------|--------|--------|--------|--------|--------|--------|--------|
E|--------|--------|--------|--------|--------|--------|--------|--------|--------|


E|--------|--------|--------|--------|--------|--------|--------|--------|--------|
B|--------|--------|--------|--------|--------|--------|--------|--------|--------|
G|--------|--------|--------|--------|--------|--------|--------|--------|--------|
D|--------|--------|--------|--------|--------|--------|--------|--------|--------|
A|--------|--------|--------|--------|--------|--------|--------|--------|--------|
E|--------|--------|--------|--------|--------|--------|--------|--------|--------|


E|--------|--------|--------|--------|--------|--------|--------|--------|--------|
B|--------|--------|--------|--------|--------|--------|--------|--------|--------|
G|--------|--------|--------|--------|--------|--------|--------|--------|--------|
D|--------|--------|--------|--------|--------|--------|--------|--------|--------|
A|--------|--------|--------|--------|--------|--------|--------|--------|--------|
E|--------|--------|--------|--------|--------|--------|--------|--------|--------|


E|--------|--------|--------|--------|--------|--------|--------|--------|--------|
B|--------|--------|--------|--------|--------|--------|--------|--------|--------|
G|--------|--------|--------|--------|--------|--------|--------|--------|--------|
D|--------|--------|--------|--------|--------|--------|--------|--------|--------|
A|--------|--------|--------|--------|--------|--------|--------|--------|--------|
E|--------|--------|--------|--------|--------|--------|--------|--------|--------|


E|--------|--------|--------|--------|--------|--------|------------------------|------------------------|
B|--------|--------|--------|--------|--------|--------|------------------------|------------------------|
G|--------|--------|--------|--------|--------|--------|------------------------|------------------------|
D|--------|--------|--------|--------|--------|--------|----------------7---9---|----------------7---9---|
A|--------|--------|--------|--------|--------|--------|-------9---9------------|-------9---9------------|
E|--------|--------|--------|--------|--------|--------|-7----------------------|-7----------------------|


E|------------------------|---------------------|--------|--------|--------|--------|
B|------------------------|---------------------|--------|--------|--------|--------|
G|------------------------|---------------------|--------|--------|--------|--------|
D|----------------7---9---|------9---------9----|--------|--------|--------|--------|
A|-------9---9----7---9---|------9---------9----|--------|--------|--------|--------|
E|-7--------------5---7---|------7---------7----|--------|--------|--------|--------|


E|--------|--------|--------|--------|--------|--------|--------|--------|--------|
B|--------|--------|--------|--------|--------|--------|--------|--------|--------|
G|--------|--------|--------|--------|--------|--------|--------|--------|--------|
D|--------|--------|--------|--------|--------|--------|--------|--------|--------|
A|--------|--------|--------|--------|--------|--------|--------|--------|--------|
E|--------|--------|--------|--------|--------|--------|--------|--------|--------|


E|--------|--------|--------|--------|--------|--------|--------|--------|--------|
B|--------|--------|--------|--------|--------|--------|--------|--------|--------|
G|--------|--------|--------|--------|--------|--------|--------|--------|--------|
D|--------|--------|--------|--------|--------|--------|--------|--------|--------|
A|--------|--------|--------|--------|--------|--------|--------|--------|--------|
E|--------|--------|--------|--------|--------|--------|--------|--------|--------|


E|--------|--------|--------|--------|--------|--------|--------|--------|--------|
B|--------|--------|--------|--------|--------|--------|--------|--------|--------|
G|--------|--------|--------|--------|--------|--------|--------|--------|--------|
D|--------|--------|--------|--------|--------|--------|--------|--------|--------|
A|--------|--------|--------|--------|--------|--------|--------|--------|--------|
E|--------|--------|--------|--------|--------|--------|--------|--------|--------|


E|--------|--------|--------|--------|--------|--------|--------|--------|--------|
B|--------|--------|--------|--------|--------|--------|--------|--------|--------|
G|--------|--------|--------|--------|--------|--------|--------|--------|--------|
D|--------|--------|--------|--------|--------|--------|--------|--------|--------|
A|--------|--------|--------|--------|--------|--------|--------|--------|--------|
E|--------|--------|--------|--------|--------|--------|--------|--------|--------|


E|--------|--------|--------|--------|--------|--------|--------|--------|--------|
B|--------|--------|--------|--------|--------|--------|--------|--------|--------|
G|--------|--------|--------|--------|--------|--------|--------|--------|--------|
D|--------|--------|--------|--------|--------|--------|--------|--------|--------|
A|--------|--------|--------|--------|--------|--------|--------|--------|--------|
E|--------|--------|--------|--------|--------|--------|--------|--------|--------|


E|--------|--------|--------|--------|--------|--------|--------|--------|--------|
B|--------|--------|--------|--------|--------|--------|--------|--------|--------|
G|--------|--------|--------|--------|--------|--------|--------|--------|--------|
D|--------|--------|--------|--------|--------|--------|--------|--------|--------|
A|--------|--------|--------|--------|--------|--------|--------|--------|--------|
E|--------|--------|--------|--------|--------|--------|--------|--------|--------|


E|--------|--------|--------|--------|--------|--------|--------|--------|--------|
B|--------|--------|--------|--------|--------|--------|--------|--------|--------|
G|--------|--------|--------|--------|--------|--------|--------|--------|--------|
D|--------|--------|--------|--------|--------|--------|--------|--------|--------|
A|--------|--------|--------|--------|--------|--------|--------|--------|--------|
E|--------|--------|--------|--------|--------|--------|--------|--------|--------|


E|--------|--------|--------|--------|--------|--------|--------|--------|--------|
B|--------|--------|--------|--------|--------|--------|--------|--------|--------|
G|--------|--------|--------|--------|--------|--------|--------|--------|--------|
D|--------|--------|--------|--------|--------|--------|--------|--------|--------|
A|--------|--------|--------|--------|--------|--------|--------|--------|--------|
E|--------|--------|--------|--------|--------|--------|--------|--------|--------|


E|--------|--------|--------|--------|--------|--------|------------------------|------------------------|
B|--------|--------|--------|--------|--------|--------|------------------------|------------------------|
G|--------|--------|--------|--------|--------|--------|------------------------|------------------------|
D|--------|--------|--------|--------|--------|--------|----------------7---9---|----------------7---9---|
A|--------|--------|--------|--------|--------|--------|-------9---9------------|-------9---9------------|
E|--------|--------|--------|--------|--------|--------|-7----------------------|-7----------------------|


E|------------------------|------------------------|--------|--------|
B|------------------------|------------------------|--------|--------|
G|------------------------|------------------------|--------|--------|
D|----------------7---9---|------------------------|--------|--------|
A|-------9---9------------|-------9---9----7---9---|--------|--------|
E|-7----------------------|-7--------------5---7---|--------|--------|





Track 3: KBD-A [organ]

E|--------|--------|--------|--------|-------------19--------------19--|-------------17--------------17--|
B|--------|--------|--------|--------|-19--17--19------19------19------|-19------19------19------19------|
G|--------|--------|--------|--------|---------------------19----------|-----18--------------18----------|
D|--------|--------|--------|--------|---------------------------------|---------------------------------|
A|--------|--------|--------|--------|---------------------------------|---------------------------------|
E|--------|--------|--------|--------|---------------------------------|---------------------------------|


E|-------------19--------------19--|-------------19--------------19--|-------------19--------------19--|
B|-19--17--19------19------19------|-19--17--19------19------19------|-19--17--19------19------19------|
G|---------------------19----------|---------------------19----------|---------------------19----------|
D|---------------------------------|---------------------------------|---------------------------------|
A|---------------------------------|---------------------------------|---------------------------------|
E|---------------------------------|---------------------------------|---------------------------------|


E|-------------17--------------17--|-------------19--------------19--|-------------19--------------19--|
B|-19------19------19------19------|-19--17--19------19------19------|-19--17--19------19------19------|
G|-----18--------------18----------|---------------------19----------|---------------------19----------|
D|---------------------------------|---------------------------------|---------------------------------|
A|---------------------------------|---------------------------------|---------------------------------|
E|---------------------------------|---------------------------------|---------------------------------|


E|--------|--------|--------|--------|--------|--------|--------|--------|--------|
B|--------|--------|--------|--------|--------|--------|--------|--------|--------|
G|--------|--------|--------|--------|--------|--------|--------|--------|--------|
D|--------|--------|--------|--------|--------|--------|--------|--------|--------|
A|--------|--------|--------|--------|--------|--------|--------|--------|--------|
E|--------|--------|--------|--------|--------|--------|--------|--------|--------|


E|--------|--------|--------|--------|--------|--------|--------|--------|--------|
B|--------|--------|--------|--------|--------|--------|--------|--------|--------|
G|--------|--------|--------|--------|--------|--------|--------|--------|--------|
D|--------|--------|--------|--------|--------|--------|--------|--------|--------|
A|--------|--------|--------|--------|--------|--------|--------|--------|--------|
E|--------|--------|--------|--------|--------|--------|--------|--------|--------|


E|--------|--------|--------|--------|--------|--------|--------|--------|--------|
B|--------|--------|--------|--------|--------|--------|--------|--------|--------|
G|--------|--------|--------|--------|--------|--------|--------|--------|--------|
D|--------|--------|--------|--------|--------|--------|--------|--------|--------|
A|--------|--------|--------|--------|--------|--------|--------|--------|--------|
E|--------|--------|--------|--------|--------|--------|--------|--------|--------|


E|--------|--------|--------|--------|--------|--------|--------|--------|--------|
B|--------|--------|--------|--------|--------|--------|--------|--------|--------|
G|--------|--------|--------|--------|--------|--------|--------|--------|--------|
D|--------|--------|--------|--------|--------|--------|--------|--------|--------|
A|--------|--------|--------|--------|--------|--------|--------|--------|--------|
E|--------|--------|--------|--------|--------|--------|--------|--------|--------|


E|--------|--------|--------|--------|--------|--------|--------|--------|--------|
B|--------|--------|--------|--------|--------|--------|--------|--------|--------|
G|--------|--------|--------|--------|--------|--------|--------|--------|--------|
D|--------|--------|--------|--------|--------|--------|--------|--------|--------|
A|--------|--------|--------|--------|--------|--------|--------|--------|--------|
E|--------|--------|--------|--------|--------|--------|--------|--------|--------|


E|--------|--------|--------|--------|--------|--------|--------|--------|--------|
B|--------|--------|--------|--------|--------|--------|--------|--------|--------|
G|--------|--------|--------|--------|--------|--------|--------|--------|--------|
D|--------|--------|--------|--------|--------|--------|--------|--------|--------|
A|--------|--------|--------|--------|--------|--------|--------|--------|--------|
E|--------|--------|--------|--------|--------|--------|--------|--------|--------|


E|--------|--------|--------|--------|--------|--------|--------|--------|--------|
B|--------|--------|--------|--------|--------|--------|--------|--------|--------|
G|--------|--------|--------|--------|--------|--------|--------|--------|--------|
D|--------|--------|--------|--------|--------|--------|--------|--------|--------|
A|--------|--------|--------|--------|--------|--------|--------|--------|--------|
E|--------|--------|--------|--------|--------|--------|--------|--------|--------|


E|--------|--------|--------|--------|--------|--------|--------|--------|--------|
B|--------|--------|--------|--------|--------|--------|--------|--------|--------|
G|--------|--------|--------|--------|--------|--------|--------|--------|--------|
D|--------|--------|--------|--------|--------|--------|--------|--------|--------|
A|--------|--------|--------|--------|--------|--------|--------|--------|--------|
E|--------|--------|--------|--------|--------|--------|--------|--------|--------|


E|-------------19--------------19--|-------------17--------------17--|-------------19--------------19--|
B|-19--17--19------19------19------|-19------19------19------19------|-19--17--19------19------19------|
G|---------------------19----------|-----18--------------18----------|---------------------19----------|
D|---------------------------------|---------------------------------|---------------------------------|
A|---------------------------------|---------------------------------|---------------------------------|
E|---------------------------------|---------------------------------|---------------------------------|


E|-------------19--------------19--|-------------19--------------19--|-------------17--------------17--|
B|-19--17--19------19------19------|-19--17--19------19------19------|-19------19------19------19------|
G|---------------------19----------|---------------------19----------|-----18--------------18----------|
D|---------------------------------|---------------------------------|---------------------------------|
A|---------------------------------|---------------------------------|---------------------------------|
E|---------------------------------|---------------------------------|---------------------------------|


E|-------------19--------------19--|-------------19--------------19--|-------------19--------------19--|
B|-19--17--19------19------19------|-19--17--19------19------19------|-19--17--19------19------19------|
G|---------------------19----------|---------------------19----------|---------------------19----------|
D|---------------------------------|---------------------------------|---------------------------------|
A|---------------------------------|---------------------------------|---------------------------------|
E|---------------------------------|---------------------------------|---------------------------------|


E|-------------17--------------17--|-------------19--------------19--|-------------19--------------19--|
B|-19------19------19------19------|-19--17--19------19------19------|-19--17--19------19------19------|
G|-----18--------------18----------|---------------------19----------|---------------------19----------|
D|---------------------------------|---------------------------------|---------------------------------|
A|---------------------------------|---------------------------------|---------------------------------|
E|---------------------------------|---------------------------------|---------------------------------|


E|-------------19--------------19--|-------------17--------------17--|-------------19--------------19--|
B|-19--17--19------19------19------|-19------19------19------19------|-19--17--19------19------19------|
G|---------------------19----------|-----18--------------18----------|---------------------19----------|
D|---------------------------------|---------------------------------|---------------------------------|
A|---------------------------------|---------------------------------|---------------------------------|
E|---------------------------------|---------------------------------|---------------------------------|


E|-------------19--------------19--|--------|--------|--------|--------|--------|--------|
B|-19--17--19------19------19------|--------|--------|--------|--------|--------|--------|
G|---------------------19----------|--------|--------|--------|--------|--------|--------|
D|---------------------------------|--------|--------|--------|--------|--------|--------|
A|---------------------------------|--------|--------|--------|--------|--------|--------|
E|---------------------------------|--------|--------|--------|--------|--------|--------|


E|--------|--------|--------|--------|--------|--------|--------|--------|--------|
B|--------|--------|--------|--------|--------|--------|--------|--------|--------|
G|--------|--------|--------|--------|--------|--------|--------|--------|--------|
D|--------|--------|--------|--------|--------|--------|--------|--------|--------|
A|--------|--------|--------|--------|--------|--------|--------|--------|--------|
E|--------|--------|--------|--------|--------|--------|--------|--------|--------|


E|--------|--------|--------|--------|--------|--------|--------|--------|--------|
B|--------|--------|--------|--------|--------|--------|--------|--------|--------|
G|--------|--------|--------|--------|--------|--------|--------|--------|--------|
D|--------|--------|--------|--------|--------|--------|--------|--------|--------|
A|--------|--------|--------|--------|--------|--------|--------|--------|--------|
E|--------|--------|--------|--------|--------|--------|--------|--------|--------|


E|--------|--------|--------|--------|--------|--------|--------|--------|--------|
B|--------|--------|--------|--------|--------|--------|--------|--------|--------|
G|--------|--------|--------|--------|--------|--------|--------|--------|--------|
D|--------|--------|--------|--------|--------|--------|--------|--------|--------|
A|--------|--------|--------|--------|--------|--------|--------|--------|--------|
E|--------|--------|--------|--------|--------|--------|--------|--------|--------|


E|--------|--------|--------|--------|--------|--------|--------|--------|--------|
B|--------|--------|--------|--------|--------|--------|--------|--------|--------|
G|--------|--------|--------|--------|--------|--------|--------|--------|--------|
D|--------|--------|--------|--------|--------|--------|--------|--------|--------|
A|--------|--------|--------|--------|--------|--------|--------|--------|--------|
E|--------|--------|--------|--------|--------|--------|--------|--------|--------|


E|--------|--------|--------|--------|--------|--------|--------|--------|--------|
B|--------|--------|--------|--------|--------|--------|--------|--------|--------|
G|--------|--------|--------|--------|--------|--------|--------|--------|--------|
D|--------|--------|--------|--------|--------|--------|--------|--------|--------|
A|--------|--------|--------|--------|--------|--------|--------|--------|--------|
E|--------|--------|--------|--------|--------|--------|--------|--------|--------|


E|--------|--------|--------|--------|--------|--------|--------|--------|--------|
B|--------|--------|--------|--------|--------|--------|--------|--------|--------|
G|--------|--------|--------|--------|--------|--------|--------|--------|--------|
D|--------|--------|--------|--------|--------|--------|--------|--------|--------|
A|--------|--------|--------|--------|--------|--------|--------|--------|--------|
E|--------|--------|--------|--------|--------|--------|--------|--------|--------|


E|--------|--------|--------|--------|--------|--------|--------|--------|--------|
B|--------|--------|--------|--------|--------|--------|--------|--------|--------|
G|--------|--------|--------|--------|--------|--------|--------|--------|--------|
D|--------|--------|--------|--------|--------|--------|--------|--------|--------|
A|--------|--------|--------|--------|--------|--------|--------|--------|--------|
E|--------|--------|--------|--------|--------|--------|--------|--------|--------|


E|--------|--------|--------|--------|--------|--------|--------|--------|--------|
B|--------|--------|--------|--------|--------|--------|--------|--------|--------|
G|--------|--------|--------|--------|--------|--------|--------|--------|--------|
D|--------|--------|--------|--------|--------|--------|--------|--------|--------|
A|--------|--------|--------|--------|--------|--------|--------|--------|--------|
E|--------|--------|--------|--------|--------|--------|--------|--------|--------|


E|--------|--------|--------|--------|--------|--------|--------|--------|--------|
B|--------|--------|--------|--------|--------|--------|--------|--------|--------|
G|--------|--------|--------|--------|--------|--------|--------|--------|--------|
D|--------|--------|--------|--------|--------|--------|--------|--------|--------|
A|--------|--------|--------|--------|--------|--------|--------|--------|--------|
E|--------|--------|--------|--------|--------|--------|--------|--------|--------|


E|--------|--------|--------|--------|--------|
B|--------|--------|--------|--------|--------|
G|--------|--------|--------|--------|--------|
D|--------|--------|--------|--------|--------|
A|--------|--------|--------|--------|--------|
E|--------|--------|--------|--------|--------|





Track 4: KBD-B [strings]

E|--------|--------|--------|--------|--------|--------|--------|--------|--------|
B|--------|--------|--------|--------|--------|--------|--------|--------|--------|
G|--------|--------|--------|--------|--------|--------|--------|--------|--------|
D|--------|--------|--------|--------|--------|--------|--------|--------|--------|
A|--------|--------|--------|--------|--------|--------|--------|--------|--------|
E|--------|--------|--------|--------|--------|--------|--------|--------|--------|


E|--------|--------|--------|--------|--------|--------|--------|--------|--------|
B|--------|--------|--------|-3------|-3------|-3------|-3------|-3------|-3------|
G|--------|--------|--------|-4------|-4------|-4------|-4------|-4------|-4------|
D|--------|--------|--------|-4------|-4------|-4------|-4------|-4------|-4------|
A|--------|--------|--------|--------|--------|--------|--------|--------|--------|
E|--------|--------|--------|--------|--------|--------|--------|--------|--------|


E|--------|--------|-5------|-5------|--------|-----------------|--------|--------|
B|-3------|-3------|-7------|-7------|-7------|-7---------------|-3------|-3------|
G|-4------|-4------|-7------|-7------|-7------|-7---------------|-4------|-4------|
D|-4------|-4------|-7------|-7------|-9------|-9---------------|-4------|-4------|
A|--------|--------|--------|--------|-10-----|-10----12---12---|--------|--------|
E|--------|--------|--------|--------|--------|------------12---|--------|--------|


E|--------|--------|-5------|-5------|--------|-----------------|-7------|-7------|
B|-3------|-3------|-7------|-7------|-7------|-7-----3---------|--------|--------|
G|-4------|-4------|-7------|-7------|-7------|-7----------2----|--------|--------|
D|-4------|-4------|-7------|-7------|-9------|-9----------2----|--------|--------|
A|--------|--------|--------|--------|-10-----|-10--------------|--------|--------|
E|--------|--------|--------|--------|--------|-----------------|--------|--------|


E|-7------|-7------|-10-----|-10-----|--------|--------|-7------|-7------|-7------|
B|--------|--------|--------|--------|-12-----|--------|--------|--------|--------|
G|--------|--------|--------|--------|--------|--------|--------|--------|--------|
D|--------|--------|--------|--------|--------|--------|--------|--------|--------|
A|--------|--------|--------|--------|--------|--------|--------|--------|--------|
E|--------|--------|--------|--------|--------|--------|--------|--------|--------|


E|-7------|-10-----|-10-----|--------|-----------------|--------|--------|--------|
B|--------|--------|--------|-12-----|-------3---------|-3------|-3------|-3------|
G|--------|--------|--------|--------|------------2----|-4------|-4------|-4------|
D|--------|--------|--------|--------|------------2----|-4------|-4------|-4------|
A|--------|--------|--------|--------|-----------------|--------|--------|--------|
E|--------|--------|--------|--------|-----------------|--------|--------|--------|


E|--------|--------|--------|--------|--------|-5------|-5------|--------|-----------------|
B|-3------|-3------|-3------|-3------|-3------|-7------|-7------|-7------|-7---------------|
G|-4------|-4------|-4------|-4------|-4------|-7------|-7------|-7------|-7---------------|
D|-4------|-4------|-4------|-4------|-4------|-7------|-7------|-9------|-9---------------|
A|--------|--------|--------|--------|--------|--------|--------|-10-----|-10----12---12---|
E|--------|--------|--------|--------|--------|--------|--------|--------|------------12---|


E|--------|--------|--------|--------|-5------|-5------|--------|-----------------|
B|-3------|-3------|-3------|-3------|-7------|-7------|-7------|-7-----3---------|
G|-4------|-4------|-4------|-4------|-7------|-7------|-7------|-7----------2----|
D|-4------|-4------|-4------|-4------|-7------|-7------|-9------|-9----------2----|
A|--------|--------|--------|--------|--------|--------|-10-----|-10--------------|
E|--------|--------|--------|--------|--------|--------|--------|-----------------|


E|-7------|-7------|-7------|-7------|-10-----|-10-----|-10-----|-10---------12---|
B|--------|--------|--------|--------|-10-----|-10-----|--------|-------10--------|
G|--------|--------|--------|--------|--------|--------|--------|------------9----|
D|--------|--------|--------|--------|--------|--------|--------|-----------------|
A|--------|--------|--------|--------|--------|--------|--------|-----------------|
E|--------|--------|--------|--------|--------|--------|--------|-----------------|


E|-7------|-7------|-7------|-7------|-10-----|-10-----|--------|-----------------------|
B|--------|--------|--------|--------|-10-----|-10-----|-12-----|-15------15------------|
G|--------|--------|--------|--------|--------|--------|--------|-12------16------------|
D|--------|--------|--------|--------|--------|--------|--------|-12------12------------|
A|--------|--------|--------|--------|--------|--------|--------|-----------------------|
E|--------|--------|--------|--------|--------|--------|--------|-----------------------|


E|--------|--------|--------|--------|--------|--------|--------|--------|--------|
B|--------|--------|--------|--------|--------|--------|--------|--------|--------|
G|--------|--------|--------|--------|--------|--------|--------|--------|--------|
D|--------|--------|--------|--------|--------|--------|--------|--------|--------|
A|--------|--------|--------|--------|--------|--------|--------|--------|--------|
E|--------|--------|--------|--------|--------|--------|--------|--------|--------|


E|--------|--------|--------|--------|--------|--------|--------|--------|--------|
B|--------|--------|--------|--------|--------|--------|--------|--------|--------|
G|--------|--------|--------|--------|--------|--------|--------|--------|--------|
D|--------|--------|--------|--------|--------|--------|--------|--------|--------|
A|--------|--------|--------|--------|--------|--------|--------|--------|--------|
E|--------|--------|--------|--------|--------|--------|--------|--------|--------|


E|--------|--------|--------10--|-10---10---10----|-10-----10--|-10---10---10----|
B|--------|--------|--------12--|-12---12---------|--------12--|-12---12---------|
G|--------|--------|-11-----11--|-11---11---------|-11-----11--|-11---11---------|
D|--------|--------|------------|------12---------|-12---------|------12---------|
A|--------|--------|------------|-----------------|------------|-----------------|
E|--------|--------|------------|-----------------|------------|-----------------|


E|-10-----10--10--|-10---10---10----|-10-----10--10--|--------|--------|--------|--------|
B|-10---------10--|-10---10---------|-12---------12--|--------|--------|--------|--------|
G|-11---------11--|-11---11---------|-12---------12--|--------|--------|--------|--------|
D|------------12--|-12---12---------|-12---------12--|--------|--------|--------|--------|
A|----------------|-----------------|----------------|--------|--------|--------|--------|
E|----------------|-----------------|----------------|--------|--------|--------|--------|


E|--------|--------|--------|--------|--------|--------|--------|--------|--------|
B|--------|--------|--------|--------|--------|--------|--------|--------|--------|
G|--------|--------|--------|--------|--------|--------|--------|--------|--------|
D|--------|--------|--------|--------|--------|--------|--------|--------|--------|
A|--------|--------|--------|--------|--------|--------|--------|--------|--------|
E|--------|--------|--------|--------|--------|--------|--------|--------|--------|


E|--------|--------|--------|--------|--------|--------|--------|--------|--------|
B|--------|--------|--------|--------|--------|--------|--------|--------|--------|
G|--------|--------|--------|--------|--------|--------|--------|--------|--------|
D|--------|--------|--------|--------|--------|--------|--------|--------|--------|
A|--------|--------|--------|--------|--------|--------|--------|--------|--------|
E|--------|--------|--------|--------|--------|--------|--------|--------|--------|


E|--------|--------|--------|--------|--------|--------|--------|--------|--------|
B|--------|--------|--------|--------|--------|--------|--------|--------|--------|
G|--------|--------|--------|--------|--------|--------|--------|--------|--------|
D|--------|--------|--------|--------|--------|--------|--------|--------|--------|
A|--------|--------|--------|--------|--------|--------|--------|--------|--------|
E|--------|--------|--------|--------|--------|--------|--------|--------|--------|


E|--------|--------|--------|--------|--------|--------|-2------|-2------|-2------|
B|--------|--------|--------|-3------|-3------|-3------|-3------|-3------|-3------|
G|--------|--------|--------|-4------|-4------|-4------|-4------|-4------|-4------|
D|--------|--------|--------|-4------|-4------|-4------|-4------|-4------|-4------|
A|--------|--------|--------|--------|--------|--------|--------|--------|--------|
E|--------|--------|--------|--------|--------|--------|--------|--------|--------|


E|-2------|-2------|-2------|-2------|-2------|-2------|-2------|-2------|-2---------------|
B|-3------|-3------|-3------|-3------|-3------|-3------|-3------|-3------|-3-----3---------|
G|-4------|-4------|-4------|-4------|-4------|-4------|-4------|-4------|-4----------2----|
D|-4------|-4------|-4------|-4------|-4------|-4------|-4------|-4------|-4----------2----|
A|--------|--------|--------|--------|--------|--------|--------|--------|-----------------|
E|--------|--------|--------|--------|--------|--------|--------|--------|-----------------|


E|-7------|-7------|-7------|-7------|-10-----|-10-----|-10-----|-10---------12---|
B|--------|--------|--------|--------|-10-----|-10-----|--------|-------10--------|
G|--------|--------|--------|--------|--------|--------|--------|------------9----|
D|--------|--------|--------|--------|--------|--------|--------|-----------------|
A|--------|--------|--------|--------|--------|--------|--------|-----------------|
E|--------|--------|--------|--------|--------|--------|--------|-----------------|


E|-7------|-7------|-7------|-7------|-10-----|-10-----|-10-----|-10---------12---|
B|--------|--------|--------|--------|-10-----|-10-----|--------|-------10--------|
G|--------|--------|--------|--------|--------|--------|--------|------------9----|
D|--------|--------|--------|--------|--------|--------|--------|-----------------|
A|--------|--------|--------|--------|--------|--------|--------|-----------------|
E|--------|--------|--------|--------|--------|--------|--------|-----------------|


E|-7------|-7------|-7------|-7------|-10-----|-10-----|-10-----|-10---------12---|
B|--------|--------|--------|--------|-10-----|-10-----|--------|-------10--------|
G|--------|--------|--------|--------|--------|--------|--------|------------9----|
D|--------|--------|--------|--------|--------|--------|--------|-----------------|
A|--------|--------|--------|--------|--------|--------|--------|-----------------|
E|--------|--------|--------|--------|--------|--------|--------|-----------------|


E|--------|-2----2----3---------|--------|--------|--------|----------------|--------|
B|-12-----|-3----3----3----2----|--------|--------|-10-----|-10-------------|--------|
G|--------|-4----4----2----2----|-4------|-4------|-4------|-4------2---4---|--------|
D|--------|-5----5---------2----|-4------|-4------|-4------|-4------2---4---|--------|
A|--------|---------------------|-2------|-2------|-2------|-2------0---2---|--------|
E|--------|---------------------|--------|--------|--------|----------------|--------|


E|--------|
B|--------|
G|--------|
D|--------|
A|--------|
E|--------|





Track 5: KBD-C [lead]

E|--------|--------|--------|--------|--------|--------|--------|--------|--------|
B|--------|--------|--------|--------|--------|--------|--------|--------|--------|
G|--------|--------|--------|--------|--------|--------|--------|--------|--------|
D|--------|--------|--------|--------|--------|--------|--------|--------|--------|
A|--------|--------|--------|--------|--------|--------|--------|--------|--------|
E|--------|--------|--------|--------|--------|--------|--------|--------|--------|


E|--------|--------|--------|--------|--------|--------|--------|--------|--------|
B|--------|--------|--------|--------|--------|--------|--------|--------|--------|
G|--------|--------|--------|--------|--------|--------|--------|--------|--------|
D|--------|--------|--------|--------|--------|--------|--------|--------|--------|
A|--------|--------|--------|--------|--------|--------|--------|--------|--------|
E|--------|--------|--------|--------|--------|--------|--------|--------|--------|


E|-------------17--|-19----------|-------------|--------|--------|---------------------|
B|-----------------|-------------|-------------|--------|--------|---------------------|
G|-----------------|-------19----|-19----------|--------|--------|---------------------|
D|-----------------|-------------|-------------|-19-----|--------|---------------------|
A|-----------------|-------------|-------------|--------|-14-----|-14--------12---12---|
E|-----------------|-------------|-------------|--------|--------|----------------12---|


E|--------|--------|-------------17--|-19----------|-------------|--------|--------|
B|--------|--------|-----------------|-------------|-------------|--------|--------|
G|--------|--------|-----------------|-------19----|-19----------|--------|--------|
D|--------|--------|-----------------|-------------|-------------|-19-----|--------|
A|--------|--------|-----------------|-------------|-------------|--------|-14-----|
E|--------|--------|-----------------|-------------|-------------|--------|--------|


E|--------|--------|--------|--------|--------|--------|--------|--------|--------|
B|--------|--------|--------|--------|--------|--------|--------|--------|--------|
G|--------|--------|--------|--------|--------|--------|--------|--------|--------|
D|--------|--------|--------|--------|--------|--------|--------|--------|--------|
A|--------|--------|--------|--------|--------|--------|--------|--------|--------|
E|--------|--------|--------|--------|--------|--------|--------|--------|--------|


E|--------|--------|--------|--------|--------|--------|--------|--------|--------|
B|--------|--------|--------|--------|--------|--------|--------|--------|--------|
G|--------|--------|--------|--------|--------|--------|--------|--------|--------|
D|--------|--------|--------|--------|--------|--------|--------|--------|--------|
A|--------|--------|--------|--------|--------|--------|--------|--------|--------|
E|--------|--------|--------|--------|--------|--------|--------|--------|--------|


E|--------|--------|--------|--------|--------|-------------17--|-19----------|-------------|
B|--------|--------|--------|--------|--------|-----------------|-------------|-------------|
G|--------|--------|--------|--------|--------|-----------------|-------19----|-19----------|
D|--------|--------|--------|--------|--------|-----------------|-------------|-------------|
A|--------|--------|--------|--------|--------|-----------------|-------------|-------------|
E|--------|--------|--------|--------|--------|-----------------|-------------|-------------|


E|--------|--------|---------------------|--------|--------|-------------17--|-19----------|
B|--------|--------|---------------------|--------|--------|-----------------|-------------|
G|--------|--------|---------------------|--------|--------|-----------------|-------19----|
D|-19-----|--------|---------------------|--------|--------|-----------------|-------------|
A|--------|-14-----|-14--------12---12---|--------|--------|-----------------|-------------|
E|--------|--------|----------------12---|--------|--------|-----------------|-------------|


E|-------------|--------|--------|--------|--------|--------|--------|--------|--------|
B|-------------|--------|--------|--------|--------|--------|--------|--------|--------|
G|-19----------|--------|--------|--------|--------|--------|--------|--------|--------|
D|-------------|-19-----|--------|--------|--------|--------|--------|--------|--------|
A|-------------|--------|-14-----|--------|--------|--------|--------|--------|--------|
E|-------------|--------|--------|--------|--------|--------|--------|--------|--------|


E|--------|--------|--------|--------|--------|--------|--------|--------|--------|
B|--------|--------|--------|--------|--------|--------|--------|--------|--------|
G|--------|--------|--------|--------|--------|--------|--------|--------|--------|
D|--------|--------|--------|--------|--------|--------|--------|--------|--------|
A|--------|--------|--------|--------|--------|--------|--------|--------|--------|
E|--------|--------|--------|--------|--------|--------|--------|--------|--------|


E|--------|--------|--------|--------|--------|--------|--------|--------|--------|
B|--------|--------|--------|--------|--------|--------|--------|--------|--------|
G|--------|--------|--------|--------|--------|--------|--------|--------|--------|
D|--------|--------|--------|--------|--------|--------|--------|--------|--------|
A|--------|--------|--------|--------|--------|--------|--------|--------|--------|
E|--------|--------|--------|--------|--------|--------|--------|--------|--------|


E|--------|--------|--------|--------|--------|--------|--------|--------|--------|
B|--------|--------|--------|--------|--------|--------|--------|--------|--------|
G|--------|--------|--------|--------|--------|--------|--------|--------|--------|
D|--------|--------|--------|--------|--------|--------|--------|--------|--------|
A|--------|--------|--------|--------|--------|--------|--------|--------|--------|
E|--------|--------|--------|--------|--------|--------|--------|--------|--------|


E|-10--10--10--10--10--10--10--10--|-10--10--10--10--10--10--10--10--|-10--10--10--10--10--10--10--10--|
B|-10--10--10--10--10--10--10--10--|-10--10--10--10--10--10--10--10--|-10--10--10--10--10--10--10--10--|
G|---------------------------------|---------------------------------|---------------------------------|
D|---------------------------------|---------------------------------|---------------------------------|
A|---------------------------------|---------------------------------|---------------------------------|
E|---------------------------------|---------------------------------|---------------------------------|


E|-10--10--10--10--10--10--10--10--|--------|--------|--------|--------|--------|--------|
B|-10--10--10--10--10--10--10--10--|--------|--------|--------|--------|--------|--------|
G|---------------------------------|--------|--------|--------|--------|--------|--------|
D|---------------------------------|--------|--------|--------|--------|--------|--------|
A|---------------------------------|--------|--------|--------|--------|--------|--------|
E|---------------------------------|--------|--------|--------|--------|--------|--------|


E|--------|-----------------------------------------------|--------|--------|--------|
B|--------|-----------------------------------------------|--------|--------|--------|
G|--------|-9--9--8--8--7--7--6--6--5--5--4--4--3--3------|--------|--------|--------|
D|--------|-9--9--8--8--7--7--6--6--5--5--4--4--3--3------|--------|--------|--------|
A|--------|-9--9--8--8--7--7--6--6--5--5--4--4--3--3------|--------|--------|--------|
E|--------|-9--9--8--8--7--7--6--6--5--5--4--4--3--3------|--------|--------|--------|


E|--------|--------|--------|--------|-12-11-------------------------------------------|
B|--------|--------|--------|--------|-12-11-11-10-9--9--------------------------------|
G|--------|--------|--------|--------|-12-11-11-10-9--9--8--8--7-----------------------|
D|--------|--------|--------|--------|-------11-10-9--9--8--8--7--7--6--6--5--5--4--2--|
A|--------|--------|--------|--------|-------------------8--8--7--7--6--6--5--5--4--2--|
E|--------|--------|--------|--------|----------------------------7--6--6--5--5--4--2--|


E|--------|--------|--------|--------|--------|--------|--------|--------|--------|
B|--------|--------|--------|--------|--------|--------|--------|--------|--------|
G|--------|--------|--------|--------|--------|--------|--------|--------|--------|
D|--------|--------|--------|--------|--------|--------|--------|--------|--------|
A|--------|--------|--------|--------|--------|--------|--------|--------|--------|
E|--------|--------|--------|--------|--------|--------|--------|--------|--------|


E|--------|--------|--------|--------|--------|--------|--------|--------|--------|
B|--------|--------|--------|--------|--------|--------|--------|--------|--------|
G|--------|--------|--------|--------|--------|--------|--------|--------|--------|
D|--------|--------|--------|--------|--------|--------|--------|--------|--------|
A|--------|--------|--------|--------|--------|--------|--------|--------|--------|
E|--------|--------|--------|--------|--------|--------|--------|--------|--------|


E|--------|--------|--------|--------|--------|--------|--------|--------|--------|
B|--------|--------|--------|--------|--------|--------|--------|--------|--------|
G|--------|--------|--------|--------|--------|--------|--------|--------|--------|
D|--------|--------|--------|--------|--------|--------|--------|--------|--------|
A|--------|--------|--------|--------|--------|--------|--------|--------|--------|
E|--------|--------|--------|--------|--------|--------|--------|--------|--------|


E|--------|--------|--------|--------|--------|--------|--------|--------|--------|
B|--------|--------|--------|--------|--------|--------|--------|--------|--------|
G|--------|--------|--------|--------|--------|--------|--------|--------|--------|
D|--------|--------|--------|--------|--------|--------|--------|--------|--------|
A|--------|--------|--------|--------|--------|--------|--------|--------|--------|
E|--------|--------|--------|--------|--------|--------|--------|--------|--------|


E|--------|--------|--------|--------|--------|--------|--------|--------|--------|
B|--------|--------|--------|--------|--------|--------|--------|--------|--------|
G|--------|--------|--------|--------|--------|--------|--------|--------|--------|
D|--------|--------|--------|--------|--------|--------|--------|--------|--------|
A|--------|--------|--------|--------|--------|--------|--------|--------|--------|
E|--------|--------|--------|--------|--------|--------|--------|--------|--------|


E|--------|--------|--------|--------|--------|--------|--------|--------|--------|
B|--------|--------|--------|--------|--------|--------|--------|--------|--------|
G|--------|--------|--------|--------|--------|--------|--------|--------|--------|
D|--------|--------|--------|--------|--------|--------|--------|--------|--------|
A|--------|--------|--------|--------|--------|--------|--------|--------|--------|
E|--------|--------|--------|--------|--------|--------|--------|--------|--------|


E|--------|--------|--------|--------|--------|--------|--------|--------|--------|
B|--------|--------|--------|--------|--------|--------|--------|--------|--------|
G|--------|--------|--------|--------|--------|--------|--------|--------|--------|
D|--------|--------|--------|--------|--------|--------|--------|--------|--------|
A|--------|--------|--------|--------|--------|--------|--------|--------|--------|
E|--------|--------|--------|--------|--------|--------|--------|--------|--------|


E|--------|--------|--------|--------|--------|--------|--------|-----10------10------10------10--|
B|--------|--------|--------|--------|--------|--------|--------|-10--10--10--10--10--10--10--10--|
G|--------|--------|--------|--------|--------|--------|--------|---------------------------------|
D|--------|--------|--------|--------|--------|--------|--------|---------------------------------|
A|--------|--------|--------|--------|--------|--------|--------|---------------------------------|
E|--------|--------|--------|--------|--------|--------|--------|---------------------------------|


E|-----10------10------10------10--|
B|-10--10--10--10--10--10--10--10--|
G|---------------------------------|
D|---------------------------------|
A|---------------------------------|
E|---------------------------------|





Track 6: Dist. GTR

E|--------|--------|--------|--------|--------|--------|--------|--------|--------|
B|--------|--------|--------|--------|--------|--------|--------|--------|--------|
G|--------|--------|--------|--------|--------|--------|--------|--------|--------|
D|--------|--------|--------|--------|--------|--------|--------|--------|--------|
A|--------|--------|--------|--------|--------|--------|--------|--------|--------|
E|--------|--------|--------|--------|--------|--------|--------|--------|--------|


E|--------|--------|--------|--------|--------|--------|--------|--------|--------|
B|--------|--------|--------|--------|--------|--------|--------|--------|--------|
G|--------|--------|--------|--------|--------|--------|--------|--------|--------|
D|--------|--------|--------|--------|--------|--------|--------|--------|--------|
A|--------|--------|--------|--------|--------|--------|--------|--------|--------|
E|--------|--------|--------|--------|--------|--------|--------|--------|--------|


E|--------|--------|--------|--------|--------|--------|--------|--------|--------|
B|--------|--------|--------|--------|--------|--------|--------|--------|--------|
G|--------|--------|--------|--------|--------|--------|--------|--------|--------|
D|--------|--------|--------|--------|--------|--------|--------|--------|--------|
A|--------|--------|--------|--------|--------|--------|--------|--------|--------|
E|--------|--------|--------|--------|--------|--------|--------|--------|--------|


E|--------|--------|--------|--------|--------|--------|--------|--------|--------|
B|--------|--------|--------|--------|--------|--------|--------|--------|--------|
G|--------|--------|--------|--------|--------|--------|--------|--------|--------|
D|--------|--------|--------|--------|--------|--------|--------|--------|--------|
A|--------|--------|--------|--------|--------|--------|--------|--------|--------|
E|--------|--------|--------|--------|--------|--------|--------|--------|--------|


E|--------|--------|--------|--------|--------|--------|--------|--------|--------|
B|--------|--------|--------|--------|--------|--------|--------|--------|--------|
G|--------|--------|--------|--------|--------|--------|--------|--------|--------|
D|--------|--------|--------|--------|--------|--------|--------|--------|--------|
A|--------|--------|--------|--------|--------|--------|--------|--------|--------|
E|--------|--------|--------|--------|--------|--------|--------|--------|--------|


E|--------|--------|--------|--------|--------|--------|--------|--------|--------|
B|--------|--------|--------|--------|--------|--------|--------|--------|--------|
G|--------|--------|--------|--------|--------|--------|--------|--------|--------|
D|--------|--------|--------|--------|--------|--------|--------|--------|--------|
A|--------|--------|--------|--------|--------|--------|--------|--------|--------|
E|--------|--------|--------|--------|--------|--------|--------|--------|--------|


E|--------|--------|--------|--------|--------|--------|--------|--------|--------|
B|--------|--------|--------|--------|--------|--------|--------|--------|--------|
G|--------|--------|--------|--------|--------|--------|--------|--------|--------|
D|--------|--------|--------|--------|--------|--------|--------|--------|--------|
A|--------|--------|--------|--------|--------|--------|--------|--------|--------|
E|--------|--------|--------|--------|--------|--------|--------|--------|--------|


E|--------|--------|--------|--------|--------|--------|--------|--------|--------|
B|--------|--------|--------|--------|--------|--------|--------|--------|--------|
G|--------|--------|--------|--------|--------|--------|--------|--------|--------|
D|--------|--------|--------|--------|--------|--------|--------|--------|--------|
A|--------|--------|--------|--------|--------|--------|--------|--------|--------|
E|--------|--------|--------|--------|--------|--------|--------|--------|--------|


E|--------|--------|--------|--------|--------|--------|--------|--------|--------|
B|--------|--------|--------|--------|--------|--------|--------|--------|--------|
G|--------|--------|--------|--------|--------|--------|--------|--------|--------|
D|--------|--------|--------|--------|--------|--------|--------|--------|--------|
A|--------|--------|--------|--------|--------|--------|--------|--------|--------|
E|--------|--------|--------|--------|--------|--------|--------|--------|--------|


E|--------|--------|--------|--------|--------|--------|--------|--------|--------|
B|--------|--------|--------|--------|--------|--------|--------|--------|--------|
G|--------|--------|--------|--------|--------|--------|--------|--------|--------|
D|--------|--------|--------|--------|--------|--------|--------|--------|--------|
A|--------|--------|--------|--------|--------|--------|--------|--------|--------|
E|--------|--------|--------|--------|--------|--------|--------|--------|--------|


E|--------|--------|--------|--------|--------|--------|--------|--------|--------|
B|--------|--------|--------|--------|--------|--------|--------|--------|--------|
G|--------|--------|--------|--------|--------|--------|--------|--------|--------|
D|--------|--------|--------|--------|--------|--------|--------|--------|--------|
A|--------|--------|--------|--------|--------|--------|--------|--------|--------|
E|--------|--------|--------|--------|--------|--------|--------|--------|--------|


E|--------|--------|--------|--------|--------|--------|--------|--------|--------|
B|--------|--------|--------|--------|--------|--------|--------|--------|--------|
G|--------|--------|--------|--------|--------|--------|--------|--------|--------|
D|--------|--------|--------|--------|--------|--------|--------|--------|--------|
A|--------|--------|--------|--------|--------|--------|--------|--------|--------|
E|--------|--------|--------|--------|--------|--------|--------|--------|--------|


E|--------|--------|--------|-10----10---12---|--------|--------|--------|--------|
B|--------|--------|--------|-12----10---10---|--------|--------|--------|--------|
G|--------|--------|--------|-12---------9----|--------|--------|--------|--------|
D|--------|--------|--------|-12----12--------|--------|--------|--------|--------|
A|--------|--------|--------|-----------------|--------|--------|--------|--------|
E|--------|--------|--------|-----------------|--------|--------|--------|--------|


E|--------|--------|--------|--------|--------|--------|--------|--------|--------|
B|--------|--------|--------|--------|--------|--------|--------|--------|--------|
G|--------|--------|--------|--------|--------|--------|--------|--------|--------|
D|--------|--------|--------|--------|--------|--------|--------|--------|--------|
A|--------|--------|--------|--------|--------|--------|--------|--------|--------|
E|--------|--------|--------|--------|--------|--------|--------|--------|--------|


E|--------|--------|--------|--------|--------|--------|--------|--------|--------|
B|--------|--------|--------|--------|--------|--------|--------|--------|--------|
G|--------|--------|--------|--------|--------|--------|--------|--------|--------|
D|--------|--------|--------|--------|--------|--------|--------|--------|--------|
A|--------|--------|--------|--------|--------|--------|--------|--------|--------|
E|--------|--------|--------|--------|--------|--------|--------|--------|--------|


E|--------|--------|--------|--------|--------|--------|--------|--------|--------|
B|--------|--------|--------|--------|--------|--------|--------|--------|--------|
G|--------|--------|--------|--------|--------|--------|--------|--------|--------|
D|--------|--------|--------|--------|--------|--------|--------|--------|--------|
A|--------|--------|--------|--------|--------|--------|--------|--------|--------|
E|--------|--------|--------|--------|--------|--------|--------|--------|--------|


E|--------|--------|--------|--------|--------|--------|--------|--------|--------|
B|--------|--------|--------|--------|--------|--------|--------|--------|--------|
G|--------|--------|--------|--------|--------|--------|--------|--------|--------|
D|--------|--------|--------|--------|--------|--------|--------|--------|--------|
A|--------|--------|--------|--------|--------|--------|--------|--------|--------|
E|--------|--------|--------|--------|--------|--------|--------|--------|--------|


E|--------|--------|--------|--------|--------|--------|--------|--------|--------|
B|--------|--------|--------|--------|--------|--------|--------|--------|--------|
G|--------|--------|--------|--------|--------|--------|--------|--------|--------|
D|--------|--------|--------|--------|--------|--------|--------|--------|--------|
A|--------|--------|--------|--------|--------|--------|--------|--------|--------|
E|--------|--------|--------|--------|--------|--------|--------|--------|--------|


E|--------|--------|--------|--------|--------|--------|--------|--------|--------|
B|--------|--------|--------|--------|--------|--------|--------|--------|--------|
G|--------|--------|--------|--------|--------|--------|--------|--------|--------|
D|--------|--------|--------|--------|--------|--------|--------|--------|--------|
A|--------|--------|--------|--------|--------|--------|--------|--------|--------|
E|--------|--------|--------|--------|--------|--------|--------|--------|--------|


E|--------|--------|--------|--------|--------|--------|--------|--------|--------|
B|--------|--------|--------|--------|--------|--------|--------|--------|--------|
G|--------|--------|--------|--------|--------|--------|--------|--------|--------|
D|--------|--------|--------|--------|--------|--------|--------|--------|--------|
A|--------|--------|--------|--------|--------|--------|--------|--------|--------|
E|--------|--------|--------|--------|--------|--------|--------|--------|--------|


E|--------|--------|--------|--------|--------|--------|--------|--------|--------|
B|--------|--------|--------|--------|--------|--------|--------|--------|--------|
G|--------|--------|--------|--------|--------|--------|--------|--------|--------|
D|--------|--------|--------|--------|--------|--------|--------|--------|--------|
A|--------|--------|--------|--------|--------|--------|--------|--------|--------|
E|--------|--------|--------|--------|--------|--------|--------|--------|--------|


E|--------|--------|--------|--------|
B|--------|--------|--------|--------|
G|--------|--------|--------|--------|
D|--------|--------|--------|--------|
A|--------|--------|--------|--------|
E|--------|--------|--------|--------|





Track 7: Dist. GTR

E|--------|--------|--------|--------|--------|--------|--------|--------|--------|
B|--------|--------|--------|--------|--------|--------|--------|--------|--------|
G|--------|--------|--------|--------|--------|--------|--------|--------|--------|
D|--------|--------|--------|--------|--------|--------|--------|--------|--------|
A|--------|--------|--------|--------|--------|--------|--------|--------|--------|
E|--------|--------|--------|--------|--------|--------|--------|--------|--------|


E|--------|--------|--------|--------|--------|--------|--------|--------|--------|
B|--------|--------|--------|--------|--------|--------|--------|--------|--------|
G|--------|--------|--------|--------|--------|--------|--------|--------|--------|
D|--------|--------|--------|--------|--------|--------|--------|--------|--------|
A|--------|--------|--------|--------|--------|--------|--------|--------|--------|
E|--------|--------|--------|--------|--------|--------|--------|--------|--------|


E|--------|--------|--------|--------|--------|--------|--------|--------|--------|
B|--------|--------|--------|--------|--------|--------|--------|--------|--------|
G|--------|--------|--------|--------|--------|--------|--------|--------|--------|
D|--------|--------|--------|--------|--------|--------|--------|--------|--------|
A|--------|--------|--------|--------|--------|--------|--------|--------|--------|
E|--------|--------|--------|--------|--------|--------|--------|--------|--------|


E|--------|--------|--------|--------|--------|--------|--------|--------|--------|
B|--------|--------|--------|--------|--------|--------|--------|--------|--------|
G|--------|--------|--------|--------|--------|--------|--------|--------|--------|
D|--------|--------|--------|--------|--------|--------|--------|--------|--------|
A|--------|--------|--------|--------|--------|--------|--------|--------|--------|
E|--------|--------|--------|--------|--------|--------|--------|--------|--------|


E|--------|--------|--------|--------|--------|--------|--------|--------|--------|
B|--------|--------|--------|--------|--------|--------|--------|--------|--------|
G|--------|--------|--------|--------|--------|--------|--------|--------|--------|
D|--------|--------|--------|--------|--------|--------|--------|--------|--------|
A|--------|--------|--------|--------|--------|--------|--------|--------|--------|
E|--------|--------|--------|--------|--------|--------|--------|--------|--------|


E|--------|--------|--------|--------|--------|--------|--------|--------|--------|
B|--------|--------|--------|--------|--------|--------|--------|--------|--------|
G|--------|--------|--------|--------|--------|--------|--------|--------|--------|
D|--------|--------|--------|--------|--------|--------|--------|--------|--------|
A|--------|--------|--------|--------|--------|--------|--------|--------|--------|
E|--------|--------|--------|--------|--------|--------|--------|--------|--------|


E|--------|--------|--------|--------|--------|--------|--------|--------|--------|
B|--------|--------|--------|--------|--------|--------|--------|--------|--------|
G|--------|--------|--------|--------|--------|--------|--------|--------|--------|
D|--------|--------|--------|--------|--------|--------|--------|--------|--------|
A|--------|--------|--------|--------|--------|--------|--------|--------|--------|
E|--------|--------|--------|--------|--------|--------|--------|--------|--------|


E|--------|--------|--------|--------|--------|--------|--------|--------|--------|
B|--------|--------|--------|--------|--------|--------|--------|--------|--------|
G|--------|--------|--------|--------|--------|--------|--------|--------|--------|
D|--------|--------|--------|--------|--------|--------|--------|--------|--------|
A|--------|--------|--------|--------|--------|--------|--------|--------|--------|
E|--------|--------|--------|--------|--------|--------|--------|--------|--------|


E|--------|--------|--------|--------|--------|--------|--------|--------|--------|
B|--------|--------|--------|--------|--------|--------|--------|--------|--------|
G|--------|--------|--------|--------|--------|--------|--------|--------|--------|
D|--------|--------|--------|--------|--------|--------|--------|--------|--------|
A|--------|--------|--------|--------|--------|--------|--------|--------|--------|
E|--------|--------|--------|--------|--------|--------|--------|--------|--------|


E|--------|--------|--------|--------|--------|--------|--------|--------|--------|
B|--------|--------|--------|--------|--------|--------|--------|--------|--------|
G|--------|--------|--------|--------|--------|--------|--------|--------|--------|
D|--------|--------|--------|--------|--------|--------|--------|--------|--------|
A|--------|--------|--------|--------|--------|--------|--------|--------|--------|
E|--------|--------|--------|--------|--------|--------|--------|--------|--------|


E|--------|--------|--------|--------|--------|--------|--------|--------|--------|
B|--------|--------|--------|--------|--------|--------|--------|--------|--------|
G|--------|--------|--------|--------|--------|--------|--------|--------|--------|
D|--------|--------|--------|--------|--------|--------|--------|--------|--------|
A|--------|--------|--------|--------|--------|--------|--------|--------|--------|
E|--------|--------|--------|--------|--------|--------|--------|--------|--------|


E|--------|--------|--------|--------|--------|--------|--------|--------|--------|
B|--------|--------|--------|--------|--------|--------|--------|--------|--------|
G|--------|--------|--------|--------|--------|--------|--------|--------|--------|
D|--------|--------|--------|--------|--------|--------|--------|--------|--------|
A|--------|--------|--------|--------|--------|--------|--------|--------|--------|
E|--------|--------|--------|--------|--------|--------|--------|--------|--------|


E|--------|--------|--------|--------|-10-----10--|-10---10---10----|-10-----10--|
B|--------|--------|--------|--------|--------12--|-12---12---------|--------12--|
G|--------|--------|--------|--------|--------11--|-11---11---------|-11-----11--|
D|--------|--------|--------|--------|------------|------12---------|-12---------|
A|--------|--------|--------|--------|------------|-----------------|------------|
E|--------|--------|--------|--------|------------|-----------------|------------|


E|-10---10---10----|-10-----10--10--|-10---10---10----|-10-----10--10--|--------|--------|
B|-12---12---------|-10---------10--|-10---10---------|-12---------12--|--------|--------|
G|-11---11---------|-11---------11--|-11---11---------|-12---------12--|--------|--------|
D|------12---------|------------12--|-12---12---------|-12---------12--|--------|--------|
A|-----------------|----------------|-----------------|----------------|--------|--------|
E|-----------------|----------------|-----------------|----------------|--------|--------|


E|--------|--------|--------|--------|--------|--------|--------|--------|--------|
B|--------|--------|--------|--------|--------|--------|--------|--------|--------|
G|--------|--------|--------|--------|--------|--------|--------|--------|--------|
D|--------|--------|--------|--------|--------|--------|--------|--------|--------|
A|--------|--------|--------|--------|--------|--------|--------|--------|--------|
E|--------|--------|--------|--------|--------|--------|--------|--------|--------|


E|--------|--------|--------|--------|--------|--------|--------|--------|--------|
B|--------|--------|--------|--------|--------|--------|--------|--------|--------|
G|--------|--------|--------|--------|--------|--------|--------|--------|--------|
D|--------|--------|--------|--------|--------|--------|--------|--------|--------|
A|--------|--------|--------|--------|--------|--------|--------|--------|--------|
E|--------|--------|--------|--------|--------|--------|--------|--------|--------|


E|--------|--------|--------|--------|--------|--------|--------|--------|--------|
B|--------|--------|--------|--------|--------|--------|--------|--------|--------|
G|--------|--------|--------|--------|--------|--------|--------|--------|--------|
D|--------|--------|--------|--------|--------|--------|--------|--------|--------|
A|--------|--------|--------|--------|--------|--------|--------|--------|--------|
E|--------|--------|--------|--------|--------|--------|--------|--------|--------|


E|--------|--------|--------|--------|--------|--------|--------|--------|--------|
B|--------|--------|--------|--------|--------|--------|--------|--------|--------|
G|--------|--------|--------|--------|--------|--------|--------|--------|--------|
D|--------|--------|--------|--------|--------|--------|--------|--------|--------|
A|--------|--------|--------|--------|--------|--------|--------|--------|--------|
E|--------|--------|--------|--------|--------|--------|--------|--------|--------|


E|--------|--------|--------|--------|--------|--------|--------|--------|--------|
B|--------|--------|--------|--------|--------|--------|--------|--------|--------|
G|--------|--------|--------|--------|--------|--------|--------|--------|--------|
D|--------|--------|--------|--------|--------|--------|--------|--------|--------|
A|--------|--------|--------|--------|--------|--------|--------|--------|--------|
E|--------|--------|--------|--------|--------|--------|--------|--------|--------|


E|--------|--------|--------|--------|--------|--------|--------|--------|--------|
B|--------|--------|--------|--------|--------|--------|--------|--------|--------|
G|--------|--------|--------|--------|--------|--------|--------|--------|--------|
D|--------|--------|--------|--------|--------|--------|--------|--------|--------|
A|--------|--------|--------|--------|--------|--------|--------|--------|--------|
E|--------|--------|--------|--------|--------|--------|--------|--------|--------|


E|--------|--------|--------|--------|--------|--------|--------|--------|--------|
B|--------|--------|--------|--------|--------|--------|--------|--------|--------|
G|--------|--------|--------|--------|--------|--------|--------|--------|--------|
D|--------|--------|--------|--------|--------|--------|--------|--------|--------|
A|--------|--------|--------|--------|--------|--------|--------|--------|--------|
E|--------|--------|--------|--------|--------|--------|--------|--------|--------|


E|--------|--------|--------|--------|--------|--------|--------|--------|
B|--------|--------|--------|--------|--------|--------|--------|--------|
G|--------|--------|--------|--------|--------|--------|--------|--------|
D|--------|--------|--------|--------|--------|--------|--------|--------|
A|--------|--------|--------|--------|--------|--------|--------|--------|
E|--------|--------|--------|--------|--------|--------|--------|--------|





Track 8: Dist. GTR

E|--------|--------|--------|--------|--------|--------|--------|--------|--------|
B|--------|--------|--------|--------|--------|--------|--------|--------|--------|
G|--------|--------|--------|--------|--------|--------|--------|--------|--------|
D|--------|--------|--------|--------|--------|--------|--------|--------|--------|
A|--------|--------|--------|--------|--------|--------|--------|--------|--------|
E|--------|--------|--------|--------|--------|--------|--------|--------|--------|


E|--------|--------|--------|--------|--------|--------|--------|--------|--------|
B|--------|--------|--------|--------|--------|--------|--------|--------|--------|
G|--------|--------|--------|--------|--------|--------|--------|--------|--------|
D|--------|--------|--------|--------|--------|--------|--------|--------|--------|
A|--------|--------|--------|--------|--------|--------|--------|--------|--------|
E|--------|--------|--------|--------|--------|--------|--------|--------|--------|


E|--------|--------|--------|--------|--------|--------|--------|--------|--------|
B|--------|--------|--------|--------|--------|--------|--------|--------|--------|
G|--------|--------|--------|--------|--------|--------|--------|--------|--------|
D|--------|--------|--------|--------|--------|--------|--------|--------|--------|
A|--------|--------|--------|--------|--------|--------|--------|--------|--------|
E|--------|--------|--------|--------|--------|--------|--------|--------|--------|


E|--------|--------|--------|--------|--------|--------|--------|--------|--------|
B|--------|--------|--------|--------|--------|--------|--------|--------|--------|
G|--------|--------|--------|--------|--------|--------|--------|--------|--------|
D|--------|--------|--------|--------|--------|--------|--------|--------|--------|
A|--------|--------|--------|--------|--------|--------|--------|--------|--------|
E|--------|--------|--------|--------|--------|--------|--------|--------|--------|


E|--------|--------|--------|--------|--------|--------|--------|--------|--------|
B|--------|--------|--------|--------|--------|--------|--------|--------|--------|
G|--------|--------|--------|--------|--------|--------|--------|--------|--------|
D|--------|--------|--------|--------|--------|--------|--------|--------|--------|
A|--------|--------|--------|--------|--------|--------|--------|--------|--------|
E|--------|--------|--------|--------|--------|--------|--------|--------|--------|


E|--------|--------|--------|--------|--------|--------|--------|--------|--------|
B|--------|--------|--------|--------|--------|--------|--------|--------|--------|
G|--------|--------|--------|--------|--------|--------|--------|--------|--------|
D|--------|--------|--------|--------|--------|--------|--------|--------|--------|
A|--------|--------|--------|--------|--------|--------|--------|--------|--------|
E|--------|--------|--------|--------|--------|--------|--------|--------|--------|


E|--------|--------|--------|--------|--------|--------|--------|--------|--------|
B|--------|--------|--------|--------|--------|--------|--------|--------|--------|
G|--------|--------|--------|--------|--------|--------|--------|--------|--------|
D|--------|--------|--------|--------|--------|--------|--------|--------|--------|
A|--------|--------|--------|--------|--------|--------|--------|--------|--------|
E|--------|--------|--------|--------|--------|--------|--------|--------|--------|


E|--------|--------|--------|--------|--------|--------|--------|--------|--------|
B|--------|--------|--------|--------|--------|--------|--------|--------|--------|
G|--------|--------|--------|--------|--------|--------|--------|--------|--------|
D|--------|--------|--------|--------|--------|--------|--------|--------|--------|
A|--------|--------|--------|--------|--------|--------|--------|--------|--------|
E|--------|--------|--------|--------|--------|--------|--------|--------|--------|


E|--------|--------|--------|--------|--------|--------|--------|--------|--------|
B|--------|--------|--------|--------|--------|--------|--------|--------|--------|
G|--------|--------|--------|--------|--------|--------|--------|--------|--------|
D|--------|--------|--------|--------|--------|--------|--------|--------|--------|
A|--------|--------|--------|--------|--------|--------|--------|--------|--------|
E|--------|--------|--------|--------|--------|--------|--------|--------|--------|


E|--------|--------|--------|--------|--------|--------|--------|--------|--------|
B|--------|--------|--------|--------|--------|--------|--------|--------|--------|
G|--------|--------|--------|--------|--------|--------|--------|--------|--------|
D|--------|--------|--------|--------|--------|--------|--------|--------|--------|
A|--------|--------|--------|--------|--------|--------|--------|--------|--------|
E|--------|--------|--------|--------|--------|--------|--------|--------|--------|


E|--------|--------|--------|--------|--------|--------|--------|--------|--------|
B|--------|--------|--------|--------|--------|--------|--------|--------|--------|
G|--------|--------|--------|--------|--------|--------|--------|--------|--------|
D|--------|--------|--------|--------|--------|--------|--------|--------|--------|
A|--------|--------|--------|--------|--------|--------|--------|--------|--------|
E|--------|--------|--------|--------|--------|--------|--------|--------|--------|


E|--------|--------|--------|--------|--------|--------|--------|--------|--------|
B|--------|--------|--------|--------|--------|--------|--------|--------|--------|
G|--------|--------|--------|--------|--------|--------|--------|--------|--------|
D|--------|--------|--------|--------|--------|--------|--------|--------|--------|
A|--------|--------|--------|--------|--------|--------|--------|--------|--------|
E|--------|--------|--------|--------|--------|--------|--------|--------|--------|


E|--------|--------|--------|--------|--------|--------|--------|--------|--------|
B|--------|--------|--------|--------|--------|--------|--------|--------|--------|
G|--------|--------|--------|--------|--------|--------|--------|--------|--------|
D|--------|--------|--------|--------|--------|--------|--------|--------|--------|
A|--------|--------|--------|--------|--------|--------|--------|--------|--------|
E|--------|--------|--------|--------|--------|--------|--------|--------|--------|


E|--------|--------|-10----10---12---|--------|--------|--------|--------|--------|
B|--------|--------|-12----10---10---|--------|--------|--------|--------|--------|
G|--------|--------|-12---------9----|--------|--------|--------|--------|--------|
D|--------|--------|-12----12--------|--------|--------|--------|--------|--------|
A|--------|--------|-----------------|--------|--------|--------|--------|--------|
E|--------|--------|-----------------|--------|--------|--------|--------|--------|


E|--------|--------|--------|--------|--------|--------|--------|--------|--------|
B|--------|--------|--------|--------|--------|--------|--------|--------|--------|
G|--------|--------|--------|--------|--------|--------|--------|--------|--------|
D|--------|--------|--------|--------|--------|--------|--------|--------|--------|
A|--------|--------|--------|--------|--------|--------|--------|--------|--------|
E|--------|--------|--------|--------|--------|--------|--------|--------|--------|


E|--------|--------|--------|--------|--------|--------|--------|--------|--------|
B|--------|--------|--------|--------|--------|--------|--------|--------|--------|
G|--------|--------|--------|--------|--------|--------|--------|--------|--------|
D|--------|--------|--------|--------|--------|--------|--------|--------|--------|
A|--------|--------|--------|--------|--------|--------|--------|--------|--------|
E|--------|--------|--------|--------|--------|--------|--------|--------|--------|


E|--------|--------|--------|--------|--------|--------|--------|--------|--------|
B|--------|--------|--------|--------|--------|--------|--------|--------|--------|
G|--------|--------|--------|--------|--------|--------|--------|--------|--------|
D|--------|--------|--------|--------|--------|--------|--------|--------|--------|
A|--------|--------|--------|--------|--------|--------|--------|--------|--------|
E|--------|--------|--------|--------|--------|--------|--------|--------|--------|


E|--------|--------|--------|--------|--------|--------|--------|--------|--------|
B|--------|--------|--------|--------|--------|--------|--------|--------|--------|
G|--------|--------|--------|--------|--------|--------|--------|--------|--------|
D|--------|--------|--------|--------|--------|--------|--------|--------|--------|
A|--------|--------|--------|--------|--------|--------|--------|--------|--------|
E|--------|--------|--------|--------|--------|--------|--------|--------|--------|


E|--------|--------|--------|--------|--------|--------|--------|--------|--------|
B|--------|--------|--------|--------|--------|--------|--------|--------|--------|
G|--------|--------|--------|--------|--------|--------|--------|--------|--------|
D|--------|--------|--------|--------|--------|--------|--------|--------|--------|
A|--------|--------|--------|--------|--------|--------|--------|--------|--------|
E|--------|--------|--------|--------|--------|--------|--------|--------|--------|


E|--------|--------|--------|--------|--------|--------|--------|--------|--------|
B|--------|--------|--------|--------|--------|--------|--------|--------|--------|
G|--------|--------|--------|--------|--------|--------|--------|--------|--------|
D|--------|--------|--------|--------|--------|--------|--------|--------|--------|
A|--------|--------|--------|--------|--------|--------|--------|--------|--------|
E|--------|--------|--------|--------|--------|--------|--------|--------|--------|


E|--------|--------|--------|--------|--------|--------|--------|--------|--------|
B|--------|--------|--------|--------|--------|--------|--------|--------|--------|
G|--------|--------|--------|--------|--------|--------|--------|--------|--------|
D|--------|--------|--------|--------|--------|--------|--------|--------|--------|
A|--------|--------|--------|--------|--------|--------|--------|--------|--------|
E|--------|--------|--------|--------|--------|--------|--------|--------|--------|


E|--------|--------|--------|--------|
B|--------|--------|--------|--------|
G|--------|--------|--------|--------|
D|--------|--------|--------|--------|
A|--------|--------|--------|--------|
E|--------|--------|--------|--------|





Track 9: KBD-D [efx]

E|--------|--------|--------|--------|--------|--------|--------|--------|--------|
B|--------|--------|--------|--------|--------|--------|--------|--------|--------|
G|--------|--------|--------|--------|--------|--------|--------|--------|--------|
D|--------|--------|--------|--------|--------|--------|--------|--------|--------|
A|--------|--------|--------|--------|--------|--------|--------|--------|--------|
E|--------|--------|--------|--------|--------|--------|--------|--------|--------|


E|--------|--------|--------|--------|--------|--------|--------|--------|--------|
B|--------|--------|--------|--------|--------|--------|--------|--------|--------|
G|--------|--------|--------|--------|--------|--------|--------|--------|--------|
D|--------|--------|--------|--------|--------|--------|--------|--------|--------|
A|--------|--------|--------|--------|--------|--------|--------|--------|--------|
E|--------|--------|--------|--------|--------|--------|--------|--------|--------|


E|--------|--------|--------|--------|--------|--------|--------|--------|--------|
B|--------|--------|--------|--------|--------|--------|--------|--------|--------|
G|--------|--------|--------|--------|--------|--------|--------|--------|--------|
D|--------|--------|--------|--------|--------|--------|--------|--------|--------|
A|--------|--------|--------|--------|--------|--------|--------|--------|--------|
E|--------|--------|--------|--------|--------|--------|--------|--------|--------|


E|--------|--------|--------|--------|--------|--------|--------|--------|--------|
B|--------|--------|--------|--------|--------|--------|--------|--------|--------|
G|--------|--------|--------|--------|--------|--------|--------|--------|--------|
D|--------|--------|--------|--------|--------|--------|--------|--------|--------|
A|--------|--------|--------|--------|--------|--------|--------|--------|--------|
E|--------|--------|--------|--------|--------|--------|--------|--------|--------|


E|--------|--------|--------|--------|--------|--------|--------|--------|--------|
B|--------|--------|--------|--------|--------|--------|--------|--------|--------|
G|--------|--------|--------|--------|--------|--------|--------|--------|--------|
D|--------|--------|--------|--------|--------|--------|--------|--------|--------|
A|--------|--------|--------|--------|--------|--------|--------|--------|--------|
E|--------|--------|--------|--------|--------|--------|--------|--------|--------|


E|--------|--------|--------|--------|--------|--------|--------|--------|--------|
B|--------|--------|--------|--------|--------|--------|--------|--------|--------|
G|--------|--------|--------|--------|--------|--------|--------|--------|--------|
D|--------|--------|--------|--------|--------|--------|--------|--------|--------|
A|--------|--------|--------|--------|--------|--------|--------|--------|--------|
E|--------|--------|--------|--------|--------|--------|--------|--------|--------|


E|--------|--------|--------|--------|--------|--------|--------|--------|--------|
B|--------|--------|--------|--------|--------|--------|--------|--------|--------|
G|--------|--------|--------|--------|--------|--------|--------|--------|--------|
D|--------|--------|--------|--------|--------|--------|--------|--------|--------|
A|--------|--------|--------|--------|--------|--------|--------|--------|--------|
E|--------|--------|--------|--------|--------|--------|--------|--------|--------|


E|--------|--------|--------|--------|--------|--------|--------|--------|--------|
B|--------|--------|--------|--------|--------|--------|--------|--------|--------|
G|--------|--------|--------|--------|--------|--------|--------|--------|--------|
D|--------|--------|--------|--------|--------|--------|--------|--------|--------|
A|--------|--------|--------|--------|--------|--------|--------|--------|--------|
E|--------|--------|--------|--------|--------|--------|--------|--------|--------|


E|--------|--------|--------|--------|--------|--------|--------|--------|--------|
B|--------|--------|--------|--------|--------|--------|--------|--------|--------|
G|--------|--------|--------|--------|--------|--------|--------|--------|--------|
D|--------|--------|--------|--------|--------|--------|--------|--------|--------|
A|--------|--------|--------|--------|--------|--------|--------|--------|--------|
E|--------|--------|--------|--------|--------|--------|--------|--------|--------|


E|--------|--------|--------|--------|--------|--------|--------|--------|--------|
B|--------|--------|--------|--------|--------|--------|--------|--------|--------|
G|--------|--------|--------|--------|--------|--------|--------|--------|--------|
D|--------|--------|--------|--------|--------|--------|--------|--------|--------|
A|--------|--------|--------|--------|--------|--------|--------|--------|--------|
E|--------|--------|--------|--------|--------|--------|--------|--------|--------|


E|--------|--------|--------|--------|--------|--------|--------|--------|--------|
B|--------|--------|--------|--------|--------|--------|--------|--------|--------|
G|--------|--------|--------|--------|--------|--------|--------|--------|--------|
D|--------|--------|--------|--------|--------|--------|--------|--------|--------|
A|--------|--------|--------|--------|--------|--------|--------|--------|--------|
E|--------|--------|--------|--------|--------|--------|--------|--------|--------|


E|--------|--------|--------|--------|--------|--------|--------|--------|--------|
B|--------|--------|--------|--------|--------|--------|--------|--------|--------|
G|--------|--------|--------|--------|--------|--------|--------|--------|--------|
D|--------|--------|--------|--------|--------|--------|--------|--------|--------|
A|--------|--------|--------|--------|--------|--------|--------|--------|--------|
E|--------|--------|--------|--------|--------|--------|--------|--------|--------|


E|--------|--------|--------|--------|--------|--------|--------|--------|--------|
B|--------|--------|--------|--------|--------|--------|--------|--------|--------|
G|--------|--------|--------|--------|--------|--------|--------|--------|--------|
D|--------|--------|--------|--------|--------|--------|--------|--------|--------|
A|--------|--------|--------|--------|--------|--------|--------|--------|--------|
E|--------|--------|--------|--------|--------|--------|--------|--------|--------|


E|--------|--------|--------|--------|--------|--------|--------|--------|--------|
B|--------|--------|--------|--------|--------|--------|--------|--------|--------|
G|--------|--------|--------|--------|--------|--------|--------|--------|--------|
D|--------|--------|--------|--------|--------|--------|--------|--------|--------|
A|--------|--------|--------|--------|--------|--------|--------|--------|--------|
E|--------|--------|--------|--------|--------|--------|--------|--------|--------|


E|--------|--------|--------|--------|--------|--------|--------|--------|------------|
B|--------|--------|--------|--------|--------|--------|--------|--------|------------|
G|--------|--------|--------|--------|--------|--------|--------|--------|------------|
D|--------|--------|--------|--------|--------|--------|--------|--------|------------|
A|--------|--------|-14-----|-14-----|-14-----|-14-----|--------|--------|------------|
E|--------|--------|--------|--------|--------|--------|-17-----|-17-----|-15-----15--|


E|-----------------|--------|--------|--------|-----17--------------------------|--------|
B|-----------------|--------|--------|--------|---------19------17--------------|--------|
G|-----------------|--------|--------|--------|-------------19------18------16--|-16-----|
D|-------12--------|--------|--------|--------|-------------------------19------|--------|
A|------------12---|-14-----|-14-----|-14-----|-14------------------------------|--------|
E|-12--------------|--------|--------|--------|---------------------------------|--------|


E|--------|--------|-----17--------------------------|-------------|-------17----|
B|--------|--------|---------19------17--------------|-------19----|-17----------|
G|-16-----|-16-----|-16----------19------18------16--|-16----------|-------------|
D|--------|--------|-------------------------19------|-------------|-------------|
A|--------|--------|---------------------------------|-------------|-------------|
E|--------|--------|---------------------------------|-------------|-------------|


E|-------14----|-----17--------------------------|-------------|-------17----|-------14----|
B|-------------|-17------19------17--------------|-------19----|-17----------|-------------|
G|-16----------|-------------19------18------16--|-16----------|-------------|-16----------|
D|-------------|-------------------------19------|-------------|-------------|-------------|
A|-------------|---------------------------------|-------------|-------------|-------------|
E|-------------|---------------------------------|-------------|-------------|-------------|


E|-----17--------------------------|-------------|-------17----|-------14----|-----17--------------------------|
B|-17------19------17--------------|-------19----|-17----------|-------------|-17------19------17--------------|
G|-------------19------18------16--|-16----------|-------------|-16----------|-------------19------18------16--|
D|-------------------------19------|-------------|-------------|-------------|-------------------------19------|
A|---------------------------------|-------------|-------------|-------------|---------------------------------|
E|---------------------------------|-------------|-------------|-------------|---------------------------------|


E|-------------|-------17----17--|-19----21-21-21----|-21----------|--------|--------|
B|-------19----|-17--------------|-------------------|-------------|--------|--------|
G|-16----------|-----------------|-------------------|-------------|--------|--------|
D|-------------|-----------------|-------------------|-------------|--------|--------|
A|-------------|-----------------|-------------------|-------------|--------|--------|
E|-------------|-----------------|-------------------|-------------|--------|--------|


E|--------|--------|--------|--------|--------|--------|--------|--------|--------|
B|--------|--------|--------|--------|--------|--------|--------|--------|--------|
G|--------|--------|--------|--------|--------|--------|--------|--------|--------|
D|--------|--------|--------|--------|--------|--------|--------|--------|--------|
A|--------|--------|--------|--------|--------|--------|--------|--------|--------|
E|--------|--------|--------|--------|--------|--------|--------|--------|--------|


E|--------|--------|--------|--------|--------|--------|--------|--------|--------|
B|--------|--------|--------|--------|--------|--------|--------|--------|--------|
G|--------|--------|--------|--------|--------|--------|--------|--------|--------|
D|--------|--------|--------|--------|--------|--------|--------|--------|--------|
A|--------|--------|--------|--------|--------|--------|--------|--------|--------|
E|--------|--------|--------|--------|--------|--------|--------|--------|--------|


E|--------|--------|--------|--------|--------|--------|--------|--------|--------|
B|--------|--------|--------|--------|--------|--------|--------|--------|--------|
G|--------|--------|--------|--------|--------|--------|--------|--------|--------|
D|--------|--------|--------|--------|--------|--------|--------|--------|--------|
A|--------|--------|--------|--------|--------|--------|--------|--------|--------|
E|--------|--------|--------|--------|--------|--------|--------|--------|--------|


E|--------|--------|--------|
B|--------|--------|--------|
G|--------|--------|--------|
D|--------|--------|--------|
A|--------|--------|--------|
E|--------|--------|--------|





Track 10: Bass

G|--------|--------|--------|--------------------|---------------------------------|
D|--------|--------|--------|--------------------|---------------------------------|
A|--------|--------|--------|--------------------|---------------------------------|
E|--------|--------|--------|------------0---2---|-3---3---3---3---3---3---3---3---|


G|---------------------------------|---------------------------------|---------------------------------|
D|---------------------------------|---------------------------------|---------------------------------|
A|---------------------------------|---------------------------------|---------------------------------|
E|-2---2---2---2---2---2---2---2---|-0---0---0---0---0---0---0---0---|-0---0---0---0---0---0---0---0---|


G|---------------------------------|---------------------------------|---------------------------------|
D|---------------------------------|---------------------------------|---------------------------------|
A|---------------------------------|---------------------------------|---------------------------------|
E|-3---3---3---3---3---3---3---3---|-2---2---2---2---2---2---2---2---|-0---0---0---0---0---0---0---0---|


G|---------------------------------|---------------------------------|---------------------------------|
D|---------------------------------|---------------------------------|---------------------------------|
A|-----------------5---5-----------|---------------------------------|---------------------------------|
E|-0---0---0---0-----------5---5---|-7---7---7---7---7---7---7---7---|-7---7---7---7---7---7---7---7---|


G|---------------------------------|---------------------------------|---------------------------------|
D|---------------------------------|---------------------------------|---------------------------------|
A|---------------------------------|-7---7---5---5---4---4---0---0---|-2---2---2---2---2---2---2---2---|
E|-7---7---7---7---7---7---7---7---|---------------------------------|---------------------------------|


G|---------------------------------|---------------------------------|---------------------------------|
D|---------------------------------|---------------------------------|---------------------------------|
A|-2---2---2---2---2---2---2---2---|-2---2---2---2---2---2---2---2---|-2---2---2---2---2---2---2---2---|
E|---------------------------------|---------------------------------|---------------------------------|


G|---------------------------------|---------------------------------|---------------------------------|
D|---------------------------------|---------------------------------|---------------------------------|
A|-5---5---5---5---5---5---5---5---|-5---5---5---5---5---5---5---5---|---------------------------------|
E|---------------------------------|---------------------------------|-3---3---3---3---3---3---3---3---|


G|---------------------------------|---------------------------------|---------------------------------|
D|---------------------------------|---------------------------------|---------------------------------|
A|-----------------5---5---0---0---|-2---2---2---2---2---2---2---2---|-2---2---2---2---2---2---2---2---|
E|-0---0---0---0-------------------|---------------------------------|---------------------------------|


G|---------------------------------|---------------------------------|---------------------------------|
D|---------------------------------|---------------------------------|---------------------------------|
A|-2---2---2---2---2---2---2---2---|-2---2---2---2---2---2---2---2---|-5---5---5---5---5---5---5---5---|
E|---------------------------------|---------------------------------|---------------------------------|


G|---------------------------------|---------------------------------|---------------------------|
D|---------------------------------|---------------------------------|---------------------------|
A|-5---5---5---5---5---5---5---5---|---------------------------------|-----------------5---------|
E|---------------------------------|-3---3---3---3---3---3---3---3---|-0---0---0---0--------5----|


G|---------------------------------|---------------------------------|---------------------------------|
D|---------------------------------|---------------------------------|---------------------------------|
A|---------------------------------|---------------------------------|---------------------------------|
E|-7---7---7---7---7---7---7---7---|-7---7---7---7---7---7---7---7---|-7---7---7---7---7---7---7---7---|


G|---------------------------------|---------------------------------|---------------------------------|
D|-----9---9---9---9---------------|---------------------------------|---------------------------------|
A|---------------------10--9---7---|-5---5---5---5---5---5---5---5---|-5---5---5---5---5---5---3-------|
E|-7-------------------------------|---------------------------------|-----------------------------5---|


G|---------------------------------|---------------------------------|---------------------------------|
D|---------------------------------|---------------------------------|---------------------------------|
A|---------------------------------|-----------------5---5---0---0---|---------------------------------|
E|-3---3---3---3---3---3---3---3---|-0---0---0---0-------------------|-7---7---7---7---7---7---7---7---|


G|---------------------------------|---------------------------------|---------------------------------|
D|---------------------------------|---------------------------------|-----9---9---9---9---------------|
A|---------------------------------|---------------------------------|---------------------10--9---7---|
E|-7---7---7---7---7---7---7---7---|-7---7---7---7---7---7---7---7---|-7-------------------------------|


G|---------------------------------|---------------------------------|---------------------------------|
D|---------------------------------|---------------------------------|---------------------------------|
A|-5---5---5---5---5---5---5---5---|-5---5---5---5---5---5---3-------|---------------------------------|
E|---------------------------------|-----------------------------5---|-3---3---3---3---3---3---3---3---|


G|---------------------------|---------------------------------|---------------------------------|
D|---------------------------|---------------------------------|---------------------------------|
A|-----------------5---------|---------------------------------|---------------------------------|
E|-0---0---0---0--------5----|-7---7---7---7---7---7---7---7---|-7---7---7---7---7---7---7---7---|


G|---------------------------------|---------------------------------|---------------------------------|
D|---------------------------------|-7-------------------------------|---------------------------------|
A|---------------------------------|-----10--9---7---------------0---|-2---2---2---2---2---2---2---2---|
E|-7---7---7---7---7---7---7---7---|-----------------10--9---7-------|---------------------------------|


G|---------------------------------|-4---4---4---4---4---4---4---4---|-7-------------------------------|
D|---------------------------------|---------------------------------|-----9---7-----------------------|
A|-2---2---2---2---2---2---2---2---|---------------------------------|-------------9---9---7---5---4---|
E|---------------------------------|---------------------------------|---------------------------------|


G|---------------------------------|---------------------------------|---------------------------------|
D|---------------------------------|---------------------------------|---------------------------------|
A|-5---5---5---5---5---5---5---5---|-5---5---5---5---5---5---5---5---|---------------------------------|
E|---------------------------------|---------------------------------|-3---3---3---3---3---3---3---3---|


G|---------------------------------|---------------------------------|---------------------------------|
D|---------------------------------|---------------------------------|---------------------------------|
A|-----------------5---5---0---0---|-2---2---2---2---2---2---2---2---|-2---2---2---2---2---2---2---2---|
E|-0---0---0---0-------------------|---------------------------------|---------------------------------|


G|-4---4---4---4---4---4---4---4---|-7-------------------------------|---------------------------------|
D|---------------------------------|-----9---7-----------------------|---------------------------------|
A|---------------------------------|-------------9---9---7---5---4---|-5---5---5---5---5---5---5---5---|
E|---------------------------------|---------------------------------|---------------------------------|


G|---------------------------------|---------------------------------|---------------------------|
D|---------------------------------|---------------------------------|---------------------------|
A|-5---5---5---5---5---5---5---5---|---------------------------------|-----------------5---------|
E|---------------------------------|-3---3---3---3---3---3---3---3---|-0---0---0---0--------5----|


G|---------------------------------|---------------------------------|---------------------------------|
D|---------------------------------|---------------------------------|---------------------------------|
A|---------------------------------|---------------------------------|---------------------------------|
E|-7---7---7---7---7---7---7---7---|-7---7---7---7---7---7---7---7---|-7---7---7---7---7---7---7---7---|


G|---------------------------------|---------------------------------|---------------------------------|
D|-----9---9---9---9---------------|---------------------------------|---------------------------------|
A|---------------------10--9---7---|-5---5---5---5---5---5---5---5---|-5---5---5---5---5---5---5---5---|
E|-7-------------------------------|---------------------------------|---------------------------------|


G|---------------------------------|---------------------------------|---------------------------------|
D|---------------------------------|---------------------------------|---------------------------------|
A|---------------------------------|-----------------5---5---0---0---|---------------------------------|
E|-3---3---3---3---3---3---3---3---|-0---0---0---0-------------------|-7---7---7---7---7---7---7---7---|


G|---------------------------------|---------------------------------|---------------------------------|
D|---------------------------------|---------------------------------|-----9---9---9---9---------------|
A|---------------------------------|---------------------------------|---------------------10--9---7---|
E|-7---7---7---7---7---7---7---7---|-7---7---7---7---7---7---7---7---|-7-------------------------------|


G|---------------------------------|---------------------------------|---------------------------------|
D|---------------------------------|---------------------------------|---------------------------------|
A|-5---5---5---5---5---5---5---5---|-5---5---5---5---5---5---5---5---|---------------------------------|
E|---------------------------------|---------------------------------|-3---3---3---3---3---3---3---3---|


G|------------------------|---------------------------------|---------------------------------|
D|------------------------|---------------------------------|---------------------------------|
A|------------------------|---------------------------------|---------------------------------|
E|-0----0---------0---2---|-3---3---3---3---3---3---3---3---|-2---2---2---2---2---2---2---2---|


G|---------------------------------|---------------------------------|---------------------------------|
D|---------------------------------|---------------------------------|---------------------------------|
A|---------------------------------|---------------------------------|---------------------------------|
E|-0---0---0---0---0---0---0---0---|-0---0---0---0---0---0---0---0---|-3---3---3---3---3---3---3---3---|


G|---------------------------------|---------------------------------|---------------------------------|
D|---------------------------------|---------------------------------|---------------------------------|
A|---------------------------------|---------------------------------|---------------------------------|
E|-2---2---2---2---2---2---2---2---|-0---0---0---0---0---0---0---0---|-0---0---0---0---0---0---0---0---|


G|---------------------------------|---------------------------------|---------------------------------|
D|---------------------------------|---------------------------------|---------------------------------|
A|---------------------------------|---------------------------------|---------------------------------|
E|-3---3---3---3---3---3---3---3---|-2---2---2---2---2---2---2---2---|-0---0---0---0---0---0---0---0---|


G|---------------------------------|---------------------------------|---------------------------------|
D|---------------------------------|---------------------------------|---------------------------------|
A|---------------------------------|---------------------------------|---------------------------------|
E|-0---0---0---0---0---0---0---0---|-3---3---3---3---3---3---3---3---|-2---2---2---2---2---2---2---2---|


G|---------------------------------|---------------------------------|--------|--------|
D|---------------------------------|---------------------------------|--------|--------|
A|---------------------------------|-----------------5---5-----------|--------|--------|
E|-0---0---0---0---0---0---0---0---|-0---0---0---0-----------5---5---|-7------|-7------|


G|----------------|---------------------|---------------------------------|---------------------------------|
D|----------------|---------------------|---------------------------------|---------------------------------|
A|----------------|---------------------|---------------------------------|---------------------------------|
E|-7------5---7---|------7---------7----|-7---7---7---7---7---7---7---7---|-7---7---7---7---7---7---7---7---|


G|---------------------------------|---------------------------------|---------------------------------|
D|---------------------------------|---------------------------------|---------------------------------|
A|---------------------------------|---------------------------------|-5---5---5---5---5---5---5---5---|
E|-7---7---7---7---7---7---7---7---|-7---7---7---7---7---7---7---7---|---------------------------------|


G|---------------------------------|---------------------------------|---------------------------------|
D|---------------------------------|---------------------------------|---------------------------------|
A|-5---5---5---5---5---5---3-------|---------------------------------|-----------------5---5---0---0---|
E|-----------------------------5---|-3---3---3---3---3---3---3---3---|-0---0---0---0-------------------|


G|---------------------------------|---------------------------------|---------------------------------|
D|---------------------------------|---------------------------------|---------------------------------|
A|---------------------------------|---------------------------------|---------------------------------|
E|-7---7---7---7---7---7---7---7---|-7---7---7---7---7---7---7---7---|-7---7---7---7---7---7---7---7---|


G|---------------------------------|---------------------------------|---------------------------------|
D|---------------------------------|---------------------------------|---------------------------------|
A|---------------------------------|-5---5---5---5---5---5---5---5---|-5---5---5---5---5---5---3-------|
E|-7---7---7---7---7---7---7---7---|---------------------------------|-----------------------------5---|


G|---------------------------------|---------------------------|--------|--------|
D|---------------------------------|---------------------------|--------|--------|
A|---------------------------------|-----------------5---------|--------|--------|
E|-3---3---3---3---3---3---3---3---|-0---0---0---0--------5----|--------|--------|


G|--------|--------|--------|--------|--------|--------|---------------------------------|
D|--------|--------|--------|--------|--------|--------|---------------------------------|
A|--------|--------|--------|--------|--------|--------|-2---2---2---2---2---2---2---2---|
E|--------|--------|--------|--------|--------|--------|---------------------------------|


G|---------------------------------|---------------------------------|---------------------------------|
D|---------------------------------|---------------------------------|---------------------------------|
A|-2---2---2---2---2---2---2---2---|-2---2---2---2---2---2---2---2---|-2---2---2---2---2---2---2---2---|
E|---------------------------------|---------------------------------|---------------------------------|


G|---------------------------------|---------------------------------|---------------------------------|
D|---------------------------------|---------------------------------|---------------------------------|
A|---------------------------------|---------------------------------|---------------------------------|
E|-5---5---5---5---5---5---5---5---|-5---5---5---5---5---5---5---5---|-3---3---3---3---3---3---3---3---|


G|---------------------------------|---------------------------------|---------------------------------|
D|---------------------------------|---------------------------------|---------------------------------|
A|-----------------5---5---0---0---|-2---2---2---2---2---2---2---2---|-2---2---2---2---2---2---2---2---|
E|-0---0---0---0-------------------|---------------------------------|---------------------------------|


G|---------------------------------|---------------------------------|---------------------------------|
D|---------------------------------|---------------------------------|---------------------------------|
A|-2---2---2---2---2---2---2---2---|-2---2---2---2---2---2---2---2---|---------------------------------|
E|---------------------------------|---------------------------------|-5---5---5---5---5---5---5---5---|


G|---------------------------------|---------------------------------|---------------------------------|
D|---------------------------------|---------------------------------|---------------------------------|
A|---------------------------------|---------------------------------|-----------------5---5---0---0---|
E|-5---5---5---5---5---5---5---5---|-3---3---3---3---3---3---3---3---|-0---0---0---0-------------------|


G|---------------------------------|---------------------------------|---------------------------------|
D|---------------------------------|---------------------------------|---------------------------------|
A|-2---2---2---2---2---2---2---2---|-2---2---2---2---2---2---2---2---|-2---2---2---2---2---2---2---2---|
E|---------------------------------|---------------------------------|---------------------------------|


G|---------------------------------|---------------------------------|---------------------------------|
D|---------------------------------|---------------------------------|---------------------------------|
A|-2---2---2---2---2---2---2---2---|---------------------------------|---------------------------------|
E|---------------------------------|-5---5---5---5---5---5---5---5---|-5---5---5---5---5---5---5---5---|


G|---------------------------------|---------------------------------|---------------------------|
D|---------------------------------|---------------------------------|---------------------------|
A|---------------------------------|-----------------5---5---0---0---|-----------------5---------|
E|-3---3---3---3---3---3---3---3---|-0---0---0---0-------------------|-0---0---0---0--------5----|


G|---------------------------------|---------------------------------|---------------------------------|
D|---------------------------------|---------------------------------|---------------------------------|
A|---------------------------------|---------------------------------|---------------------------------|
E|-7---7---7---7---7---7---7---7---|-7---7---7---7---7---7---7---7---|-7---7---7---7---7---7---7---7---|


G|---------------------------------|---------------------------------|---------------------------------|
D|-----9---9---9---9---------------|---------------------------------|---------------------------------|
A|---------------------10--9---7---|-5---5---5---5---5---5---5---5---|-5---5---5---5---5---5---3-------|
E|-7-------------------------------|---------------------------------|-----------------------------5---|


G|---------------------------------|---------------------------------|---------------------------------|
D|---------------------------------|---------------------------------|---------------------------------|
A|---------------------------------|-----------------5---5---0---0---|---------------------------------|
E|-3---3---3---3---3---3---3---3---|-0---0---0---0-------------------|-7---7---7---7---7---7---7---7---|


G|---------------------------------|---------------------------------|---------------------------------|
D|---------------------------------|---------------------------------|-----9---9---9---9---------------|
A|---------------------------------|---------------------------------|---------------------10--9---7---|
E|-7---7---7---7---7---7---7---7---|-7---7---7---7---7---7---7---7---|-7-------------------------------|


G|---------------------------------|---------------------------------|---------------------------------|
D|---------------------------------|---------------------------------|---------------------------------|
A|-5---5---5---5---5---5---5---5---|-5---5---5---5---5---5---3-------|---------------------------------|
E|---------------------------------|-----------------------------5---|-3---3---3---3---3---3---3---3---|


G|---------------------------------|---------------------------------|---------------------------------|
D|---------------------------------|---------------------------------|---------------------------------|
A|-----------------5---5---0---0---|---------------------------------|---------------------------------|
E|-0---0---0---0-------------------|-7---7---7---7---7---7---7---7---|-7---7---7---7---7---7---7---7---|


G|---------------------------------|---------------------------------|---------------------------------|
D|---------------------------------|-----9---9---9---9---------------|---------------------------------|
A|---------------------------------|---------------------10--9---7---|-5---5---5---5---5---5---5---5---|
E|-7---7---7---7---7---7---7---7---|-7-------------------------------|---------------------------------|


G|---------------------------------|---------------------------------|---------------------------------|
D|---------------------------------|---------------------------------|---------------------------------|
A|-5---5---5---5---5---5---3-------|---------------------------------|-----------------5---5---0---0---|
E|-----------------------------5---|-3---3---3---3---3---3---3---3---|-0---0---0---0-------------------|


G|---------------------------|--------|--------|--------|----------------|--------|
D|---------------------------|--------|--------|--------|----------------|--------|
A|-----------------4---------|--------|--------|--------|----------------|--------|
E|-0---0---0---0--------5----|-7------|-7------|-7------|-7------5---7---|--------|


G|--------|--------|--------|--------|--------|--------|--------|--------|--------|
D|--------|--------|--------|--------|--------|--------|--------|--------|--------|
A|--------|--------|--------|--------|--------|--------|--------|--------|--------|
E|--------|--------|--------|--------|--------|--------|--------|--------|--------|