Menu:

 

Search:

 

billy corgan - walking shade:

 



Title: Walking Shade
Artist: 
Album: TheFutureEmbrace
Author: Billy Corgan


Track 1: Gtr.1 (several gtrs. arranged for 1)

D#|--------|-----------------------|---------------------------------|---------------------------------|
A#|--------|-----------------------|---------------------------------|---------------------------------|
F#|--------|-------4---4---4---4---|-4---4---4---7---9---9---9---9---|-9---9---9---9---7---7---7---7---|
C#|--------|-----------------------|---------------------------------|---------------------------------|
G#|--------|-----------------------|---------------------------------|---------------------------------|
D#|--------|-----------------------|---------------------------------|---------------------------------|


D#|---------------------------------|---------------------------------|--------------------------------|
A#|---------------------------------|---------------------------------|-----10-------------------------|
F#|-7---7---7---11--11--11--11--11--|-11--11--11--9---11--11--11--11--|-11-------9--9--9---9---9---9---|
C#|---------------------------------|---------------------------------|--------------------------------|
G#|---------------------------------|---------------------------------|--------------------------------|
D#|---------------------------------|---------------------------------|--------------------------------|


D#|---------------------------------|----------------------7---7---|-----7-----------------|
A#|---------------------------------|------------------------------|-0-------0---0---------|
F#|-9---9---9---7---9---9---9---9---|-9---7----4---4---4-----------|-4-------4---4---4-----|
C#|---------------------------------|------------------------------|-----------------------|
G#|---------------------------------|------------------------------|-----------------------|
D#|---------------------------------|------------------------------|-----------------------|


D#|-------------|-------------|-----------------|-----------------|--------------------|
A#|-------------|-------3-----|-------5-----3---|-3---------------|-----------3----0---|
F#|-------4-----|-------4-----|-------4---------|------------0----|-------4------------|
C#|-------------|-------------|-----------------|-------4---------|--------------------|
G#|-------------|-------------|-----------------|-----------------|--------------------|
D#|-------------|-------------|-----------------|-----------------|--------------------|


D#|-----------------------|-0-------------------------|------------------------------|
A#|-0-----7---7---7---7---|----------------------7----|------7-----------------------|
F#|-----------------------|-----7----4---0---0--------|------------------------------|
C#|-----------------------|---------------------------|--------------2---2---2---2---|
G#|-----------------------|---------------------------|------------------------------|
D#|-----------------------|---------------------------|------------------------------|


D#|------------------------------|---------------------------------|---------------------------------|
A#|------------------------------|---------------------------------|---------------------------------|
F#|-----0----4---4---4---4---4---|-4---4---4---4---2---2---2---2---|-2---2---2---7---7---7---7---6---|
C#|-4----------------------------|---------------------------------|---------------------------------|
G#|------------------------------|---------------------------------|---------------------------------|
D#|------------------------------|---------------------------------|---------------------------------|


D#|------------------------|-------------|-------------|-----------------|-------------------7----|
A#|-------------------0----|-------0-----|-------------|------------0----|----------7---7----0----|
F#|-6---6----0--------0----|-------0-----|-------7-----|-------0---------|-0----7-----------------|
C#|--------------2----2----|-------0-----|-------0-----|-----------------|------------------------|
G#|--------------2---------|-------------|-------------|-----------------|------------------------|
D#|--------------0---------|-------3-----|-------------|-----------------|------------------------|


D#|-7---7---------------|---------------------------|-----------------|------------------------|
A#|-0---0---------------|-0----------------0---0----|-------0---------|----------0---0----0----|
F#|-----4-----11---9----|-7---9----7---7---11--11---|-------11---9----|-7----9---7---7---------|
C#|---------------------|---------------------------|-----------------|------------------------|
G#|---------------------|---------------------------|-----------------|------------------------|
D#|---------------------|---------------------------|-----------------|------------------------|


D#|---------------------------|--------------------|---------------------------|-0----------------------------|
A#|-0---0----0---0----3-------|-0------------0-----|--------------0----0-------|-----3---0-------0------------|
F#|--------------0----0---0---|-0----0---0---------|--------------0--------0---|-------------0-------0---0----|
C#|---------------------------|------14--16--16----|------14--12---------------|------------------------------|
G#|---------------------------|--------------------|---------------------------|------------------------------|
D#|---------------------------|--------------------|---------------------------|------------------------------|


D#|-------------|-------------|-----------------------|-----------------------------|
A#|-------------|-------------|-------7---7---7---8---|-7---------------------------|
F#|-------0-----|-------0-----|-----------------------|-----7----7--7--7----7---7---|
C#|-------------|-------------|-----------------------|-----------------------------|
G#|-------------|-------------|-----------------------|-----------------------------|
D#|-------------|-------------|-----------------------|-----------------------------|


D#|---------------------------------|------------------------------|---------------------------------|
A#|-----------------7---7-----------|------------------------------|-----------------7---7-----------|
F#|-7---9---9---9-----------9---9---|-7----9---7---7---7---7---7---|-7---9---9---9-----------9---9---|
C#|---------------------------------|------------------------------|---------------------------------|
G#|---------------------------------|------------------------------|---------------------------------|
D#|---------------------------------|------------------------------|---------------------------------|


D#|------------------------------|---------------------------------|-------------------------7-------|
A#|------------------------------|---------------------------------|-----------------0---0---0---0---|
F#|-7----9---7---7---7---7---7---|-7---7---7---7---7---7---7---7---|-7---7---4---4---4---4---4---4---|
C#|------------------------------|---------------------------------|---------------------------------|
G#|------------------------------|---------------------------------|---------------------------------|
D#|------------------------------|---------------------------------|---------------------------------|


D#|-----7---0---0-----------0-------|-0---0---0---0---0---0---0---0---|-0---0---0---0---0---0---0---0---|
A#|-0---0---0---0---7---7---7---7---|-7---7---7---5---5---5---5---5---|-5---5---5---3---3---3---3---3---|
F#|-4---4---4---4-------------------|---------------------------------|---------------------------------|
C#|---------------------------------|---------------------------------|---------------------------------|
G#|---------------------------------|---------------------------------|---------------------------------|
D#|---------------------------------|---------------------------------|---------------------------------|


D#|-0---0---0---0---0---0---0---0---|-0---0---------------------|---------------------------------|
A#|-3---3---3---3---3---3---3---3---|-3---0--------3--------3---|-----3-------3-------------------|
F#|---------------------------------|---------7----2--------2---|-----2-------2---------------4---|
C#|---------------------------------|-------------------0-------|-0-------0-------2---2---2-------|
G#|---------------------------------|---------------------------|-----------------0---0---0---2---|
D#|---------------------------------|---------------------------|---------------------------------|


D#|---------------------------------|---------0-----------------------|-0---------------0-----------0---|
A#|-----------------0-----------0---|-------------0-------0-------0---|---------0-----------0-----------|
F#|-4---4---4---0-------0-----------|-0---------------0-------0-------|-----0-------0-----------0-------|
C#|-------------------------2-------|-----2---------------------------|---------------------------------|
G#|-2---2---2-----------------------|---------------------------------|---------------------------------|
D#|---------------------------------|---------------------------------|---------------------------------|


D#|---------0----0-----|-------0-----|-------0-----|-------0-----|-------0-----|--------------------|
A#|-0------------------|-------------|-------------|-------------|-------------|---------------0----|
F#|-----0--------------|-------------|-------------|-------------|-------------|---------------0----|
C#|--------------------|-------------|-------------|-------------|-------------|--------------------|
G#|--------------------|-------------|-------------|-------------|-------------|-------2---2--------|
D#|--------------------|-------------|-------------|-------------|-------------|--------------------|


D#|----------------------0----|-----0------------------------|---------------------------------|
A#|------0---------------3----|-0--------3-------------------|---------------------3---0-------|
F#|------0---0-----------0----|----------------------0-------|-----0-----------------------0---|
C#|---------------------------|------------------------------|-12------0-----------------------|
G#|---------------------------|------------------12------12--|---------------------------------|
D#|--------------0---0--------|--------------10--------------|-------------3---3---------------|


D#|------------------------------|---------------------------|----------------------0----|
A#|-3---0-----------0------------|----------------------3----|-3---0------------3---3----|
F#|---------0---------------0----|----------------------0----|-0--------2-----------0----|
C#|-------------4-------4---0----|----------------------4----|-4------------0------------|
G#|-----------------2------------|---------------------------|---------------------------|
D#|------------------------------|------0---0---0---0--------|---------------------------|


D#|-0------------------------------|---------------------------------|------------------------------|
A#|-3---3---0-------------3---0----|-3---3---0---0-------------------|------------------------------|
F#|-0-------------------------0----|-0-------------------------------|-----0----4---4---4---4---4---|
C#|---------------------------0----|-0---------------2---2---2---2---|-4----------------------------|
G#|--------------------------------|---------------------------------|------------------------------|
D#|-------------3--3--3------------|---------------------------------|------------------------------|


D#|---------------------------------|---------------------------------|------------------------|
A#|---------------------------------|---------------------------------|---------0---------0----|
F#|-4---4---4---4---2---2---2---2---|-2---2---2---7---7---7---7---6---|-6---6---0---------0----|
C#|---------------------------------|---------------------------------|--------------2---------|
G#|---------------------------------|---------------------------------|------------------------|
D#|---------------------------------|---------------------------------|------------------------|


D#|--------------------|---------------------------------|---------------------------------|
A#|---------------3----|-3-------3-----------------------|-----------------0---0---0---0---|
F#|-----------0--------|-------------0---------------7---|-7---------------4---4---4---4---|
C#|-------5------------|-----5-----------0---0---0-------|-----0---0---0-------------------|
G#|--------------------|---------------------------------|---------------------------------|
D#|--------------------|---------------------------------|---------------------------------|


D#|-------------7---7---7---7---7---|-7---7---7---7---7---------|--------------7-----|
A#|-------------0---0---0---0---0---|-0---0---0---0---0---------|-0------------0-----|
F#|-6---7---------------------------|----------------------9----|------9---9---------|
C#|---------0-----------------------|---------------------------|--------------------|
G#|---------------------------------|---------------------------|--------------------|
D#|---------------------------------|---------------------------|--------------------|


D#|------------------------------|-----------0------------|-0---0-------------------0-------|
A#|-----0---0---0-----------8----|-7---8-----0----0---0---|-0---0---0---0---0---0---0---0---|
F#|-9-------9---9---7---7--------|-7---------0----0---0---|---------0---0---0---0---0---0---|
C#|------------------------------|-----------0------------|---------------------------------|
G#|------------------------------|------------------------|---------------------------------|
D#|------------------------------|------------------------|---------------------------------|


D#|-----0----0---2-------2---2---|-----0------------7-------7---|-----7----------------2----|
A#|-0---5----0-------0---0---0---|-0---3----0---0---0---0---0---|-0---0---0---0---0---------|
F#|-0---0----0-------------------|--------------4-------4-------|-4-------4---0---0---------|
C#|------------------------------|------------------------------|---------------------------|
G#|------------------------------|------------------------------|---------------------------|
D#|------------------------------|------------------------------|---------------------------|


D#|-2-------------------------|-----0---------------------|-0---0-------0---0---0---0---0---|
A#|-----12------10--10----0---|-0---0----0-------0--------|-0---0---0---0---10--10--10--10--|
F#|---------11------11----0---|-0--------0---0---0----0---|-------------------------12--11--|
C#|-----------------0---------|---------------------------|---------------------------------|
G#|---------------------------|---------------------------|---------------------------------|
D#|---------------------------|---------------------------|---------------------------------|


D#|-0--------0---------------0---|-0-------0---0---0---0---0---0---|-0---0---0---0---0---0---0---0---|
A#|-10--0----0-------------------|-----0---5---5---5---5---5---7---|-7---7---8---8---8---10--10--10--|
F#|-12--11-------0---0---0-------|---------------------------------|---------------------------------|
C#|--------------5---5---5-------|---------------------------------|---------------------------------|
G#|------------------------------|---------------------------------|---------------------------------|
D#|------------------------------|---------------------------------|---------------------------------|


D#|-0---0---0---0---0---0---0---0---|-0---0---0----0-----|------0-----0-------7---7-------|
A#|-12--12--14--14--15--15--15--17--|-17--19--19---19----|------19-17-17--7-----------7---|
F#|-------------0-------------------|--------------------|--------------------------------|
C#|---------------------------------|--------------------|--------------------------------|
G#|---------------------------------|--------------------|--------------------------------|
D#|---------------------------------|--------------------|--------------------------------|


D#|-7---7-------7----------------|------------------------------|------------------------------|
A#|-7-------7-------0------------|-----------------10---8-------|------------------------------|
F#|-0---------------4---7----7---|-7---9---9---11--11---9---0---|-7---9-------7---7---7----7---|
C#|------------------------------|------------------------------|------------------------------|
G#|------------------------------|------------------------------|------------------------------|
D#|------------------------------|------------------------------|------------------------------|


D#|------------------------------|---------------------------------|-----------------0-----|
A#|-----------------10---8-------|---------------------------------|-----------------0-----|
F#|-7---9---9---11--11---9---0---|-7---9-------7---7---7---7---7---|-7---7---7---0---4-----|
C#|------------------------------|---------------------------------|-----------------------|
G#|------------------------------|---------------------------------|-----------------------|
D#|------------------------------|---------------------------------|-----------------------|


D#|-------0-----|-------0-----|-------0-----|
A#|-------0-----|-------0-----|-------0-----|
F#|-------4-----|-------4-----|-------4-----|
C#|-------------|-------------|-------------|
G#|-------------|-------------|-------------|
D#|-------------|-------------|-------------|





Track 2: Synth

D#|--------|-------------|-------------|-------------|-------------|-------------|
A#|--------|-------------|-------------|-------------|-------------|-------------|
F#|-4------|-------4-----|-------9-----|-------7-----|-------11----|-------11----|
C#|--------|-------------|-------------|-------------|-------------|-------------|
G#|-2------|-------2-----|-------7-----|-------5-----|-------9-----|-------9-----|
D#|--------|-------------|-------------|-------------|-------------|-------------|


D#|-------------|-------------|-------------|--------|--------|--------|--------|--------|
A#|-------------|-------------|-------------|--------|--------|--------|--------|--------|
F#|-------9-----|-------9-----|-------4-----|--------|--------|--------|--------|--------|
C#|-------------|-------------|-------------|--------|--------|--------|--------|--------|
G#|-------7-----|-------7-----|-------2-----|--------|--------|--------|--------|--------|
D#|-------------|-------------|-------------|--------|--------|--------|--------|--------|


D#|--------|--------|--------|--------|--------|--------|--------|-------------|----------7---7-----|
A#|--------|--------|--------|--------|--------|--------|--------|-------------|-----8--------------|
F#|--------|--------|--------|--------|--------|--------|--------|-------------|--------------------|
C#|--------|--------|--------|--------|--------|--------|--------|-------------|--------------------|
G#|--------|--------|--------|--------|--------|--------|--------|-------------|--------------------|
D#|--------|--------|--------|--------|--------|--------|--------|-------------|--------------------|


D#|-7---5--------5-----|--------|--------|--------|--------|--------|--------|--------|
A#|----------8---------|--------|--------|--------|--------|--------|--------|--------|
F#|--------------------|--------|--------|--------|--------|--------|--------|--------|
C#|--------------------|--------|--------|--------|--------|--------|--------|--------|
G#|--------------------|--------|--------|--------|--------|--------|--------|--------|
D#|--------------------|--------|--------|--------|--------|--------|--------|--------|


D#|--------|--------|--------|--------|--------|--------|--------|--------|--------|
A#|--------|--------|--------|--------|--------|--------|--------|--------|--------|
F#|--------|--------|--------|--------|--------|--------|--------|--------|--------|
C#|--------|--------|--------|--------|--------|--------|--------|--------|--------|
G#|--------|--------|--------|--------|--------|--------|--------|--------|--------|
D#|--------|--------|--------|--------|--------|--------|--------|--------|--------|


D#|--------|--------|--------|--------|--------|--------|--------|--------|--------|
A#|--------|--------|--------|--------|--------|--------|--------|--------|--------|
F#|--------|--------|--------|--------|--------|--------|--------|--------|--------|
C#|--------|--------|--------|--------|--------|--------|--------|--------|--------|
G#|--------|--------|--------|--------|--------|--------|--------|--------|--------|
D#|--------|--------|--------|--------|--------|--------|--------|--------|--------|


D#|--------|--------|--------|--------|--------|--------|--------|--------|--------|
A#|--------|--------|--------|--------|--------|--------|--------|--------|--------|
F#|--------|--------|--------|--------|--------|--------|--------|--------|--------|
C#|--------|--------|--------|--------|--------|--------|--------|--------|--------|
G#|--------|--------|--------|--------|--------|--------|--------|--------|--------|
D#|--------|--------|--------|--------|--------|--------|--------|--------|--------|


D#|--------|--------|--------|--------|--------|--------|--------|--------|-----------------|
A#|--------|--------|--------|--------|--------|--------|--------|--------|------------8----|
F#|--------|--------|--------|--------|--------|--------|--------|--------|-----------------|
C#|--------|--------|--------|--------|--------|--------|--------|--------|-------9---------|
G#|--------|--------|--------|--------|--------|--------|--------|--------|-----------------|
D#|--------|--------|--------|--------|--------|--------|--------|--------|-----------------|


D#|----------7---7-----|--------------------|--------------------|-----------------|
A#|-7---8----8---8-----|---------------3----|----------------10--|-10---------8----|
F#|--------------------|-------2---2--------|-------9---9--------|-----------------|
C#|--------------------|--------------------|--------------------|-------9---------|
G#|--------------------|--------------------|--------------------|-----------------|
D#|--------------------|--------------------|--------------------|-----------------|


D#|----------7---7-----|-7---5--------5-----|-------------|----------14--14----|-------------|
A#|-7---8--------------|----------8---------|-------12----|-14--15-------------|-------------|
F#|--------------------|--------------------|-------------|--------------------|-------------|
C#|--------------------|--------------------|-------------|--------------------|-------------|
G#|--------------------|--------------------|-------------|--------------------|-------------|
D#|--------------------|--------------------|-------------|--------------------|-------------|


D#|-------------|--------|--------|--------|--------|-------------|----------14--14----|
A#|-------------|--------|--------|--------|--------|-------12----|-14--15-------------|
F#|-------------|--------|--------|--------|--------|-------------|--------------------|
C#|-------------|--------|--------|--------|--------|-------------|--------------------|
G#|-------------|--------|--------|--------|--------|-------------|--------------------|
D#|-------------|--------|--------|--------|--------|-------------|--------------------|


D#|-------------|-------------|--------|--------|--------|--------|--------|--------|
A#|-------------|-------------|--------|--------|--------|--------|--------|--------|
F#|-------------|-------------|--------|--------|--------|--------|--------|--------|
C#|-------------|-------------|--------|--------|--------|--------|--------|--------|
G#|-------------|-------------|--------|--------|--------|--------|--------|--------|
D#|-------------|-------------|--------|--------|--------|--------|--------|--------|


D#|--------|--------|--------|--------|--------|--------|--------|--------|--------|
A#|--------|--------|--------|--------|--------|--------|--------|--------|--------|
F#|--------|--------|--------|--------|--------|--------|--------|--------|--------|
C#|--------|--------|--------|--------|--------|--------|--------|--------|--------|
G#|--------|--------|--------|--------|--------|--------|--------|--------|--------|
D#|--------|--------|--------|--------|--------|--------|--------|--------|--------|


D#|--------|
A#|--------|
F#|--------|
C#|--------|
G#|--------|
D#|--------|





Track 3: Gtr.2

D#|--------|--------|--------|--------|--------|--------|--------|--------|--------|
A#|--------|--------|--------|--------|--------|--------|--------|--------|--------|
F#|--------|--------|--------|--------|--------|--------|--------|--------|--------|
C#|--------|--------|--------|--------|--------|--------|--------|--------|--------|
G#|--------|--------|--------|--------|--------|--------|--------|--------|--------|
D#|--------|--------|--------|--------|--------|--------|--------|--------|--------|


D#|--------|--------|--------|--------|--------|--------|--------|--------|--------|
A#|--------|--------|--------|--------|--------|--------|--------|--------|--------|
F#|--------|--------|--------|--------|--------|--------|--------|--------|--------|
C#|--------|--------|--------|--------|--------|--------|--------|--------|--------|
G#|--------|--------|--------|--------|--------|--------|--------|--------|--------|
D#|--------|--------|--------|--------|--------|--------|--------|--------|--------|


D#|--------|--------|--------|--------|--------|--------|-------------|-------------|
A#|--------|--------|--------|--------|--------|--------|-------------|-------------|
F#|--------|--------|--------|--------|--------|--------|-------------|-------------|
C#|--------|--------|--------|--------|--------|--------|-------------|-------------|
G#|--------|--------|--------|--------|--------|--------|-------------|-------------|
D#|--------|--------|--------|--------|--------|--------|-------------|-------------|


D#|-------------|-----------------|-----------2----3----|------3---2---2----3----|
A#|-------------|-----------------|------5----0----0----|------0-------0----0----|
F#|-------------|-----------------|-0-------------------|------------------------|
C#|-------------|------------4----|---------------------|------------------------|
G#|-------------|-----------------|---------------------|------------------------|
D#|-------------|-----------------|---------------------|------------------------|


D#|------3---2---------|-----------------|-------------|-------------|-------------|
A#|------0-------0-----|-3----5----0-----|-------0-----|-------------|-------------|
F#|--------------------|-----------4-----|-------4-----|-------------|-------------|
C#|--------------------|-----------------|-------------|-------------|-------------|
G#|--------------------|-----------------|-------------|-------------|-------------|
D#|--------------------|-----------------|-------------|-------------|-------------|


D#|-------------|-------------|--------------------|-----------------|--------------------|
A#|-------------|-------------|----------------12--|-12--------10----|----------------12--|
F#|-------------|-------------|--------------------|------11---------|--------------------|
C#|-------------|-------------|--------------------|-----------------|--------------------|
G#|-------------|-------------|--------------------|-----------------|--------------------|
D#|-------------|-------------|--------------------|-----------------|--------------------|


D#|-----------------|-------------|-------------|-------------|----------------0---|
A#|-12--------10----|-------------|-------------|-------------|------------7-------|
F#|------11---------|-------------|-------------|-------------|-------7------------|
C#|-----------------|-------------|-------------|-------------|-------7------------|
G#|-----------------|-------------|-------------|-------------|-------5------------|
D#|-----------------|-------------|-------------|-------------|--------------------|


D#|-0--------------7---|-7---7---7---7-------0-----------|-------------|-------------0---|
A#|----------------5---|-5---5---5---5-----------0---8---|-8-----8-----|-----------------|
F#|----------------6---|-6---6---6---6-------------------|-------------|-------7---------|
C#|-------7----7-------|-----7---7---7---9---------------|-------------|-------7---------|
G#|-------0----0-------|-----0---0---0---7---------------|-------------|-------5---------|
D#|--------------------|-----------------0---------------|-------------|-----------------|


D#|-0---------------|-------------|-------------|--------|--------|--------|--------|
A#|-------------0---|-0-----------|-------------|--------|--------|--------|--------|
F#|-------6---------|-------------|-------------|--------|--------|--------|--------|
C#|-------7---------|-------------|-------------|--------|--------|--------|--------|
G#|-------0---------|-------------|-------------|--------|--------|--------|--------|
D#|-----------------|-------------|-------------|--------|--------|--------|--------|


D#|--------|--------|--------|--------|--------|--------|--------|--------|--------|
A#|--------|--------|--------|--------|--------|--------|--------|--------|--------|
F#|--------|--------|--------|--------|--------|--------|--------|--------|--------|
C#|--------|--------|--------|--------|--------|--------|--------|--------|--------|
G#|--------|--------|--------|--------|--------|--------|--------|--------|--------|
D#|--------|--------|--------|--------|--------|--------|--------|--------|--------|


D#|--------|--------|--------|--------|--------|--------|--------|--------|-------------|
A#|--------|--------|--------|--------|--------|--------|--------|--------|-------------|
F#|--------|--------|--------|--------|--------|--------|--------|--------|-------------|
C#|--------|--------|--------|--------|--------|--------|--------|--------|-------------|
G#|--------|--------|--------|--------|--------|--------|--------|--------|-------------|
D#|--------|--------|--------|--------|--------|--------|--------|--------|-------------|


D#|-------------|-------------|-----------------|-----------------|--------------------|
A#|-------------|-------------|-----------------|-----5-----------|--------------------|
F#|-------------|-------------|-----------------|-----------------|----------------0---|
C#|-------------|-------------|------------4----|-4---------------|------------4-------|
G#|-------------|-------------|-----------------|-----------------|--------------------|
D#|-------------|-------------|-----------------|-----------------|--------------------|


D#|---------------------------------|-----------------------|-------------|-----------------|
A#|---------------------------------|-----------------0-----|-------------|-----------------|
F#|-0-------0-------0---0---0---0---|-0---0---0---0---0-----|-------------|-----------------|
C#|-----4-------4---4---4---5---5---|-5---5---5---5---2-----|-------------|------------4----|
G#|---------------------------------|-----------------------|-------------|-----------------|
D#|---------------------------------|-----------------------|-------------|-----------------|


D#|-------------|-----------------|------0----------|-----------------------|-----0-----0-----|
A#|-------------|-----------------|-----------------|-----------------------|-----3-----3-----|
F#|-0-----------|-----------------|-0---------7-----|-----------0-------0---|-0---------------|
C#|-------------|------------4----|-----------0-----|-------5-------4---5---|-5---------------|
G#|-------------|-----------------|-----------------|-----------------------|-----------------|
D#|-------------|-----------------|-----------------|-----------------------|-----------------|


D#|-------------|-------------|-------------|-------------|--------------------|-----------------|
A#|-------------|-------------|-------------|-------------|----------------12--|-12--------10----|
F#|-------------|-------------|-------------|-------------|--------------------|------11---------|
C#|-------------|-------------|-------------|-------------|--------------------|-----------------|
G#|-------------|-------------|-------------|-------------|--------------------|-----------------|
D#|-------------|-------------|-------------|-------------|--------------------|-----------------|


D#|--------------------|---------------------|-------------|-------------|-------------|
A#|----------------12--|-12--------10--------|-------------|-------------|-------------|
F#|--------------------|------11-------------|-------------|-------------|-------------|
C#|--------------------|-----------------12--|-12----------|-------------|-------------|
G#|--------------------|---------------------|-------------|-------------|-------------|
D#|--------------------|---------------------|-------------|-------------|-------------|


D#|-------------|-------------|
A#|-------------|-------------|
F#|-------------|-------------|
C#|-------------|-------------|
G#|-------------|-------------|
D#|-------------|-------------|





Track 4: Synth bass

F#|--------|-----------------------|---------------------9-------9---|-----9-------9-------7-------7---|
C#|--------|-----------9-------9---|-----9-------9-------------------|---------------------------------|
G#|--------|-----------------------|-----------------7-------7-------|-7-------7-------5-------5-------|
D#|--------|-------7-------7-------|-7-------7-----------------------|---------------------------------|


F#|-----7-------7-------12------12--|-----12------12------7-------7---|-----7-------7-------------------|
C#|---------------------------------|---------------------------------|---------------------5-------5---|
G#|-5-------5-------10------10------|-10------10------5-------5-------|-5-------5-----------------------|
D#|---------------------------------|---------------------------------|-----------------3-------3-------|


F#|---------------------------------|---------------------9-------9---|-----9-------9-------------------|
C#|-----5-------5-------5-------5---|-----5-------5-------------------|---------------------9-------9---|
G#|---------------------------------|-----------------7-------7-------|-7-------7-----------------------|
D#|-3-------3-------3-------3-------|-3-------3-----------------------|-----------------7-------7-------|


F#|---------------------9-------9---|-----9-------9-------7-------7---|-----7-------7-------12------12--|
C#|-----9-------9-------------------|---------------------------------|---------------------------------|
G#|-----------------7-------7-------|-7-------7-------5-------5-------|-5-------5-------10------10------|
D#|-7-------7-----------------------|---------------------------------|---------------------------------|


F#|-----12------12------------------|---------------------9-------9---|-----9-------9-------7-------7---|
C#|---------------------9-------9---|-----9-------9-------------------|---------------------------------|
G#|-10------10----------------------|-----------------7-------7-------|-7-------7-------5-------5-------|
D#|-----------------7-------7-------|-7-------7-----------------------|---------------------------------|


F#|-----7-------7-------12------12--|-----12------12------9-------9---|-----9-------9-------12------12--|
C#|---------------------------------|---------------------------------|---------------------------------|
G#|-5-------5-------10------10------|-10------10------7-------7-------|-7-------7-------10------10------|
D#|---------------------------------|---------------------------------|---------------------------------|


F#|-----12------12------7-------7---|-----7-------7-------------------|---------------------9-------9---|
C#|---------------------------------|---------------------7-------7---|-----7-------7-------------------|
G#|-10------10------5-------5-------|-5-------5-----------------------|-----------------7-------7-------|
D#|---------------------------------|-----------------5-------5-------|-5-------5-----------------------|


F#|-----9-------9-------12------12--|-----12------12------7-------7---|-----7-------7-------------------|
C#|---------------------------------|---------------------------------|---------------------5-------5---|
G#|-7-------7-------10------10------|-10------10------5-------5-------|-5-------5-----------------------|
D#|---------------------------------|---------------------------------|-----------------3-------3-------|


F#|---------------------------------|---------------------9-------9---|-----9-------9-------9-------9---|
C#|-----5-------5-------9-------9---|-----9-------9-------------------|---------------------------------|
G#|---------------------------------|-----------------7-------7-------|-7-------7-------7-------7-------|
D#|-3-------3-------7-------7-------|-7-------7-----------------------|---------------------------------|


F#|-----9-------9-------7-------7---|-----7-------7-------------------|---------------------------------|
C#|---------------------------------|---------------------5-------5---|-----5-------5-------5-------5---|
G#|-7-------7-------5-------5-------|-5-------5-----------------------|---------------------------------|
D#|---------------------------------|-----------------3-------3-------|-3-------3-------3-------3-------|


F#|---------------------------------|-----------------------|-----------------|-------------|
C#|-----5-------5-------9-------9---|-----9-------9---------|-----------------|-------------|
G#|---------------------------------|-----------------2-----|-----------------|-------------|
D#|-3-------3-------7-------7-------|-7-------7-------------|-----------------|-------------|


F#|-------------|-----------------------|---------------------9-------9---|-----9-------9-------7-------7---|
C#|-------------|-----------9-------9---|-----9-------9-------------------|---------------------------------|
G#|-------------|-----------------------|-----------------7-------7-------|-7-------7-------5-------5-------|
D#|-------------|-------7-------7-------|-7-------7-----------------------|---------------------------------|


F#|-----7-------7-------12------12--|-----12------12------7-------7---|-----7-------7-------12------12--|
C#|---------------------------------|---------------------------------|---------------------------------|
G#|-5-------5-------10------10------|-10------10------5-------5-------|-5-------5-------10------10------|
D#|---------------------------------|---------------------------------|---------------------------------|


F#|-----12------12------12------12--|-----12------12------9-------9---|-----9-------9-------7-------7---|
C#|---------------------------------|---------------------------------|---------------------------------|
G#|-10------10------10------10------|-10------10------7-------7-------|-7-------7-------5-------5-------|
D#|---------------------------------|---------------------------------|---------------------------------|


F#|-----7-------7-------------------|---------------------9-------9---|-----9-------9-------9-------9---|
C#|---------------------7-------7---|-----7-------7-------------------|---------------------------------|
G#|-5-------5-----------------------|-----------------7-------7-------|-7-------7-------7-------7-------|
D#|-----------------5-------5-------|-5-------5-----------------------|---------------------------------|


F#|-----9-------9-------7-------7---|-----7-------7-------------------|-----------------------|
C#|---------------------------------|---------------------7-------7---|-----7-------7---------|
G#|-7-------7-------5-------5-------|-5-------5-----------------------|-----------------------|
D#|---------------------------------|-----------------5-------5-------|-5-------5-------5-----|


F#|-------------|--------|--------|--------|--------|--------|--------|--------|--------|
C#|-------------|--------|--------|--------|--------|--------|--------|--------|--------|
G#|-------------|--------|--------|--------|--------|--------|--------|--------|--------|
D#|-------------|--------|--------|--------|--------|--------|--------|--------|--------|


F#|--------|--------|--------|--------|--------|--------|-----------9-------9---|-----9-------9-------12------12--|
C#|--------|--------|--------|--------|--------|--------|-----------------------|---------------------------------|
G#|--------|--------|--------|--------|--------|--------|-------7-------7-------|-7-------7-------10------10------|
D#|--------|--------|--------|--------|--------|--------|-----------------------|---------------------------------|


F#|-----12------12------7-------7---|-----7-------7-------------------|---------------------9-------9---|
C#|---------------------------------|---------------------7-------7---|-----7-------7-------------------|
G#|-10------10------5-------5-------|-5-------5-----------------------|-----------------7-------7-------|
D#|---------------------------------|-----------------5-------5-------|-5-------5-----------------------|


F#|-----9-------9-------12------12--|-----12------12------7-------7---|-----7-------7-------------------|
C#|---------------------------------|---------------------------------|---------------------5-------5---|
G#|-7-------7-------10------10------|-10------10------5-------5-------|-5-------5-----------------------|
D#|---------------------------------|---------------------------------|-----------------3-------3-------|


F#|---------------------------------|---------------------9-------9---|-----9-------9-------9-------9---|
C#|-----5-------5-------9-------9---|-----9-------9-------------------|---------------------------------|
G#|---------------------------------|-----------------7-------7-------|-7-------7-------7-------7-------|
D#|-3-------3-------7-------7-------|-7-------7-----------------------|---------------------------------|


F#|-----9-------9-------7-------7---|-----7-------7-------------------|---------------------------------|
C#|---------------------------------|---------------------5-------5---|-----5-------5-------5-------5---|
G#|-7-------7-------5-------5-------|-5-------5-----------------------|---------------------------------|
D#|---------------------------------|-----------------3-------3-------|-3-------3-------3-------3-------|


F#|---------------------9-------9---|-----9-------9-------------------|---------------------9-------9---|
C#|-----5-------5-------------------|---------------------9-------9---|-----9-------9-------------------|
G#|-----------------7-------7-------|-7-------7-----------------------|-----------------7-------7-------|
D#|-3-------3-----------------------|-----------------7-------7-------|-7-------7-----------------------|


F#|-----9-------9-------7-------7---|-----7-------7-------------------|---------------------7-------7---|
C#|---------------------------------|---------------------5-------5---|-----5-------5-------------------|
G#|-7-------7-------5-------5-------|-5-------5-----------------------|-----------------5-------5-------|
D#|---------------------------------|-----------------3-------3-------|-3-------3-----------------------|


F#|-----7-------7-------------------|-----------------------|--------|--------|--------|
C#|---------------------5-------5---|-----5-------5---------|--------|--------|--------|
G#|-5-------5-----------------------|-----------------------|--------|--------|--------|
D#|-----------------3-------3-------|-3-------3-------------|--------|--------|--------|


F#|-----------------------|---------------------9-------9---|-----9-------9-------7-------7---|
C#|-----------9-------9---|-----9-------9-------------------|---------------------------------|
G#|-----------------------|-----------------7-------7-------|-7-------7-------5-------5-------|
D#|-------7-------7-------|-7-------7-----------------------|---------------------------------|


F#|-----7-------7-------12------12--|-----12------12------7-------7---|-----7-------7-------12------12--|
C#|---------------------------------|---------------------------------|---------------------------------|
G#|-5-------5-------10------10------|-10------10------5-------5-------|-5-------5-------10------10------|
D#|---------------------------------|---------------------------------|---------------------------------|


F#|-----12------12--------|--------------------|--------|--------|
C#|-----------------------|--------------------|--------|--------|
G#|-10------10------7-----|--------------------|--------|--------|
D#|-----------------------|-0---0--------------|--------|--------|





Track 5: Vocal FX simulation

F#|--------|--------|--------|--------|--------|--------|--------|--------|--------|
C#|--------|--------|--------|--------|--------|--------|--------|--------|--------|
G#|--------|--------|--------|--------|--------|--------|--------|--------|--------|
D#|--------|--------|--------|--------|--------|--------|--------|--------|--------|


F#|--------|--------|--------|--------|--------|--------|--------|--------|--------|
C#|--------|--------|--------|--------|--------|--------|--------|--------|--------|
G#|--------|--------|--------|--------|--------|--------|--------|--------|--------|
D#|--------|--------|--------|--------|--------|--------|--------|--------|--------|


F#|--------|--------|--------|--------|--------|--------|--------|--------|--------|
C#|--------|--------|--------|--------|--------|--------|--------|--------|--------|
G#|--------|--------|--------|--------|--------|--------|--------|--------|--------|
D#|--------|--------|--------|--------|--------|--------|--------|--------|--------|


F#|--------|--------|--------|--------|--------|-----------------|------------------------|
C#|--------|--------|--------|--------|--------|-------------4---|-4----5----5---7--------|
G#|--------|--------|--------|--------|--------|-------7---------|------------------------|
D#|--------|--------|--------|--------|--------|-----------------|------------------------|


F#|------6----7-----9---|-9----11---11--------|-------------|--------|--------|--------|
C#|-9-------------------|---------------------|-------------|--------|--------|--------|
G#|---------------------|---------------------|-------------|--------|--------|--------|
D#|---------------------|---------------------|-------------|--------|--------|--------|


F#|--------|--------|--------|--------|--------|--------|--------|--------|-------------|
C#|--------|--------|--------|--------|--------|--------|--------|--------|-------------|
G#|--------|--------|--------|--------|--------|--------|--------|--------|-------------|
D#|--------|--------|--------|--------|--------|--------|--------|--------|-------------|


F#|-------------|-----------------|------------------------|------6----7-----9---|
C#|-------------|-------------4---|-4----5----5---7--------|-9-------------------|
G#|-------------|-------7---------|------------------------|---------------------|
D#|-------------|-----------------|------------------------|---------------------|


F#|-9----11---11--------|-------------|--------|--------|--------|--------|--------|
C#|---------------------|-------------|--------|--------|--------|--------|--------|
G#|---------------------|-------------|--------|--------|--------|--------|--------|
D#|---------------------|-------------|--------|--------|--------|--------|--------|


F#|--------|--------|--------|--------|--------|--------|--------|--------|--------|
C#|--------|--------|--------|--------|--------|--------|--------|--------|--------|
G#|--------|--------|--------|--------|--------|--------|--------|--------|--------|
D#|--------|--------|--------|--------|--------|--------|--------|--------|--------|


F#|--------|--------|--------|--------|--------|--------|--------|--------|--------|
C#|--------|--------|--------|--------|--------|--------|--------|--------|--------|
G#|--------|--------|--------|--------|--------|--------|--------|--------|--------|
D#|--------|--------|--------|--------|--------|--------|--------|--------|--------|


F#|--------|--------|--------|--------|--------|--------|--------|--------|--------|
C#|--------|--------|--------|--------|--------|--------|--------|--------|--------|
G#|--------|--------|--------|--------|--------|--------|--------|--------|--------|
D#|--------|--------|--------|--------|--------|--------|--------|--------|--------|


F#|--------|--------|--------|--------|--------|--------|--------|--------|--------|
C#|--------|--------|--------|--------|--------|--------|--------|--------|--------|
G#|--------|--------|--------|--------|--------|--------|--------|--------|--------|
D#|--------|--------|--------|--------|--------|--------|--------|--------|--------|


F#|--------|--------|--------|--------|--------|
C#|--------|--------|--------|--------|--------|
G#|--------|--------|--------|--------|--------|
D#|--------|--------|--------|--------|--------|