Menu:

 

Search:

 

biffy clyro - 57:

 



Title: 57
Artist: 
Album: Blackened Sky
Author: Biffy Clyro


Track 1: Electric Guitar

E|-----------------------------------|--------|--------|--------|--------|--------|
B|-----------------------------------|--------|--------|--------|--------|--------|
G|-0---0---0---0---------0---0---0---|--------|--------|--------|--------|--------|
D|-3---3---3---3------3--3---3---3---|--------|--------|--------|--------|--------|
A|-4---4---4---4------4--4---4---4---|--------|--------|--------|--------|--------|
D|-4---4---4---4------4--4---4---4---|--------|--------|--------|--------|--------|


E|--------|--------|--------|--------|--------|--------|--------|--------|--------|
B|--------|--------|--------|--------|--------|--------|--------|--------|--------|
G|--------|--------|--------|--------|--------|--------|--------|--------|--------|
D|--------|--------|-4------|-7------|-4------|-7------|-4------|-7------|-4------|
A|--------|--------|-4------|-5------|-4------|-5------|-4------|-5------|-4------|
D|--------|--------|-4------|-0------|-4------|-0------|-4------|-0------|-4------|


E|--------------------|------------------------------------|------------------------------------|
B|--------------------|------------------------------------|------------------------------------|
G|--------11--9---7---|-6----6----6--6--6---6--6---7---9---|-11---11---11-11-11--11-11--9---7---|
D|-0------------------|------------------------------------|------------------------------------|
A|-0------9---7---5---|-4----4----4--4--4---4--4---5---7---|-9----9----9--9--9---9--9---7---5---|
D|-0------------------|------------------------------------|------------------------------------|


E|------------------------------------|------------------------------------|------------------------------------|
B|------------------------------------|------------------------------------|------------------------------------|
G|-6----6----6--6--6---6--6---7---9---|-11---11---11-11-11--11-11--9---7---|-6----6----6--6--6---6--6---7---9---|
D|------------------------------------|------------------------------------|------------------------------------|
A|-4----4----4--4--4---4--4---5---7---|-9----9----9--9--9---9--9---7---5---|-4----4----4--4--4---4--4---5---7---|
D|------------------------------------|------------------------------------|------------------------------------|


E|------------------------------------|------------------------------------|-----------------------------|
B|------------------------------------|------------------------------------|-----------------------------|
G|-11---11---11-11-11--11-11--9---7---|-6----6----6--6--6---6--6---7---9---|-7----7----7--7--7-----------|
D|------------------------------------|------------------------------------|-----------------------------|
A|-9----9----9--9--9---9--9---7---5---|-4----4----4--4--4---4--4---5---7---|-5----5----5--5--5-----------|
D|------------------------------------|------------------------------------|-----------------------------|


E|--------|--------|--------|--------|--------|--------|--------|--------|--------|
B|--------|--------|--------|--------|--------|--------|--------|--------|--------|
G|--------|--------|--------|--------|--------|--------|--------|--------|--------|
D|--------|--------|--------|--------|--------|--------|--------|--------|--------|
A|--------|--------|--------|--------|--------|--------|--------|--------|--------|
D|--------|--------|--------|--------|--------|--------|--------|--------|--------|


E|--------|--------|--------|--------|---------5---------------5-------|---------5---------------5-------|
B|--------|--------|--------|--------|-2---3-------3---2---3-------3---|-2---3-------3---2---3-------3---|
G|--------|--------|--------|--------|---------------------------------|---------------------------------|
D|--------|--------|--------|--------|---------------------------------|---------------------------------|
A|--------|--------|--------|--------|---------------------------------|---------------------------------|
D|--------|--------|--------|--------|---------------------------------|---------------------------------|


E|---------5---------------5-------|---------5---------------5-------|--------|--------|
B|-2---3-------3---2---3-------3---|-2---3-------3---2---3-------3---|--------|--------|
G|---------------------------------|---------------------------------|--------|--------|
D|---------------------------------|---------------------------------|--------|--------|
A|---------------------------------|---------------------------------|--------|--------|
D|---------------------------------|---------------------------------|--------|--------|


E|--------|--------|--------|--------|--------|--------|--------|--------|--------|
B|--------|--------|--------|--------|--------|--------|--------|--------|--------|
G|--------|--------|--------|--------|--------|--------|--------|--------|--------|
D|--------|--------|--------|--------|--------|--------|--------|--------|--------|
A|--------|--------|--------|--------|--------|--------|--------|--------|--------|
D|--------|--------|--------|--------|--------|--------|--------|--------|--------|


E|--------|--------|--------|--------|--------|--------|--------|--------|---------5------------5----|
B|--------|--------|--------|--------|--------|--------|--------|--------|-2---3--------2---3--------|
G|--------|--------|--------|--------|--------|--------|--------|--------|---------------------------|
D|--------|--------|--------|--------|--------|--------|--------|--------|---------------------------|
A|--------|--------|--------|--------|--------|--------|--------|--------|---------------------------|
D|--------|--------|--------|--------|--------|--------|--------|--------|---------------------------|


E|---------5--------------------|----------------------------------|----------------------------------|
B|-2---3-------3---2---3---3----|----------------------------------|----------------------------------|
G|------------------------------|----------------------------------|----------------------------------|
D|------------------------------|-0----0----0--0--0--0---0---0--0--|-7----7----7--7--7--7---7---7--7--|
A|------------------------------|-0----0----0--0--0--0---0---0--0--|-7----7----7--7--7--7---7---7--7--|
D|------------------------------|-0----0----0--0--0--0---0---0--0--|-7----7----7--7--7--7---7---7--7--|


E|----------------------------------|-----------------------------------------|---------5---------------5-------|
B|----------------------------------|-----------------------------------------|-2---3-------3---2---3-------3---|
G|----------------------------------|-----------------------------------------|---------------------------------|
D|-5----5----5--5--5--5---5---5--5--|-5--5--5---5---5--5--5--5--5---5---5--5--|---------------------------------|
A|-5----5----5--5--5--5---5---5--5--|-5--5--5---5---5--5--5--5--5---5---5--5--|---------------------------------|
D|-5----5----5--5--5--5---5---5--5--|-5--5--5---5---5--5--5--5--5---5---5--5--|---------------------------------|


E|---------5---------------5-------|---------5---------------5-------|---------5---------------5-------|
B|-2---3-------3---2---3-------3---|-2---3-------3---2---3-------3---|-2---3-------3---2---3-------3---|
G|---------------------------------|---------------------------------|---------------------------------|
D|---------------------------------|---------------------------------|---------------------------------|
A|---------------------------------|---------------------------------|---------------------------------|
D|---------------------------------|---------------------------------|---------------------------------|


E|--------|--------|--------|--------|--------|--------|--------|--------|--------|
B|--------|--------|--------|--------|--------|--------|--------|--------|--------|
G|--------|--------|--------|--------|--------|--------|--------|--------|--------|
D|--------|--------|--------|--------|--------|--------|--------|--------|--------|
A|--------|--------|--------|--------|--------|--------|--------|--------|--------|
D|--------|--------|--------|--------|--------|--------|--------|--------|--------|


E|--------|--------|--------|--------|--------|--------|--------|
B|--------|--------|--------|--------|--------|--------|--------|
G|--------|--------|--------|--------|--------|--------|--------|
D|--------|--------|--------|--------|--------|--------|--------|
A|--------|--------|--------|--------|--------|--------|--------|
D|--------|--------|--------|--------|--------|--------|--------|





Track 2: Dist Gtr 1

E|--------|-------------------------------|-----------------------------------|-------------------------------|
B|--------|-------------------------------|-----------------------------------|-------------------------------|
G|--------|-------------------------------|-----------------------------------|-------------------------------|
D|--------|------0----5----0--0--0--0--0--|-3---3---3---3------3--3---3---3---|------0----5----0--0--0--0--0--|
A|--------|------0----5----0--0--0--0--0--|-4---4---4---4------4--4---4---4---|------0----5----0--0--0--0--0--|
D|--------|------0----5----0--0--0--0--0--|-4---4---4---4------4--4---4---4---|------0----5----0--0--0--0--0--|


E|-----------------------------------|-------------------------------|-----------------------------------|
B|-----------------------------------|-------------------------------|-----------------------------------|
G|-----------------------------------|-------------------------------|-----------------------------------|
D|-3---3---3---3------3--3---3---3---|------0----5----0--0--0--0--0--|-3---3---3---3------3--3---3---3---|
A|-4---4---4---4------4--4---4---4---|------0----5----0--0--0--0--0--|-4---4---4---4------4--4---4---4---|
D|-4---4---4---4------4--4---4---4---|------0----5----0--0--0--0--0--|-4---4---4---4------4--4---4---4---|


E|-------------------------------|--------|--------|--------|--------|--------|--------|
B|-------------------------------|--------|--------|--------|--------|--------|--------|
G|-------------------------------|--------|--------|--------|--------|--------|--------|
D|------0----5----0--0--0--0--0--|--------|--------|--------|--------|--------|--------|
A|------0----5----0--0--0--0--0--|--------|--------|--------|--------|--------|--------|
D|------0----5----0--0--0--0--0--|--------|--------|--------|--------|--------|--------|


E|--------|--------|--------|--------|--------|--------|--------|--------|--------|
B|--------|--------|--------|--------|--------|--------|--------|--------|--------|
G|--------|--------|--------|--------|--------|--------|--------|--------|--------|
D|--------|--------|--------|--------|--------|--------|--------|--------|--------|
A|--------|--------|--------|--------|--------|--------|--------|--------|--------|
D|--------|--------|--------|--------|--------|--------|--------|--------|--------|


E|---------------------|----------------------------------|----------------------------------|
B|---------------------|----------------------------------|----------------------------------|
G|---------------------|----------------------------------|----------------------------------|
D|----------0--5--0----|-5----5----5--5--5--7---7---7--7--|-9----9----9--9--9---9--9---9--9--|
A|----------0--5--0----|-5----5----5--5--5--7---7---7--7--|-9----9----9--9--9---9--9---9--9--|
D|----------0--5--0----|-5----5----5--5--5--7---7---7--7--|-9----9----9--9--9---9--9---9--9--|


E|----------------------------------|-------------------------------------|----------------------------------|
B|----------------------------------|-------------------------------------|----------------------------------|
G|----------------------------------|-----------------7---9--9--9---11-11-|----------------------------------|
D|-5----5----5--5--5--7---7---7--7--|-0----0--5---5-----------------------|-5----5----5--5--5--7---7---7--7--|
A|-5----5----5--5--5--7---7---7--7--|-0----0--5---5---5---7--7--7---9--9--|-5----5----5--5--5--7---7---7--7--|
D|-5----5----5--5--5--7---7---7--7--|-0----0--5---5-----------------------|-5----5----5--5--5--7---7---7--7--|


E|----------------------------------|-----------------------------|--------|--------|
B|----------------------------------|-----------------------------|--------|--------|
G|----------------------------------|-----------------------------|--------|--------|
D|-9----9----9--9--9--4---4---4--4--|-5----5----5--5--5--7---7----|--------|--------|
A|-9----9----9--9--9--4---4---4--4--|-5----5----5--5--5--7---7----|--------|--------|
D|-9----9----9--9--9--4---4---4--4--|-5----5----5--5--5--7---7----|--------|--------|


E|----------------------------------|----------------------------------|----------------------------------|
B|----------------------------------|----------------------------------|----------------------------------|
G|----------------------------------|----------------------------------|----------------------------------|
D|-0----0----0--0--0--0---0---0--0--|-7----7----7--7--7--7---7---7--7--|-5----5----5--5--5--5---5---5--5--|
A|-0----0----0--0--0--0---0---0--0--|-7----7----7--7--7--7---7---7--7--|-5----5----5--5--5--5---5---5--5--|
D|-0----0----0--0--0--0---0---0--0--|-7----7----7--7--7--7---7---7--7--|-5----5----5--5--5--5---5---5--5--|


E|-----------------------------------------|--------|--------|--------|--------|--------|
B|-----------------------------------------|--------|--------|--------|--------|--------|
G|-----------------------------------------|--------|--------|--------|--------|--------|
D|-5--5--5---5---5--5--5--5--5---5---5--5--|--------|--------|--------|--------|--------|
A|-5--5--5---5---5--5--5--5--5---5---5--5--|--------|--------|--------|--------|--------|
D|-5--5--5---5---5--5--5--5--5---5---5--5--|--------|--------|--------|--------|--------|


E|--------|--------|--------|--------|--------|--------|--------|--------|--------|
B|--------|--------|--------|--------|--------|--------|--------|--------|--------|
G|--------|--------|--------|--------|--------|--------|--------|--------|--------|
D|--------|--------|--------|--------|--------|--------|--------|--------|--------|
A|--------|--------|--------|--------|--------|--------|--------|--------|--------|
D|--------|--------|--------|--------|--------|--------|--------|--------|--------|


E|--------|--------|----------------------------------|----------------------------------|
B|--------|--------|----------------------------------|----------------------------------|
G|--------|--------|----------------------------------|----------------------------------|
D|--------|--------|-5----5----5--5--5--7---7---7--7--|-9----9----9--9--9---9--9---9--9--|
A|--------|--------|-5----5----5--5--5--7---7---7--7--|-9----9----9--9--9---9--9---9--9--|
D|--------|--------|-5----5----5--5--5--7---7---7--7--|-9----9----9--9--9---9--9---9--9--|


E|----------------------------------|-------------------------------------|----------------------------------|
B|----------------------------------|-------------------------------------|----------------------------------|
G|----------------------------------|-----------------7---9--9--9---11-11-|----------------------------------|
D|-5----5----5--5--5--7---7---7--7--|-0----0--5---5-----------------------|-5----5----5--5--5--7---7---7--7--|
A|-5----5----5--5--5--7---7---7--7--|-0----0--5---5---5---7--7--7---9--9--|-5----5----5--5--5--7---7---7--7--|
D|-5----5----5--5--5--7---7---7--7--|-0----0--5---5-----------------------|-5----5----5--5--5--7---7---7--7--|


E|----------------------------------|-----------------------------|--------|--------|
B|----------------------------------|-----------------------------|--------|--------|
G|----------------------------------|-----------------------------|--------|--------|
D|-9----9----9--9--9--4---4---4--4--|-5----5----5--5--5--7---7----|--------|--------|
A|-9----9----9--9--9--4---4---4--4--|-5----5----5--5--5--7---7----|--------|--------|
D|-9----9----9--9--9--4---4---4--4--|-5----5----5--5--5--7---7----|--------|--------|


E|--------|--------|--------|--------|--------|--------|--------|--------|-------------------------------------|
B|--------|--------|--------|--------|--------|--------|--------|--------|-------------------------------------|
G|--------|--------|--------|--------|--------|--------|--------|--------|-------------------------------------|
D|--------|--------|--------|--------|--------|--------|--------|--------|-0---0---0----0--0--0--0---0---0--0--|
A|--------|--------|--------|--------|--------|--------|--------|--------|-0---0---0----0--0--0--0---0---0--0--|
D|--------|--------|--------|--------|--------|--------|--------|--------|-0---0---0----0--0--0--0---0---0--0--|


E|-------------------------------------|-------------------------------------|-----------------------------------------|
B|-------------------------------------|-------------------------------------|-----------------------------------------|
G|-------------------------------------|-------------------------------------|-----------------------------------------|
D|-7---7---7----7--7--7--7---7---7--7--|-5---5---5----5--5--5--5---5---5--5--|-5--5--5---5---5--5--5--5--5---5---5--5--|
A|-7---7---7----7--7--7--7---7---7--7--|-5---5---5----5--5--5--5---5---5--5--|-5--5--5---5---5--5--5--5--5---5---5--5--|
D|-7---7---7----7--7--7--7---7---7--7--|-5---5---5----5--5--5--5---5---5--5--|-5--5--5---5---5--5--5--5--5---5---5--5--|


E|-------------------------------------|-------------------------------------|-------------------------------------|
B|-------------------------------------|-------------------------------------|-------------------------------------|
G|-------------------------------------|-------------------------------------|-------------------------------------|
D|-0---0---0----0--0--0--0---0---0--0--|-7---7---7----7--7--7--7---7---7--7--|-5---5---5----5--5--5--5---5---5--5--|
A|-0---0---0----0--0--0--0---0---0--0--|-7---7---7----7--7--7--7---7---7--7--|-5---5---5----5--5--5--5---5---5--5--|
D|-0---0---0----0--0--0--0---0---0--0--|-7---7---7----7--7--7--7---7---7--7--|-5---5---5----5--5--5--5---5---5--5--|


E|-----------------------------------------|----------------------------------|------------------------|
B|-----------------------------------------|----------------------------------|------------------------|
G|-----------------------------------------|-11---11---11--11--11-11--9---7---|-6----6----11---11---11-|
D|-5--5--5---5---5--5--5--5--5---5---5--5--|----------------------------------|------------------------|
A|-5--5--5---5---5--5--5--5--5---5---5--5--|-9----9----9---9---9--9---7---5---|-4----4----9----9----9--|
D|-5--5--5---5---5--5--5--5--5---5---5--5--|----------------------------------|------------------------|


E|---------------------------------|----------------------------------|------------------------|
B|---------------------------------|----------------------------------|------------------------|
G|----11--11-11--9---7---6----6----|-11---11---11--11--11-11--9---7---|-6----6----11---11---11-|
D|---------------------------------|----------------------------------|------------------------|
A|----9---9--9---7---5---4----4----|-9----9----9---9---9--9---7---5---|-4----4----9----9----9--|
D|---------------------------------|----------------------------------|------------------------|


E|---------------------------------|--------|----------------|
B|---------------------------------|--------|----------------|
G|----11--11-11--9---7---6----6----|--------|----------------|
D|---------------------------------|--------|--------0-------|
A|----9---9--9---7---5---4----4----|-5------|-5------0-------|
D|---------------------------------|-0------|-0------0-------|





Track 3: Overdriven Gtr 1

E|--------|--------|--------|--------|--------|--------|--------|--------|--------|
B|--------|--------|--------|--------|--------|--------|--------|--------|--------|
G|--------|--------|--------|--------|--------|--------|--------|--------|--------|
D|--------|--------|--------|--------|--------|--------|--------|--------|--------|
A|--------|--------|--------|--------|--------|--------|--------|--------|--------|
D|--------|--------|--------|--------|--------|--------|--------|--------|--------|


E|--------|--------|--------|--------|--------|--------|--------|--------|--------|
B|--------|--------|--------|--------|--------|--------|--------|--------|--------|
G|--------|--------|--------|--------|--------|--------|--------|--------|--------|
D|--------|--------|--------|--------|--------|--------|--------|--------|--------|
A|--------|--------|--------|--------|--------|--------|--------|--------|--------|
D|--------|--------|--------|--------|--------|--------|--------|--------|--------|


E|--------|--------|--------|--------|--------|--------|--------|--------|--------|
B|--------|--------|--------|--------|--------|--------|--------|--------|--------|
G|--------|--------|--------|--------|--------|--------|--------|--------|--------|
D|--------|--------|--------|--------|--------|--------|--------|--------|--------|
A|--------|--------|--------|--------|--------|--------|--------|--------|--------|
D|--------|--------|--------|--------|--------|--------|--------|--------|--------|


E|--------|--------|--------|--------|--------|--------|--------|--------|--------|
B|--------|--------|--------|--------|--------|--------|--------|--------|--------|
G|--------|--------|--------|--------|--------|--------|--------|--------|--------|
D|--------|--------|--------|--------|--------|--------|--------|--------|--------|
A|--------|--------|--------|--------|--------|--------|--------|--------|--------|
D|--------|--------|--------|--------|--------|--------|--------|--------|--------|


E|--------|--------|--------|--------|--------|------------------------------------|
B|--------|--------|--------|--------|--------|------------------------------------|
G|--------|--------|--------|--------|--------|-11---11---11-11-11--11-11--9---7---|
D|--------|--------|--------|--------|--------|------------------------------------|
A|--------|--------|--------|--------|--------|-9----9----9--9--9---9--9---7---5---|
D|--------|--------|--------|--------|--------|------------------------------------|


E|------------------------------------|------------------------------------|------------------------------------|
B|------------------------------------|------------------------------------|------------------------------------|
G|-6----6----6--6--6---6--6---7---9---|-11---11---11-11-11--11-11--9---7---|-6----6----6--6--6---6--6---7---9---|
D|------------------------------------|------------------------------------|------------------------------------|
A|-4----4----4--4--4---4--4---5---7---|-9----9----9--9--9---9--9---7---5---|-4----4----4--4--4---4--4---5---7---|
D|------------------------------------|------------------------------------|------------------------------------|


E|------------------------------------|------------------------------------|------------------------------------|
B|------------------------------------|------------------------------------|------------------------------------|
G|-11---11---11-11-11--11-11--9---7---|-6----6----6--6--6---6--6---7---9---|-11---11---11-11-11--11-11--9---7---|
D|------------------------------------|------------------------------------|------------------------------------|
A|-9----9----9--9--9---9--9---7---5---|-4----4----4--4--4---4--4---5---7---|-9----9----9--9--9---9--9---7---5---|
D|------------------------------------|------------------------------------|------------------------------------|


E|------------------------------------|------------------------------------|------------------------------------|
B|------------------------------------|------------------------------------|------------------------------------|
G|-6----6----6--6--6---6--6---7---9---|-11---11---11-11-11--11-11--9---7---|-6----6----6--6--6---6--6---7---9---|
D|------------------------------------|------------------------------------|------------------------------------|
A|-4----4----4--4--4---4--4---5---7---|-9----9----9--9--9---9--9---7---5---|-4----4----4--4--4---4--4---5---7---|
D|------------------------------------|------------------------------------|------------------------------------|


E|------------------------------------|--------------------------------|--------|--------|
B|------------------------------------|--------------------------------|--------|--------|
G|-11---11---11-11-11--11-11--9---7---|-6----6----6--6--6--------------|--------|--------|
D|------------------------------------|---------------------0--5--0----|--------|--------|
A|-9----9----9--9--9---9--9---7---5---|-4----4----4--4--4---0--5--0----|--------|--------|
D|------------------------------------|---------------------0--5--0----|--------|--------|


E|--------|--------|--------|--------|--------|--------|--------|--------|--------|
B|--------|--------|--------|--------|--------|--------|--------|--------|--------|
G|--------|--------|--------|--------|--------|--------|--------|--------|--------|
D|--------|--------|--------|--------|--------|--------|--------|--------|--------|
A|--------|--------|--------|--------|--------|--------|--------|--------|--------|
D|--------|--------|--------|--------|--------|--------|--------|--------|--------|


E|--------|--------|--------|--------|--------|--------|--------|--------|--------|
B|--------|--------|--------|--------|--------|--------|--------|--------|--------|
G|--------|--------|--------|--------|--------|--------|--------|--------|--------|
D|--------|--------|--------|--------|--------|--------|--------|--------|--------|
A|--------|--------|--------|--------|--------|--------|--------|--------|--------|
D|--------|--------|--------|--------|--------|--------|--------|--------|--------|


E|--------|--------|--------|--------|--------|----------------------------------|
B|--------|--------|--------|--------|--------|----------------------------------|
G|--------|--------|--------|--------|--------|----------------------------------|
D|--------|--------|--------|--------|--------|-0----0----0---0---0--0---0---0---|
A|--------|--------|--------|--------|--------|-0----0----0---0---0--0---0---0---|
D|--------|--------|--------|--------|--------|-0----0----0---0---0--0---0---0---|


E|------------------------|---------------------------------|----------------------------------|
B|------------------------|---------------------------------|----------------------------------|
G|------------------------|---------------------------------|----------------------------------|
D|-4----4----0----0----0--|----0---0--0---0---0---4----4----|-0----0----0---0---0--0---0---0---|
A|-4----4----0----0----0--|----0---0--0---0---0---4----4----|-0----0----0---0---0--0---0---0---|
D|-4----4----0----0----0--|----0---0--0---0---0---4----4----|-0----0----0---0---0--0---0---0---|


E|------------------------|---------------------------------|--------|----------------|
B|------------------------|---------------------------------|--------|----------------|
G|------------------------|---------------------------------|--------|----------------|
D|-4----4----0----0----0--|----0---0--0---0---0---4----4----|-0------|-0------0-------|
A|-4----4----0----0----0--|----0---0--0---0---0---4----4----|-0------|-0------0-------|
D|-4----4----0----0----0--|----0---0--0---0---0---4----4----|-0------|-0------0-------|





Track 4: Dist Gtr 2

E|--------|--------|--------|--------|--------|--------|--------|--------|--------|
B|--------|--------|--------|--------|--------|--------|--------|--------|--------|
G|--------|--------|--------|--------|--------|--------|--------|--------|--------|
D|--------|--------|--------|--------|--------|--------|--------|--------|--------|
A|--------|--------|--------|--------|--------|--------|--------|--------|--------|
D|--------|--------|--------|--------|--------|--------|--------|--------|--------|


E|--------|--------|--------|--------|--------|--------|--------|--------|--------|
B|--------|--------|--------|--------|--------|--------|--------|--------|--------|
G|--------|--------|--------|--------|--------|--------|--------|--------|--------|
D|--------|--------|--------|--------|--------|--------|--------|--------|--------|
A|--------|--------|--------|--------|--------|--------|--------|--------|--------|
D|--------|--------|--------|--------|--------|--------|--------|--------|--------|


E|--------|--------|--------|--------|--------|--------|--------|--------|--------|
B|--------|--------|--------|--------|--------|--------|--------|--------|--------|
G|--------|--------|--------|--------|--------|--------|--------|--------|--------|
D|--------|--------|--------|--------|--------|--------|--------|--------|--------|
A|--------|--------|--------|--------|--------|--------|--------|--------|--------|
D|--------|--------|--------|--------|--------|--------|--------|--------|--------|


E|--------|--------|--------|--------|--------|--------|--------|--------|--------|
B|--------|--------|--------|--------|--------|--------|--------|--------|--------|
G|--------|--------|--------|--------|--------|--------|--------|--------|--------|
D|--------|--------|--------|--------|--------|--------|--------|--------|--------|
A|--------|--------|--------|--------|--------|--------|--------|--------|--------|
D|--------|--------|--------|--------|--------|--------|--------|--------|--------|


E|--------|--------|--------|--------|--------|--------|--------|--------|--------|
B|--------|--------|--------|--------|--------|--------|--------|--------|--------|
G|--------|--------|--------|--------|--------|--------|--------|--------|--------|
D|--------|--------|--------|--------|--------|--------|--------|--------|--------|
A|--------|--------|--------|--------|--------|--------|--------|--------|--------|
D|--------|--------|--------|--------|--------|--------|--------|--------|--------|


E|--------|--------|--------|--------|--------|---------------------|-------------|
B|--------|--------|--------|--------|--------|------------141415---|-15----------|
G|--------|--------|--------|--------|--------|---------------------|-------------|
D|--------|--------|--------|--------|--------|---------------------|-------------|
A|--------|--------|--------|--------|--------|---------------------|-------------|
D|--------|--------|--------|--------|--------|---------------------|-------------|


E|--------|--------|--------|--------|--------|--------|--------|--------|--------|
B|--------|--------|--------|--------|--------|--------|--------|--------|--------|
G|--------|--------|--------|--------|--------|--------|--------|--------|--------|
D|--------|--------|--------|--------|--------|--------|--------|--------|--------|
A|--------|--------|--------|--------|--------|--------|--------|--------|--------|
D|--------|--------|--------|--------|--------|--------|--------|--------|--------|


E|--------|--------|--------|--------|--------|--------|--------|--------|--------|
B|--------|--------|--------|--------|--------|--------|--------|--------|--------|
G|--------|--------|--------|--------|--------|--------|--------|--------|--------|
D|--------|--------|--------|--------|--------|--------|--------|--------|--------|
A|--------|--------|--------|--------|--------|--------|--------|--------|--------|
D|--------|--------|--------|--------|--------|--------|--------|--------|--------|


E|--------|--------|--------|--------|--------|--------|--------|--------|--------|
B|--------|--------|--------|--------|--------|--------|--------|--------|--------|
G|--------|--------|--------|--------|--------|--------|--------|--------|--------|
D|--------|--------|--------|--------|--------|--------|--------|--------|--------|
A|--------|--------|--------|--------|--------|--------|--------|--------|--------|
D|--------|--------|--------|--------|--------|--------|--------|--------|--------|


E|--------|--------|--------|--------|--------|--------|--------|
B|--------|--------|--------|--------|--------|--------|--------|
G|--------|--------|--------|--------|--------|--------|--------|
D|--------|--------|--------|--------|--------|--------|--------|
A|--------|--------|--------|--------|--------|--------|--------|
D|--------|--------|--------|--------|--------|--------|--------|





Track 5: Distortion Guitar

G|--------|-------------------------------|-----------------------------------|-------------------------------|
D|--------|-------------------------------|-----------------------------------|-------------------------------|
A|--------|-------------------------------|-----------------------------------|-------------------------------|
D|--------|------0----5----0--0--0--0--0--|-4---4---4---4------4--4---4---4---|------0----5----0--0--0--0--0--|


G|-----------------------------------|-------------------------------|-----------------------------------|
D|-----------------------------------|-------------------------------|-----------------------------------|
A|-----------------------------------|-------------------------------|-----------------------------------|
D|-4---4---4---4------4--4---4---4---|------0----5----0--0--0--0--0--|-4---4---4---4------4--4---4---4---|


G|-------------------------------|--------|--------|--------|--------|--------|--------|
D|-------------------------------|--------|--------|--------|--------|--------|--------|
A|-------------------------------|--------|--------|--------|--------|--------|--------|
D|------0----5----0--0--0--0--0--|-4------|-0------|-4------|-0------|-4------|-0------|


G|--------|--------|------------------------------------|------------------------------------|
D|--------|--------|------------------------------------|------------------------------------|
A|--------|--------|------------------------------------|------------------------------------|
D|-4------|-0------|-4----4----4--4--4---4--4---4---4---|-0----0----0--0--0---0--0---0---0---|


G|------------------------------------|------------------------------------|------------------------------------|
D|------------------------------------|------------------------------------|------------------------------------|
A|------------------------------------|------------------------------------|------------------------------------|
D|-4----4----4--4--4---4--4---4---4---|-0----0----0--0--0---0--0---0---0---|-4----4----4--4--4---4--4---4---4---|


G|------------------------------------|------------------------------------|-------------------------------|
D|------------------------------------|------------------------------------|-------------------------------|
A|------------------------------------|------------------------------------|------0-------0---0--0--0------|
D|-0----0----0--0--0---0--0---0---0---|-4----4----4--4--4---4--4---4---4---|-0---------0-------------------|


G|----------------------------------|----------------------------------|----------------------------------|
D|----------------------------------|----------------------------------|----------------------------------|
A|----------------------------------|----------------------------------|----------------------------------|
D|-5----5----5--5--5--7---7---7--7--|-9----9----9--9--9---9--9---9--9--|-5----5----5--5--5--7---7---7--7--|


G|-----------------------------------------|----------------------------------|----------------------------------|
D|-----------------------------------------|----------------------------------|----------------------------------|
A|-----------------------------------------|----------------------------------|----------------------------------|
D|-0----0--5---5---0--0--0--0--0--0--0--0--|-5----5----5--5--5--7---7---7--7--|-9----9----9--9--9--4---4---4--4--|


G|-----------------------------|--------|--------|----------------------------------|
D|-----------------------------|--------|--------|----------------------------------|
A|-----------------------------|--------|--------|----------------------------------|
D|-5----5----5--5--5--7---7----|--------|--------|-0----0----0--0--0--0---0---0--0--|


G|----------------------------------|----------------------------------|-----------------------------------------|
D|----------------------------------|----------------------------------|-----------------------------------------|
A|----------------------------------|----------------------------------|-----------------------------------------|
D|-7----7----7--7--7--7---7---7--7--|-5----5----5--5--5--5---5---5--5--|-5--5--5---5---5--5--5--5--5---5---5--5--|


G|----------------------------------|----------------------------------|----------------------------------|
D|----------------------------------|----------------------------------|----------------------------------|
A|----------------------------------|----------------------------------|----------------------------------|
D|-0----0----0--0--0--0---0---0--0--|-7----7----7--7--7--7---7---7--7--|-5----5----5--5--5--5---5---5--5--|


G|-----------------------------------------|------------------------------------|------------------------------------|
D|-----------------------------------------|------------------------------------|------------------------------------|
A|-----------------------------------------|------------------------------------|------------------------------------|
D|-5--5--5---5---5--5--5--5--5---5---5--5--|-0----0----0--0--0---0--0---0---0---|-4----4----4--4--4---4--4---4---4---|


G|------------------------------------|------------------------------------|------------------------------------|
D|------------------------------------|------------------------------------|------------------------------------|
A|------------------------------------|------------------------------------|------------------------------------|
D|-0----0----0--0--0---0--0---0---0---|-4----4----4--4--4---4--4---4---4---|-0----0----0--0--0---0--0---0---0---|


G|------------------------------------|------------------------------------|------------------------------------|
D|------------------------------------|------------------------------------|------------------------------------|
A|------------------------------------|------------------------------------|------------------------------------|
D|-4----4----4--4--4---4--4---4---4---|-0----0----0--0--0---0--0---0---0---|-4----4----4--4--4---4--4---4---4---|


G|------------------------------------|------------------------------------|------------------------------------|
D|------------------------------------|------------------------------------|------------------------------------|
A|------------------------------------|------------------------------------|------------------------------------|
D|-0----0----0--0--0---0--0---0---0---|-4----4----4--4--4---4--4---4---4---|-0----0----0--0--0---0--0---0---0---|


G|-----------------------------|----------------------------------|----------------------------------|
D|-----------------------------|----------------------------------|----------------------------------|
A|-----------------------------|----------------------------------|----------------------------------|
D|-4----4----4--4--4-----------|-5----5----5--5--5--7---7---7--7--|-9----9----9--9--9---9--9---9--9--|


G|----------------------------------|-----------------------------------------|----------------------------------|
D|----------------------------------|-----------------------------------------|----------------------------------|
A|----------------------------------|-----------------------------------------|----------------------------------|
D|-5----5----5--5--5--7---7---7--7--|-0----0--5---5---0--0--0--0--0--0--0--0--|-5----5----5--5--5--7---7---7--7--|


G|----------------------------------|-----------------------------|--------|--------|
D|----------------------------------|-----------------------------|--------|--------|
A|----------------------------------|-----------------------------|--------|--------|
D|-9----9----9--9--9--4---4---4--4--|-5----5----5--5--5--7---7----|--------|--------|


G|----------------------------------|----------------------------------|----------------------------------|
D|----------------------------------|----------------------------------|----------------------------------|
A|----------------------------------|----------------------------------|----------------------------------|
D|-0----0----0--0--0--0---0---0--0--|-7----7----7--7--7--7---7---7--7--|-5----5----5--5--5--5---5---5--5--|


G|-----------------------------------------|----------------------------------|----------------------------------|
D|-----------------------------------------|----------------------------------|----------------------------------|
A|-----------------------------------------|----------------------------------|----------------------------------|
D|-5--5--5---5---5--5--5--5--5---5---5--5--|-0----0----0--0--0--0---0---0--0--|-7----7----7--7--7--7---7---7--7--|


G|----------------------------------|-----------------------------------------|----------------------------------|
D|----------------------------------|-----------------------------------------|----------------------------------|
A|----------------------------------|-----------------------------------------|----------------------------------|
D|-5----5----5--5--5--5---5---5--5--|-5--5--5---5---5--5--5--5--5---5---5--5--|-0----0----0--0--0--0---0---0--0--|


G|----------------------------------|----------------------------------|-----------------------------------------|
D|----------------------------------|----------------------------------|-----------------------------------------|
A|----------------------------------|----------------------------------|-----------------------------------------|
D|-7----7----7--7--7--7---7---7--7--|-5----5----5--5--5--5---5---5--5--|-5--5--5---5---5--5--5--5--5---5---5--5--|


G|----------------------------------|----------------------------------|----------------------------------|
D|----------------------------------|----------------------------------|----------------------------------|
A|----------------------------------|----------------------------------|----------------------------------|
D|-0----0----0--0--0--0---0---0--0--|-7----7----7--7--7--7---7---7--7--|-5----5----5--5--5--5---5---5--5--|


G|-----------------------------------------|------------------------------------|------------------------|
D|-----------------------------------------|------------------------------------|------------------------|
A|-----------------------------------------|------------------------------------|------------------------|
D|-5--5--5---5---5--5--5--5--5---5---5--5--|-0----0----0--0--0---0--0---0---0---|-4----4----0----0----0--|


G|---------------------------------|------------------------------------|------------------------|
D|---------------------------------|------------------------------------|------------------------|
A|---------------------------------|------------------------------------|------------------------|
D|-0--0---0--0---0---0---4----4----|-0----0----0--0--0---0--0---0---0---|-4----4----0----0----0--|


G|---------------------------------|--------|----------------|
D|---------------------------------|--------|----------------|
A|---------------------------------|--------|----------------|
D|-0--0---0--0---0---0---4----4----|-0------|-0------0-------|