Menu:

 

Search:

 

barry belmont - illuminati:

 



Title: Illuminati
Artist: 
Album: 
Author: Barry Belmont


Track 1: Flute

E|-------12----|-12------------------|-12----10----|-------------|------------------------|
B|-10----------|------12---13---10---|-------------|-13-----12---|-12--10-------10---13---|
G|-------------|---------------------|-------------|-------------|---------12-------------|
D|-------------|---------------------|-------------|-------------|------------------------|
A|-------------|---------------------|-------------|-------------|------------------------|
E|-------------|---------------------|-------------|-------------|------------------------|


E|------------------------|---------------------------|-------------|-----------------|
B|-13--12-------10--------|-----------------------10--|-12----------|------------12---|
G|---------12--------10---|-9----9----9---11--12------|-------------|-----------------|
D|------------------------|---------------------------|-------------|-----------------|
A|------------------------|---------------------------|-------------|-----------------|
E|------------------------|---------------------------|-------------|-----------------|


E|-12----------|-----------12----|-10----------|---------------------|------------------------|
B|--------12---|-13---10---------|-------13----|-13---12---10--------|-10---13---13--12-------|
G|-------------|-----------------|-------------|----------------12---|-------------------12---|
D|-------------|-----------------|-------------|---------------------|------------------------|
A|-------------|-----------------|-------------|---------------------|------------------------|
E|-------------|-----------------|-------------|---------------------|------------------------|


E|---------------------|-----------------------|-------------|--------|-----------------|
B|-10------------------|-------------10--12----|-10----------|--------|-------10---13---|
G|------10---9----9----|-9---11--12------------|-------12----|--------|-12--------------|
D|---------------------|-----------------------|-------------|--------|-----------------|
A|---------------------|-----------------------|-------------|--------|-----------------|
E|---------------------|-----------------------|-------------|--------|-----------------|


E|------------------------|---------------------|------10---10--------|---------------------|
B|-13---12---10--10--10---|-10--------10---10---|-12-------------13---|-12---10---10---13---|
G|------------------------|------7--------------|---------------------|---------------------|
D|------------------------|---------------------|---------------------|---------------------|
A|------------------------|---------------------|---------------------|---------------------|
E|------------------------|---------------------|---------------------|---------------------|


E|----------------10---|-10-----------------------|------------------------|---------------------|
B|-10---10---12--------|------13---12---10--------|-----10--12--------12---|-12---12---12---12---|
G|---------------------|--------------------12-11-|-12---------------------|---------------------|
D|---------------------|--------------------------|------------------------|---------------------|
A|---------------------|--------------------------|------------------------|---------------------|
E|---------------------|--------------------------|------------------------|---------------------|


E|-----------------|------12---12---12---|-12---12-------------|-12--------------|
B|-------10--12----|---------------------|-----------13----15--|------------15---|
G|-12--------------|---------------------|---------------------|-------14--------|
D|-----------------|-14------------------|---------------------|-----------------|
A|-----------------|---------------------|---------------------|-----------------|
E|-----------------|---------------------|---------------------|-----------------|


E|------------------------|---------------------|-----------------|---------------------------|
B|-13---12------12---12---|-12---10-------------|-----------------|---------12---12--10--10---|
G|----------14------------|-----------12--------|-11----------11--|-12--14--------------------|
D|------------------------|----------------14---|-------14--------|---------------------------|
A|------------------------|---------------------|-----------------|---------------------------|
E|------------------------|---------------------|-----------------|---------------------------|


E|------------------------|-----------------|------12--------10---|-12--------------|
B|---------12---12--------|------10---12----|-----------12--------|------13---12----|
G|-12----------------11---|-12--------------|---------------------|-----------------|
D|-----14-----------------|-----------------|---------------------|-----------------|
A|------------------------|-----------------|---------------------|-----------------|
E|------------------------|-----------------|---------------------|-----------------|


E|------------------------|-----------------|---------------------------|-----------------|
B|-12---10---8------------|-----------------|-----10--12---12--10--10---|-10--------------|
G|----------------11--9---|-11----9-----11--|-12------------------------|------12----11---|
D|------------------------|-----------------|---------------------------|-----------------|
A|------------------------|-----------------|---------------------------|-----------------|
E|------------------------|-----------------|---------------------------|-----------------|


E|---------12----10---|-10-----------------|--------------------|--------|--------|
B|--------------------|-----13--13----12---|-12--10--10----9----|-10-----|-10-----|
G|-11--9--------------|--------------------|--------------------|--------|--------|
D|--------------------|--------------------|--------------------|--------|--------|
A|--------------------|--------------------|--------------------|--------|--------|
E|--------------------|--------------------|--------------------|--------|--------|


E|--------|-10-----|-10--------------|--------|--------|--------|--------|--------|
B|-10-----|--------|-----------------|--------|--------|--------|--------|--------|
G|--------|-7------|-7---------------|--------|--------|--------|--------|--------|
D|-7------|--------|-----------------|--------|--------|--------|--------|--------|
A|--------|--------|-----------------|--------|--------|--------|--------|--------|
E|--------|--------|-----------------|--------|--------|--------|--------|--------|


E|--------|--------|--------|--------|--------|--------|--------|--------|--------|
B|--------|--------|--------|--------|--------|--------|--------|--------|--------|
G|--------|--------|--------|--------|--------|--------|--------|--------|--------|
D|--------|--------|--------|--------|--------|--------|--------|--------|--------|
A|--------|--------|--------|--------|--------|--------|--------|--------|--------|
E|--------|--------|--------|--------|--------|--------|--------|--------|--------|


E|--------|--------|--------|--------|--------|--------|--------|--------|--------|
B|--------|--------|--------|--------|--------|--------|--------|--------|--------|
G|--------|--------|--------|--------|--------|--------|--------|--------|--------|
D|--------|--------|--------|--------|--------|--------|--------|--------|--------|
A|--------|--------|--------|--------|--------|--------|--------|--------|--------|
E|--------|--------|--------|--------|--------|--------|--------|--------|--------|


E|--------|--------|--------|--------|--------|--------|--------|--------|--------|
B|--------|--------|--------|--------|--------|--------|--------|--------|--------|
G|--------|--------|--------|--------|--------|--------|--------|--------|--------|
D|--------|--------|--------|--------|--------|--------|--------|--------|--------|
A|--------|--------|--------|--------|--------|--------|--------|--------|--------|
E|--------|--------|--------|--------|--------|--------|--------|--------|--------|


E|--------|--------|--------|--------|--------|--------|--------|--------|--------|
B|--------|--------|--------|--------|--------|--------|--------|--------|--------|
G|--------|--------|--------|--------|--------|--------|--------|--------|--------|
D|--------|--------|--------|--------|--------|--------|--------|--------|--------|
A|--------|--------|--------|--------|--------|--------|--------|--------|--------|
E|--------|--------|--------|--------|--------|--------|--------|--------|--------|


E|--------|--------|--------|--------|--------|--------|--------|--------|--------|
B|--------|--------|--------|--------|--------|--------|--------|--------|--------|
G|--------|--------|--------|--------|--------|--------|--------|--------|--------|
D|--------|--------|--------|--------|--------|--------|--------|--------|--------|
A|--------|--------|--------|--------|--------|--------|--------|--------|--------|
E|--------|--------|--------|--------|--------|--------|--------|--------|--------|


E|--------|--------|--------|--------|--------|--------|--------|--------|--------|
B|--------|--------|--------|--------|--------|--------|--------|--------|--------|
G|--------|--------|--------|--------|--------|--------|--------|--------|--------|
D|--------|--------|--------|--------|--------|--------|--------|--------|--------|
A|--------|--------|--------|--------|--------|--------|--------|--------|--------|
E|--------|--------|--------|--------|--------|--------|--------|--------|--------|


E|--------|--------|--------|--------|--------|--------|--------|--------|--------|
B|--------|--------|--------|--------|--------|--------|--------|--------|--------|
G|--------|--------|--------|--------|--------|--------|--------|--------|--------|
D|--------|--------|--------|--------|--------|--------|--------|--------|--------|
A|--------|--------|--------|--------|--------|--------|--------|--------|--------|
E|--------|--------|--------|--------|--------|--------|--------|--------|--------|


E|--------|--------|--------|--------|--------|--------|--------|--------|--------|
B|--------|--------|--------|--------|--------|--------|--------|--------|--------|
G|--------|--------|--------|--------|--------|--------|--------|--------|--------|
D|--------|--------|--------|--------|--------|--------|--------|--------|--------|
A|--------|--------|--------|--------|--------|--------|--------|--------|--------|
E|--------|--------|--------|--------|--------|--------|--------|--------|--------|


E|--------|--------|--------|--------|--------|--------|--------|--------|--------|
B|--------|--------|--------|--------|--------|--------|--------|--------|--------|
G|--------|--------|--------|--------|--------|--------|--------|--------|--------|
D|--------|--------|--------|--------|--------|--------|--------|--------|--------|
A|--------|--------|--------|--------|--------|--------|--------|--------|--------|
E|--------|--------|--------|--------|--------|--------|--------|--------|--------|


E|--------|--------|--------|--------|--------|--------|--------|--------|--------|
B|--------|--------|--------|--------|--------|--------|--------|--------|--------|
G|--------|--------|--------|--------|--------|--------|--------|--------|--------|
D|--------|--------|--------|--------|--------|--------|--------|--------|--------|
A|--------|--------|--------|--------|--------|--------|--------|--------|--------|
E|--------|--------|--------|--------|--------|--------|--------|--------|--------|


E|--------|--------|--------|--------|--------|--------|--------|--------|--------|
B|--------|--------|--------|--------|--------|--------|--------|--------|--------|
G|--------|--------|--------|--------|--------|--------|--------|--------|--------|
D|--------|--------|--------|--------|--------|--------|--------|--------|--------|
A|--------|--------|--------|--------|--------|--------|--------|--------|--------|
E|--------|--------|--------|--------|--------|--------|--------|--------|--------|


E|--------|--------|--------|--------|--------|--------|--------|--------|--------|
B|--------|--------|--------|--------|--------|--------|--------|--------|--------|
G|--------|--------|--------|--------|--------|--------|--------|--------|--------|
D|--------|--------|--------|--------|--------|--------|--------|--------|--------|
A|--------|--------|--------|--------|--------|--------|--------|--------|--------|
E|--------|--------|--------|--------|--------|--------|--------|--------|--------|


E|--------|--------|--------|--------|--------|-------------|-------------|-------------|
B|--------|--------|--------|--------|--------|-------------|-------------|-------------|
G|--------|--------|--------|--------|--------|-------------|-------------|-------------|
D|--------|--------|--------|--------|--------|-------------|-------------|-------------|
A|--------|--------|--------|--------|--------|-------------|-------------|-------------|
E|--------|--------|--------|--------|--------|-------------|-------------|-------------|


E|--------5----|--------5--3--5---|-5---3-------3---3---5---6---8---|-8---6---5---3---5---------|
B|-------------|------------------|---------6-----------------------|----------------------5----|
G|-------------|------------------|---------------------------------|---------------------------|
D|-------------|------------------|---------------------------------|---------------------------|
A|-------------|------------------|---------------------------------|---------------------------|
E|-------------|------------------|---------------------------------|---------------------------|


E|-5----5----------|
B|------------3----|
G|-----------------|
D|-----------------|
A|-----------------|
E|-----------------|





Track 2: Clarinet

E|--------|-------5-----|-5-------------------|-5-----------|---------------------|
B|--------|-5-----------|------5----6---------|-------8-----|-8----5----5---------|
G|--------|-------------|----------------7----|-------------|-----------------7---|
D|--------|-------------|---------------------|-------------|---------------------|
A|--------|-------------|---------------------|-------------|---------------------|
E|--------|-------------|---------------------|-------------|---------------------|


E|-----------------|---------------------|-----------------|-----------------|-----------------|
B|-----------------|----------------5----|-5---------5-----|-5----8----6-----|-5----------5----|
G|-5---------------|---------------------|------7----------|-----------------|-----------------|
D|------9----7-----|-7-------------------|-----------------|-----------------|-----------------|
A|-----------------|------7----7---------|-----------------|-----------------|-----------------|
E|-----------------|---------------------|-----------------|-----------------|-----------------|


E|-5-----------|-----------5-----|-------------|---------------------|-------------|
B|--------5----|-6---------------|-8------5----|-5-------------------|-------------|
G|-------------|------7----------|-------------|-------7---5----4----|-------------|
D|-------------|-----------------|-------------|---------------------|-7-----------|
A|-------------|-----------------|-------------|---------------------|--------7----|
E|-------------|-----------------|-------------|---------------------|-------------|


E|---------------------|-----------------|---------------------|---------------------|
B|------5----5---------|-5---------------|------6----6----5----|-5----5--------------|
G|----------------7----|------------5----|-7-------------------|-----------7----5----|
D|---------------------|-----------------|---------------------|---------------------|
A|-7-------------------|-----------------|---------------------|---------------------|
E|---------------------|-----------------|---------------------|---------------------|


E|-----------------|---------------------|---------------------|---------------------|
B|-8-----6---5-----|---------------------|---------------------|-5-------------------|
G|-----------------|------7----5---------|-----------5-----7---|---------------------|
D|-----------------|-7--------------7----|------9--------------|------7---------9----|
A|-----------------|---------------------|---------------------|---------------------|
E|-----------------|---------------------|---------------------|---------------------|


E|-----------------|---------------------|------------------------|---------------------|
B|------5----8-----|-----------5---------|------------------------|----------------5----|
G|-7---------------|-5-----7-------------|--------------7----4----|-4-------------------|
D|-----------------|----------------7----|------5---5-------------|-------7---6---------|
A|-----------------|---------------------|------------------------|---------------------|
E|-----------------|---------------------|------------------------|---------------------|


E|---------------------------|---------5----5----4----|-5-------------------|---------------------|
B|-5---5---5----7---8---8----|-8---5------------------|------5----5----5----|-5-------------------|
G|---------------------------|------------------------|---------------------|------5----5---------|
D|---------------------------|------------------------|---------------------|----------------7----|
A|---------------------------|------------------------|---------------------|---------------------|
E|---------------------------|------------------------|---------------------|---------------------|


E|---------------------|---------------------|-----------------|-------------|-------------|
B|------5----5----5----|------3----5---------|-----------------|-5-----------|-------------|
G|---------------------|-4--------------5----|-4-----5---------|-------------|-4-----7-----|
D|-7-------------------|---------------------|------------7----|--------7----|-------------|
A|---------------------|---------------------|-----------------|-------------|-------------|
E|---------------------|---------------------|-----------------|-------------|-------------|


E|---------------------------|-----------------|---------------------|------------------------|
B|---------------------------|-----------------|------5----5----8----|-8----7----5---5---5----|
G|-4----5----7---5---4-------|------5----4-----|---------------------|------------------------|
D|-----------------------7---|-5---------------|---------------------|------------------------|
A|---------------------------|-----------------|---------------------|------------------------|
E|---------------------------|-----------------|---------------------|------------------------|


E|---------------------|-----------------|---------------------|-----------------|
B|-5----4----5---------|------------3----|-5-------------------|-----------3-----|
G|----------------5----|-4-----5---------|------4--------------|-4----5----------|
D|---------------------|-----------------|----------------4----|-----------------|
A|---------------------|-----------------|---------------------|-----------------|
E|---------------------|-----------------|---------------------|-----------------|


E|-----------3-----|-----------3---------------|----------------1----|-1----------------------|
B|-5---------------|-5----6--------6---5---3---|-2----1----2---------|------5----3---3---3----|
G|------5----------|---------------------------|---------------------|------------------------|
D|-----------------|---------------------------|---------------------|------------------------|
A|-----------------|---------------------------|---------------------|------------------------|
E|-----------------|---------------------------|---------------------|------------------------|


E|--------|--------|--------|--------|--------|--------|--------|--------|--------|
B|--------|--------|--------|--------|--------|--------|--------|--------|--------|
G|--------|--------|--------|--------|--------|--------|--------|--------|--------|
D|--------|--------|--------|--------|--------|--------|--------|--------|--------|
A|--------|--------|--------|--------|--------|--------|--------|--------|--------|
E|--------|--------|--------|--------|--------|--------|--------|--------|--------|


E|--------|--------|--------|--------|--------|--------|--------|--------|--------|
B|--------|--------|--------|--------|--------|--------|--------|--------|--------|
G|--------|--------|--------|--------|--------|--------|--------|--------|--------|
D|--------|--------|--------|--------|--------|--------|--------|--------|--------|
A|--------|--------|--------|--------|--------|--------|--------|--------|--------|
E|--------|--------|--------|--------|--------|--------|--------|--------|--------|


E|--------|--------|--------|--------|--------|--------|--------|--------|--------|
B|--------|--------|--------|--------|--------|--------|--------|--------|--------|
G|--------|--------|--------|--------|--------|--------|--------|--------|--------|
D|--------|--------|--------|--------|--------|--------|--------|--------|--------|
A|--------|--------|--------|--------|--------|--------|--------|--------|--------|
E|--------|--------|--------|--------|--------|--------|--------|--------|--------|


E|--------|--------|--------|--------|--------|--------|--------|--------|--------|
B|--------|--------|--------|--------|--------|--------|--------|--------|--------|
G|--------|--------|--------|--------|--------|--------|--------|--------|--------|
D|--------|--------|--------|--------|--------|--------|--------|--------|--------|
A|--------|--------|--------|--------|--------|--------|--------|--------|--------|
E|--------|--------|--------|--------|--------|--------|--------|--------|--------|


E|--------|--------|--------|--------|--------|--------|--------|--------|--------|
B|--------|--------|--------|--------|--------|--------|--------|--------|--------|
G|--------|--------|--------|--------|--------|--------|--------|--------|--------|
D|--------|--------|--------|--------|--------|--------|--------|--------|--------|
A|--------|--------|--------|--------|--------|--------|--------|--------|--------|
E|--------|--------|--------|--------|--------|--------|--------|--------|--------|


E|--------|--------|--------|--------|--------|--------|--------|--------|--------|
B|--------|--------|--------|--------|--------|--------|--------|--------|--------|
G|--------|--------|--------|--------|--------|--------|--------|--------|--------|
D|--------|--------|--------|--------|--------|--------|--------|--------|--------|
A|--------|--------|--------|--------|--------|--------|--------|--------|--------|
E|--------|--------|--------|--------|--------|--------|--------|--------|--------|


E|--------|--------|--------|--------|--------|--------|--------|--------|--------|
B|--------|--------|--------|--------|--------|--------|--------|--------|--------|
G|--------|--------|--------|--------|--------|--------|--------|--------|--------|
D|--------|--------|--------|--------|--------|--------|--------|--------|--------|
A|--------|--------|--------|--------|--------|--------|--------|--------|--------|
E|--------|--------|--------|--------|--------|--------|--------|--------|--------|


E|--------|--------|--------|--------|--------|--------|--------|--------|--------|
B|--------|--------|--------|--------|--------|--------|--------|--------|--------|
G|--------|--------|--------|--------|--------|--------|--------|--------|--------|
D|--------|--------|--------|--------|--------|--------|--------|--------|--------|
A|--------|--------|--------|--------|--------|--------|--------|--------|--------|
E|--------|--------|--------|--------|--------|--------|--------|--------|--------|


E|--------|--------|--------|--------|--------|--------|--------|--------|--------|
B|--------|--------|--------|--------|--------|--------|--------|--------|--------|
G|--------|--------|--------|--------|--------|--------|--------|--------|--------|
D|--------|--------|--------|--------|--------|--------|--------|--------|--------|
A|--------|--------|--------|--------|--------|--------|--------|--------|--------|
E|--------|--------|--------|--------|--------|--------|--------|--------|--------|


E|--------|--------|--------|--------|--------|--------|--------|--------|--------|
B|--------|--------|--------|--------|--------|--------|--------|--------|--------|
G|--------|--------|--------|--------|--------|--------|--------|--------|--------|
D|--------|--------|--------|--------|--------|--------|--------|--------|--------|
A|--------|--------|--------|--------|--------|--------|--------|--------|--------|
E|--------|--------|--------|--------|--------|--------|--------|--------|--------|


E|--------|--------|--------|--------|--------|--------|--------|--------|--------|
B|--------|--------|--------|--------|--------|--------|--------|--------|--------|
G|--------|--------|--------|--------|--------|--------|--------|--------|--------|
D|--------|--------|--------|--------|--------|--------|--------|--------|--------|
A|--------|--------|--------|--------|--------|--------|--------|--------|--------|
E|--------|--------|--------|--------|--------|--------|--------|--------|--------|


E|--------|--------|--------|--------|--------|--------|--------|--------|--------|
B|--------|--------|--------|--------|--------|--------|--------|--------|--------|
G|--------|--------|--------|--------|--------|--------|--------|--------|--------|
D|--------|--------|--------|--------|--------|--------|--------|--------|--------|
A|--------|--------|--------|--------|--------|--------|--------|--------|--------|
E|--------|--------|--------|--------|--------|--------|--------|--------|--------|


E|--------|--------|--------|--------|--------|--------|--------|--------|--------|
B|--------|--------|--------|--------|--------|--------|--------|--------|--------|
G|--------|--------|--------|--------|--------|--------|--------|--------|--------|
D|--------|--------|--------|--------|--------|--------|--------|--------|--------|
A|--------|--------|--------|--------|--------|--------|--------|--------|--------|
E|--------|--------|--------|--------|--------|--------|--------|--------|--------|


E|--------|--------|--------|--------|--------|--------|--------|--------|--------|
B|--------|--------|--------|--------|--------|--------|--------|--------|--------|
G|--------|--------|--------|--------|--------|--------|--------|--------|--------|
D|--------|--------|--------|--------|--------|--------|--------|--------|--------|
A|--------|--------|--------|--------|--------|--------|--------|--------|--------|
E|--------|--------|--------|--------|--------|--------|--------|--------|--------|


E|--------|--------|--------|
B|--------|--------|--------|
G|--------|--------|--------|
D|--------|--------|--------|
A|--------|--------|--------|
E|--------|--------|--------|





Track 3: Oboe

E|--------|--------|--------|-------------|---------------------|-------------|-------------|
B|--------|--------|--------|-------5-----|-5-------------------|-5-----------|-------------|
G|--------|--------|--------|-2-----------|------4----5---------|-------7-----|-5-----4-----|
D|--------|--------|--------|-------------|----------------7----|-------------|-------------|
A|--------|--------|--------|-------------|---------------------|-------------|-------------|
E|--------|--------|--------|-------------|---------------------|-------------|-------------|


E|-----------------|---------------------------|-----------------|---------------------------|
B|-----------------|---------------------------|------------5----|------6----5---------------|
G|-4----------5----|-4-------4---5---7----4----|-5-----4---------|-5-------------7---5---4---|
D|-------5---------|-----7---------------------|-----------------|---------------------------|
A|-----------------|---------------------------|-----------------|---------------------------|
E|-----------------|---------------------------|-----------------|---------------------------|


E|-----------------|-------------|-----------------|-------------|-------------|-----------------|
B|-----------------|-5-----------|-----------5-----|-------------|-------------|-----------------|
G|-----------------|--------4----|-5---------------|-7-----5-----|-4------7----|-5-----4----5----|
D|-7----------7----|-------------|------7----------|-------------|-------------|-----------------|
A|-----------------|-------------|-----------------|-------------|-------------|-----------------|
E|-----------------|-------------|-----------------|-------------|-------------|-----------------|


E|-----------------|-----------------|-----------------|---------------------------|
B|-----------------|-----------------|-5---------------|------6----6---5---5-------|
G|-5----4----5-----|-5----4----------|------------5----|-7-------------------------|
D|-----------------|-----------7-----|-----------------|---------------------------|
A|-----------------|-----------------|-----------------|---------------------------|
E|-----------------|-----------------|-----------------|---------------------------|


E|-----------------|----------------5----|---------------------|-----------------|
B|-----------5-----|-----------5---------|-7----5--------------|-5----------3----|
G|-7----4----------|------7--------------|-----------7----4----|-----------------|
D|-----------------|---------------------|---------------------|-----------------|
A|-----------------|---------------------|---------------------|-----------------|
E|-----------------|---------------------|---------------------|-----------------|


E|------3----2---------|---------------------|---------------------|---------------------|
B|-5--------------5----|-5----4----5---------|----------------5----|-5----5----5-----3---|
G|---------------------|----------------4----|-4----4----4---------|---------------------|
D|---------------------|---------------------|---------------------|---------------------|
A|---------------------|---------------------|---------------------|---------------------|
E|---------------------|---------------------|---------------------|---------------------|


E|----------------5----|-5----5----5----5----|-5-----4----3----|-3----2-----------------|
B|-1-----0-------------|---------------------|-----------------|-----------5---5---5----|
G|-----------2---------|---------------------|-----------------|------------------------|
D|---------------------|---------------------|-----------------|------------------------|
A|---------------------|---------------------|-----------------|------------------------|
E|---------------------|---------------------|-----------------|------------------------|


E|---------------------|-----------------|-------3----2----|-2----------------------|
B|-5----4----5---------|------------3----|-5---------------|-----5---5----5----4----|
G|----------------5----|-4-----5---------|-----------------|------------------------|
D|---------------------|-----------------|-----------------|------------------------|
A|---------------------|-----------------|-----------------|------------------------|
E|---------------------|-----------------|-----------------|------------------------|


E|-------------|------------------------|---------------------|-----------------|-------------|
B|-5------3----|-1----0------------5----|------3----5---------|-----------------|-5-----------|
G|-------------|----------2---0---------|-4--------------5----|-4-----5---------|-------------|
D|-------------|------------------------|---------------------|------------7----|--------7----|
A|-------------|------------------------|---------------------|-----------------|-------------|
E|-------------|------------------------|---------------------|-----------------|-------------|


E|---------------------|--------------------|---------------------|-----------------|
B|---------------------|--------------------|---------------------|-----------5-----|
G|-4-----5---7----7----|-7---5--------4-----|-4--------------4----|-5----7----------|
D|---------------------|---------7----------|------7----5---------|-----------------|
A|---------------------|--------------------|---------------------|-----------------|
E|---------------------|--------------------|---------------------|-----------------|


E|---------------------|-----------------|--------|--------|--------|--------|--------|
B|------5--------------|-----------------|--------|--------|--------|--------|--------|
G|----------------7----|-5-----4---------|--------|--------|--------|--------|--------|
D|-----------7---------|-----------7-----|--------|--------|--------|--------|--------|
A|---------------------|-----------------|--------|--------|--------|--------|--------|
E|---------------------|-----------------|--------|--------|--------|--------|--------|


E|--------|--------|--------|--------|--------|--------|--------|--------|--------|
B|--------|--------|--------|--------|--------|--------|--------|--------|--------|
G|--------|--------|--------|--------|--------|--------|--------|--------|--------|
D|--------|--------|--------|--------|--------|--------|--------|--------|--------|
A|--------|--------|--------|--------|--------|--------|--------|--------|--------|
E|--------|--------|--------|--------|--------|--------|--------|--------|--------|


E|--------|--------|--------|--------|--------|--------|--------|--------|--------|
B|--------|--------|--------|--------|--------|--------|--------|--------|--------|
G|--------|--------|--------|--------|--------|--------|--------|--------|--------|
D|--------|--------|--------|--------|--------|--------|--------|--------|--------|
A|--------|--------|--------|--------|--------|--------|--------|--------|--------|
E|--------|--------|--------|--------|--------|--------|--------|--------|--------|


E|--------|--------|--------|--------|--------|--------|--------|--------|--------|
B|--------|--------|--------|--------|--------|--------|--------|--------|--------|
G|--------|--------|--------|--------|--------|--------|--------|--------|--------|
D|--------|--------|--------|--------|--------|--------|--------|--------|--------|
A|--------|--------|--------|--------|--------|--------|--------|--------|--------|
E|--------|--------|--------|--------|--------|--------|--------|--------|--------|


E|--------|--------|--------|--------|--------|--------|--------|--------|--------|
B|--------|--------|--------|--------|--------|--------|--------|--------|--------|
G|--------|--------|--------|--------|--------|--------|--------|--------|--------|
D|--------|--------|--------|--------|--------|--------|--------|--------|--------|
A|--------|--------|--------|--------|--------|--------|--------|--------|--------|
E|--------|--------|--------|--------|--------|--------|--------|--------|--------|


E|--------|--------|--------|--------|--------|--------|--------|--------|--------|
B|--------|--------|--------|--------|--------|--------|--------|--------|--------|
G|--------|--------|--------|--------|--------|--------|--------|--------|--------|
D|--------|--------|--------|--------|--------|--------|--------|--------|--------|
A|--------|--------|--------|--------|--------|--------|--------|--------|--------|
E|--------|--------|--------|--------|--------|--------|--------|--------|--------|


E|--------|--------|--------|--------|--------|--------|--------|--------|--------|
B|--------|--------|--------|--------|--------|--------|--------|--------|--------|
G|--------|--------|--------|--------|--------|--------|--------|--------|--------|
D|--------|--------|--------|--------|--------|--------|--------|--------|--------|
A|--------|--------|--------|--------|--------|--------|--------|--------|--------|
E|--------|--------|--------|--------|--------|--------|--------|--------|--------|


E|--------|--------|--------|--------|--------|--------|--------|--------|--------|
B|--------|--------|--------|--------|--------|--------|--------|--------|--------|
G|--------|--------|--------|--------|--------|--------|--------|--------|--------|
D|--------|--------|--------|--------|--------|--------|--------|--------|--------|
A|--------|--------|--------|--------|--------|--------|--------|--------|--------|
E|--------|--------|--------|--------|--------|--------|--------|--------|--------|


E|--------|--------|--------|--------|--------|--------|--------|--------|--------|
B|--------|--------|--------|--------|--------|--------|--------|--------|--------|
G|--------|--------|--------|--------|--------|--------|--------|--------|--------|
D|--------|--------|--------|--------|--------|--------|--------|--------|--------|
A|--------|--------|--------|--------|--------|--------|--------|--------|--------|
E|--------|--------|--------|--------|--------|--------|--------|--------|--------|


E|--------|--------|--------|--------|--------|--------|--------|--------|--------|
B|--------|--------|--------|--------|--------|--------|--------|--------|--------|
G|--------|--------|--------|--------|--------|--------|--------|--------|--------|
D|--------|--------|--------|--------|--------|--------|--------|--------|--------|
A|--------|--------|--------|--------|--------|--------|--------|--------|--------|
E|--------|--------|--------|--------|--------|--------|--------|--------|--------|


E|--------|--------|--------|--------|--------|--------|--------|--------|--------|
B|--------|--------|--------|--------|--------|--------|--------|--------|--------|
G|--------|--------|--------|--------|--------|--------|--------|--------|--------|
D|--------|--------|--------|--------|--------|--------|--------|--------|--------|
A|--------|--------|--------|--------|--------|--------|--------|--------|--------|
E|--------|--------|--------|--------|--------|--------|--------|--------|--------|


E|--------|--------|--------|--------|--------|--------|--------|--------|--------|
B|--------|--------|--------|--------|--------|--------|--------|--------|--------|
G|--------|--------|--------|--------|--------|--------|--------|--------|--------|
D|--------|--------|--------|--------|--------|--------|--------|--------|--------|
A|--------|--------|--------|--------|--------|--------|--------|--------|--------|
E|--------|--------|--------|--------|--------|--------|--------|--------|--------|


E|--------|--------|--------|--------|--------|--------|--------|--------|--------|
B|--------|--------|--------|--------|--------|--------|--------|--------|--------|
G|--------|--------|--------|--------|--------|--------|--------|--------|--------|
D|--------|--------|--------|--------|--------|--------|--------|--------|--------|
A|--------|--------|--------|--------|--------|--------|--------|--------|--------|
E|--------|--------|--------|--------|--------|--------|--------|--------|--------|


E|--------|--------|--------|--------|--------|--------|--------|--------|--------|
B|--------|--------|--------|--------|--------|--------|--------|--------|--------|
G|--------|--------|--------|--------|--------|--------|--------|--------|--------|
D|--------|--------|--------|--------|--------|--------|--------|--------|--------|
A|--------|--------|--------|--------|--------|--------|--------|--------|--------|
E|--------|--------|--------|--------|--------|--------|--------|--------|--------|


E|--------|--------|--------|--------|--------|--------|--------|
B|--------|--------|--------|--------|--------|--------|--------|
G|--------|--------|--------|--------|--------|--------|--------|
D|--------|--------|--------|--------|--------|--------|--------|
A|--------|--------|--------|--------|--------|--------|--------|
E|--------|--------|--------|--------|--------|--------|--------|





Track 4: Guitar 

E|--------|--------|--------|--------|--------|--------|--------|--------|--------|
B|--------|--------|--------|--------|--------|--------|--------|--------|--------|
G|--------|--------|--------|--------|--------|--------|--------|--------|--------|
D|--------|--------|--------|--------|--------|--------|--------|--------|--------|
A|--------|--------|--------|--------|--------|--------|--------|--------|--------|
E|--------|--------|--------|--------|--------|--------|--------|--------|--------|


E|--------|--------|--------|--------|--------|--------|--------|--------|--------|
B|--------|--------|--------|--------|--------|--------|--------|--------|--------|
G|--------|--------|--------|--------|--------|--------|--------|--------|--------|
D|--------|--------|--------|--------|--------|--------|--------|--------|--------|
A|--------|--------|--------|--------|--------|--------|--------|--------|--------|
E|--------|--------|--------|--------|--------|--------|--------|--------|--------|


E|--------|--------|--------|--------|--------|--------|--------|--------|--------|
B|--------|--------|--------|--------|--------|--------|--------|--------|--------|
G|--------|--------|--------|--------|--------|--------|--------|--------|--------|
D|--------|--------|--------|--------|--------|--------|--------|--------|--------|
A|--------|--------|--------|--------|--------|--------|--------|--------|--------|
E|--------|--------|--------|--------|--------|--------|--------|--------|--------|


E|--------|--------|--------|--------|--------|--------|--------|--------|--------|
B|--------|--------|--------|--------|--------|--------|--------|--------|--------|
G|--------|--------|--------|--------|--------|--------|--------|--------|--------|
D|--------|--------|--------|--------|--------|--------|--------|--------|--------|
A|--------|--------|--------|--------|--------|--------|--------|--------|--------|
E|--------|--------|--------|--------|--------|--------|--------|--------|--------|


E|--------|--------|--------|--------|--------|--------|--------|--------|--------|
B|--------|--------|--------|--------|--------|--------|--------|--------|--------|
G|--------|--------|--------|--------|--------|--------|--------|--------|--------|
D|--------|--------|--------|--------|--------|--------|--------|--------|--------|
A|--------|--------|--------|--------|--------|--------|--------|--------|--------|
E|--------|--------|--------|--------|--------|--------|--------|--------|--------|


E|--------|--------|--------|--------------------|--------|-----------------|--------|
B|--------|--------|--------|-3----2-------2-----|-3------|-3---------------|--------|
G|--------|--------|--------|----------4---------|--------|-----------------|--------|
D|--------|--------|--------|--------------------|--------|-----------------|--------|
A|--------|--------|--------|--------------------|--------|-----------------|--------|
E|--------|--------|--------|--------------------|--------|-----------------|--------|


E|---------------------------------------------------|---------------------------------------------------|
B|---------------------------------------------------|---------------------------------------------------|
G|---------------------------------------------------|---------------------------------------------------|
D|-7------------7---7---7---7------------7---7---7---|-7------------7---7---7---7------------7---7---7---|
A|-7------------7---7---7---7------------7---7---7---|-7------------7---7---7---7------------7---7---7---|
E|-5---5--5--5--5---5---5---5---5--5--5--5---5---5---|-5---5--5--5--5---5---5---5---5--5--5--5---5---5---|


E|---------------------------------------------------|---------------------------------------------------|
B|---------------------------------------------------|---------------------------------------------------|
G|-7------------7---7---7---7------------7---7---7---|-7------------7---7---7---7------------7---7---7---|
D|-7------------7---7---7---7------------7---7---7---|-7------------7---7---7---7------------7---7---7---|
A|-5---5--5--5--5---5---5---5---5--5--5--5---5---5---|-5---5--5--5--5---5---5---5---5--5--5--5---5---5---|
E|---------------------------------------------------|---------------------------------------------------|


E|---------------------------------------------------|---------------------------------------------------|
B|---------------------------------------------------|---------------------------------------------------|
G|-10-----------10--10--10--10-----------10--10--10--|-7------------7---7---7---7------------7---7---7---|
D|-10-----------10--10--10--10-----------10--10--10--|-7------------7---7---7---7------------7---7---7---|
A|-8---8--8--8--8---8---8---8---8--8--8--8---8---8---|-5---5--5--5--5---5---5---5---5--5--5--5---5---5---|
E|---------------------------------------------------|---------------------------------------------------|


E|---------------------------------------------------|---------------------------------------------------|
B|---------------------------------------------------|---------------------------------------------------|
G|-7------------7---7---7---7------------7---7---7---|-7------------7---7---7---7------------7---7---7---|
D|-7------------7---7---7---7------------7---7---7---|-7------------7---7---7---7------------7---7---7---|
A|-5---5--5--5--5---5---5---5---5--5--5--5---5---5---|-5---5--5--5--5---5---5---5---5--5--5--5---5---5---|
E|---------------------------------------------------|---------------------------------------------------|


E|---------------------------------------------------|---------------------------------------------------|
B|---------------------------------------------------|---------------------------------------------------|
G|---------------------------------------------------|---------------------------------------------------|
D|-7------------7---7---7---7------------7---7---7---|-7------------7---7---7---7------------7---7---7---|
A|-7------------7---7---7---7------------7---7---7---|-7------------7---7---7---7------------7---7---7---|
E|-5---5--5--5--5---5---5---5---5--5--5--5---5---5---|-5---5--5--5--5---5---5---5---5--5--5--5---5---5---|


E|---------------------------------------------------|---------------------------------------------------|
B|---------------------------------------------------|---------------------------------------------------|
G|-7------------7---7---7---7------------7---7---7---|-7------------7---7---7---7------------7---7---7---|
D|-7------------7---7---7---7------------7---7---7---|-7------------7---7---7---7------------7---7---7---|
A|-5---5--5--5--5---5---5---5---5--5--5--5---5---5---|-5---5--5--5--5---5---5---5---5--5--5--5---5---5---|
E|---------------------------------------------------|---------------------------------------------------|


E|---------------------------------------------------|--------------------------------------------|
B|---------------------------------------------------|--------------------------------------------|
G|-10-----------10--10--10--10-----------10--10--10--|-7------------7---7---7---7------------7----|
D|-10-----------10--10--10--10-----------10--10--10--|-7------------7---7---7---7------------7----|
A|-8---8--8--8--8---8---8---8---8--8--8--8---8---8---|-5---5--5--5--5---5---5---5---5--5--5--5----|
E|---------------------------------------------------|--------------------------------------------|


E|-------------|----------------------------------------------|----------------------------------------------|
B|-------------|----------------------------------------------|----------------------------------------------|
G|-7-----------|-7--------------------------------------------|-9--------------------------------------------|
D|-7-----------|-7--------------------------------------------|-9--------------------------------------------|
A|-5-----------|-5----5-5-5--5-5-5--5-5-5--5-5-5--5--5--5--5--|-7----7-7-7--7-7-7--7-7-7--7-7-7--7--7--7--7--|
E|-------------|----------------------------------------------|----------------------------------------------|


E|----------------------------------------------|-----------------|----------------------------------------------|
B|----------------------------------------------|-----------------|----------------------------------------------|
G|-10-------------------------------------------|-7----7----7-----|-7--------------------------------------------|
D|-10-------------------------------------------|-5----5----5-----|-7--------------------------------------------|
A|-8----8-8-8--8-8-8--8-8-8--8-8-8--8--8--8--8--|-----------------|-5----5-5-5--5-5-5--5-5-5--5-5-5--5--5--5--5--|
E|----------------------------------------------|-----------------|----------------------------------------------|


E|----------------------------------------------|----------------------------------------------|
B|----------------------------------------------|----------------------------------------------|
G|-9--------------------------------------------|-10-------------------------------------------|
D|-9--------------------------------------------|-10-------------------------------------------|
A|-7----7-7-7--7-7-7--7-7-7--7-7-7--7--7--7--7--|-8----8-8-8--8-8-8--8-8-8--8-8-8--8--8--8--8--|
E|----------------------------------------------|----------------------------------------------|


E|-------------------------------------------------|------------------------------------------|
B|-------------------------------------------------|------------------------------------------|
G|-7-----------------------------------------------|------------------------------------------|
D|-5--10-9--10-9--7--9--7-----7--------------------|------------------------------------------|
A|----8--7--8--7--5--7--5--10-5--10-9--10-9--7--7--|-7---7---7---7---5--5--8-8-8--7--5--------|
E|-------------------------8-----8--7--8--7--5--8--|-5---5---5---5----------------------8--7--|


E|------------------------------------------|------------------------------------------|
B|------------------------------------------|------------------------------------------|
G|------------------------------------------|------------------------------------------|
D|------------------------------------------|-10--10--10--10--8--8--121212-10-8--------|
A|-7---7---7---7---5--5--8-8-8--7--5-----5--|-8---8---8---8----------------------12-10-|
E|-5---5---5---5----------------------8-----|------------------------------------------|


E|------------------------------------------------|------------------------------------------|
B|------------------------------------------------|------------------------------------------|
G|------------------------------------------------|------------------------------------------|
D|-10--10--10--10--8--8--121212-10-8--------------|------------------------------------------|
A|-8---8---8---8----------------------12-10-8-----|-7---7---7---7---5--5--8-8-8--7--5--------|
E|---------------------------------------------12-|-5---5---5---5----------------------8--7--|


E|------------------------------------------|------------------------------------------|
B|------------------------------------------|------------------------------------------|
G|------------------------------------------|------------------------------------------|
D|------------------------------------------|------------------------------------------|
A|-7---7---7---7---5--5--8-8-8--7--5--------|-10--10--10--10--8--8--121212-10-8--------|
E|-5---5---5---5----------------------8--7--|-8---8---8---8----------------------12-10-|


E|------------------------------------------|-------------------------------------------|
B|------------------------------------------|-------------------------------------------|
G|------------------------------------------|-------------------------------------5-----|
D|------------------------------------------|-7-----7---7---------5-7---5---7--9-----9--|
A|-10--10--10--10--8--8--121212-12-10-8-----|-5--5--5---5---5-7-8---5-------------------|
E|-8---8---8---8-------------------------12-|-------------------------------------------|


E|-------------------------------------------|-------------------------------------------|
B|-------------------------------------------|-------------------------------------------|
G|-------------------------------5-----------|-------------------------------------5-----|
D|-10--------10------7-8-10--9------9--7--5--|-7-----7---7---------5-7---5---7--9-----9--|
A|-8---8--8--8---8-10----8---7---------------|-5--5--5---5---5-7-8---5-------------------|
E|-------------------------------------------|-------------------------------------------|


E|-------------------------------------------------|-------------|-----------------|
B|-------------------------------------------------|-------------|-----------------|
G|-------------------------------9--7--5-----------|-7-----7-----|-----------------|
D|-10--------10------7-8-10--9------------8--7--5--|-7-----7-----|-8-----8----8----|
A|-8---8--8--8---8-10----8---7---------------------|-5-----5-----|-8-----8----8----|
E|-------------------------------------------------|-------------|-6-----6----6----|


E|-------------|-------------|-------------|-----------------|-------------|--------|
B|-------------|-------------|-------------|-----------------|-------------|--------|
G|-10----10----|-7-----7-----|-7-----7-----|-10----10---10---|-------------|-7------|
D|-10----10----|-7-----7-----|-7-----7-----|-10----10---10---|-8-----8-----|-7------|
A|-8-----8-----|-5-----5-----|-5-----5-----|-8-----8----8----|-8-----8-----|-5------|
E|-------------|-------------|-------------|-----------------|-6-----6-----|--------|


E|-------------|---------------------------|-------------|---------------------------|
B|-------------|---------------------------|-------------|---------------------------|
G|-------------|---------------------------|-------------|---------------------------|
D|-7-----3-----|-5-----2-------------------|-7-----3-----|-5-----2-------------------|
A|-7-----3-----|-5-----2-------------------|-7-----3-----|-5-----2----3--1--0--1--3--|
E|-5-----1-----|-3-----0----3--1--0--1--3--|-5-----1-----|-3-----0-------------------|


E|---------------------------------------------------|---------------------------------------------------|
B|---------------------------------------------------|---------------------------------------------------|
G|-7------------7---7---7---7------------7---7---7---|-7------------7---7---7---7------------7---7---7---|
D|-7------------7---7---7---7------------7---7---7---|-7------------7---7---7---7------------7---7---7---|
A|-5---5--5--5--5---5---5---5---5--5--5--5---5---5---|-5---5--5--5--5---5---5---5---5--5--5--5---5---5---|
E|---------------------------------------------------|---------------------------------------------------|


E|---------------------------------------------------|---------------------------------------------------|
B|---------------------------------------------------|---------------------------------------------------|
G|---------------------------------------------------|---------------------------------------------------|
D|-7------------7---7---7---7------------7---7---7---|-7------------7---7---7---7------------7---7---7---|
A|-7------------7---7---7---7------------7---7---7---|-7------------7---7---7---7------------7---7---7---|
E|-5---5--5--5--5---5---5---5---5--5--5--5---5---5---|-5---5--5--5--5---5---5---5---5--5--5--5---5---5---|


E|---------------------------------------------------|---------------------------------------------------|
B|---------------------------------------------------|---------------------------------------------------|
G|-7------------7---7---7---7------------7---7---7---|-7------------7---7---7---7------------7---7---7---|
D|-7------------7---7---7---7------------7---7---7---|-7------------7---7---7---7------------7---7---7---|
A|-5---5--5--5--5---5---5---5---5--5--5--5---5---5---|-5---5--5--5--5---5---5---5---5--5--5--5---5---5---|
E|---------------------------------------------------|---------------------------------------------------|


E|---------------------------------------------------|--------------------------------------------|
B|---------------------------------------------------|--------------------------------------------|
G|-10-----------10--10--10--10-----------10--10--10--|-7------------7---7---7---7------------7----|
D|-10-----------10--10--10--10-----------10--10--10--|-7------------7---7---7---7------------7----|
A|-8---8--8--8--8---8---8---8---8--8--8--8---8---8---|-5---5--5--5--5---5---5---5---5--5--5--5----|
E|---------------------------------------------------|--------------------------------------------|


E|-------------|----------------------------------------------|----------------------------------------------|
B|-------------|----------------------------------------------|----------------------------------------------|
G|-7-----------|-7--------------------------------------------|-9--------------------------------------------|
D|-7-----------|-7--------------------------------------------|-9--------------------------------------------|
A|-5-----------|-5----5-5-5--5-5-5--5-5-5--5-5-5--5--5--5--5--|-7----7-7-7--7-7-7--7-7-7--7-7-7--7--7--7--7--|
E|-------------|----------------------------------------------|----------------------------------------------|


E|----------------------------------------------|-----------------|----------------------------------------------|
B|----------------------------------------------|-----------------|----------------------------------------------|
G|-10-------------------------------------------|-7----7----7-----|-7--------------------------------------------|
D|-10-------------------------------------------|-5----5----5-----|-7--------------------------------------------|
A|-8----8-8-8--8-8-8--8-8-8--8-8-8--8--8--8--8--|-----------------|-5----5-5-5--5-5-5--5-5-5--5-5-5--5--5--5--5--|
E|----------------------------------------------|-----------------|----------------------------------------------|


E|----------------------------------------------|----------------------------------------------|
B|----------------------------------------------|----------------------------------------------|
G|-9--------------------------------------------|-10-------------------------------------------|
D|-9--------------------------------------------|-10-------------------------------------------|
A|-7----7-7-7--7-7-7--7-7-7--7-7-7--7--7--7--7--|-8----8-8-8--8-8-8--8-8-8--8-8-8--8--8--8--8--|
E|----------------------------------------------|----------------------------------------------|


E|-------------------------------------------------|-----------------------------|
B|-------------------------------------------------|-----------------------------|
G|-7-----------------------------------------------|-----------------------------|
D|-5--10-9--10-9--7--9--7-----7--------------------|-7---------7---7-------------|
A|----8--7--8--7--5--7--5--10-5--10-9--10-9--7--7--|-7---------7---7---5----7----|
E|-------------------------8-----8--7--8--7--5--8--|-5---5--5--5---5---3----5----|


E|--------------------------------|-----------------------------|--------------------------------|
B|--------------------------------|-----------------------------|--------------------------------|
G|--------------------------------|-10--------------------------|-10-----------------------------|
D|-7---------7---7----------------|-10--------10--10--8----10---|-10--------10--10--8----10--12--|
A|-7---------7---7---5----7---10--|-8---8--8--8---8---6----8----|-8---8--8--8---8---6----8---10--|
E|-5---5--5--5---5---3----5---8---|-----------------------------|--------------------------------|


E|-----------------------------|--------------------------------|--------------------------------|
B|-----------------------------|--------------------------------|--------------------------------|
G|-----------------------------|--------------------------------|--------------------------------|
D|-7---------7---7-------------|-7---------7---7----------------|------------------------10--10--|
A|-7---------7---7---5----7----|-7---------7---7---5----7---10--|-10--------10--10--8----10--10--|
E|-5---5--5--5---5---3----5----|-5---5--5--5---5---3----5---8---|-8---8--8--8---8---6----8---8---|


E|-----------------------------------|--------------------------------------------|
B|-----------------------------------|--------------------------------------------|
G|-----------------------------------|--------------------------------------------|
D|-10----------------------------10--|-7----7---7------------------------5--7--5--|
A|-10--------10--10--8---12--12--8---|-5----5---5---5-----------5--7--8-----------|
E|-8---8--8--8---8---6---10--10------|-----------------8--7--8--------------------|


E|--------------------------------------------|--------------------------------------------|
B|--------------------------------------------|--------------------------------------------|
G|--------------------------------------------|--------------------------------------------|
D|------10--10--------------------7-----------|-7----7---7------------------------5--7--5--|
A|-8----8---8---8--7-----7--8--10----10-8--7--|-5----5---5---5-----------5--7--8-----------|
E|--------------------10----------------------|-----------------8--7--8--------------------|


E|--------------------------------------------------|----------------------------|
B|--------------------------------------------------|----------------------------|
G|--------------------------------------------------|-7----------------7----7----|
D|------10--10--------------------10-9--7-----------|-7----------------7----7----|
A|-8----8---8---8--7-----7--8--10----------10-8--7--|-5----5--5--5--5--5----5----|
E|--------------------10----------------------------|----------------------------|


E|----------------------------|----------------------------|---------------------------------|
B|----------------------------|----------------------------|---------------------------------|
G|----------------------------|-10---------------10---10---|---------------------------------|
D|-8----------------8----8----|-10---------------10---10---|-7----------------7---------7----|
A|-8----------------8----8----|-8----8--8--8--8--8----8----|-5----5--5--5--5--5---5--5--5----|
E|-6----6--6--6--6--6----6----|----------------------------|---------------------------------|


E|----------------------------|-------------------------------|---------------------------------|
B|----------------------------|-------------------------------|------------------11--------11---|
G|-----------------------7----|-10---------------10-----------|-10---------------10--------10---|
D|-7----------------7----7----|-10---------------10------10---|-8----8--8--8--8--8---8--8--8----|
A|-5----5--5--5--5--5----5----|-8----8--8--8--8--8---8---8----|---------------------------------|
E|----------------------------|-------------------------------|---------------------------------|


E|-10--8---10--12--10--12--13--12--13--15--13--15--|-17-----|-17-13----13-17-13----------13-------------------------------|
B|-10--8---10--11--10--11--13--11--13--15--13--15--|-17-----|-------15----------15----15----15----------15----------------|
G|-7-----------------------------------------------|--------|----------------------14----------14----14----14----------14-|
D|-------------------------------------------------|--------|-------------------------------------15----------15-12-15----|
A|-------------------------------------------------|--------|-------------------------------------------------------------|
E|-------------------------------------------------|--------|-------------------------------------------------------------|


E|----------------------------------------------13----------13-17--|-17---15-13-12-13--15--13-12-10-----15--|
B|-------------------15----------15----------15----15----15--------|--------------------------------14------|
G|----------------14----14----14----14----14----------14-----------|----------------------------------------|
D|-15-12----12-15----------15----------15--------------------------|----------------------------------------|
A|-------12--------------------------------------------------------|----------------------------------------|
E|-----------------------------------------------------------------|----------------------------------------|


E|-13--12--17---17--15-------|-----------------|--------|--------|-----------15--15-17-15--|
B|----------------------15---|-15--------------|--------|--------|-------------------------|
G|---------------------------|-----------------|--------|--------|-------------------------|
D|---------------------------|-----------------|--------|--------|-------------------------|
A|---------------------------|-----------------|--------|--------|-------------------------|
E|---------------------------|-----------------|--------|--------|-------------------------|


E|-17-17-15--13--------------13-15-13--|-15-15-13--12--------------12-13-12--|-13-13-12--10--------------10-12-10--|
B|---------------17--17--17------------|---------------15--15--15------------|---------------13--13--13------------|
G|-------------------------------------|-------------------------------------|-------------------------------------|
D|-------------------------------------|-------------------------------------|-------------------------------------|
A|-------------------------------------|-------------------------------------|-------------------------------------|
E|-------------------------------------|-------------------------------------|-------------------------------------|


E|-12-13-12--13-15-13--15-17-15--17-19-17--|-17---20----22-20-18----|-------------22-20-18----------------18-17-15----|
B|-----------------------------------------|---------------------22-|-20-22-18-22----------22-20-22-18-22----------18-|
G|-----------------------------------------|------------------------|-------------------------------------------------|
D|-----------------------------------------|------------------------|-------------------------------------------------|
A|-----------------------------------------|------------------------|-------------------------------------------------|
E|-----------------------------------------|------------------------|-------------------------------------------------|


E|-------------18-17-15--------------24-24-22-20-|----20----20-24-24-22-20----20----20-22-20-18----|
B|-17-18-15-18----------18-17-18-15--------------|-23----22----------------23----22-------------22-|
G|-----------------------------------------------|-------------------------------------------------|
D|-----------------------------------------------|-------------------------------------------------|
A|-----------------------------------------------|-------------------------------------------------|
E|-----------------------------------------------|-------------------------------------------------|


E|-------------22-20-18----------------20-18-17----|-------------20-18-17----------------17-15-13----|
B|-20-22-18-22----------22-20-22-18-22----------20-|-18-20-17-20----------20-18-20-17-20----------17-|
G|-------------------------------------------------|-------------------------------------------------|
D|-------------------------------------------------|-------------------------------------------------|
A|-------------------------------------------------|-------------------------------------------------|
E|-------------------------------------------------|-------------------------------------------------|


E|-------------17-15-13----------------15-13-12----|-------------15-13-12----------------13-12-10----|
B|-15-17-13-17----------17-15-17-13-17----------15-|-13-15-11-15----------15-13-15-11-15----------13-|
G|-------------------------------------------------|-------------------------------------------------|
D|-------------------------------------------------|-------------------------------------------------|
A|-------------------------------------------------|-------------------------------------------------|
E|-------------------------------------------------|-------------------------------------------------|


E|----------12-13-15-13-12-------------------------10---|----------------------------|
B|-11-13-15----------------15-13-11----------11-13------|----------------------------|
G|----------------------------------14-12-14-------7----|-------------7----7---------|
D|-------------------------------------------------7----|-------------7----7----8----|
A|-------------------------------------------------5----|-5--5--5--5--5----5----8----|
E|------------------------------------------------------|-----------------------6----|


E|----------------------------|----------------------------|---------------------------------|
B|----------------------------|----------------------------|---------------------------------|
G|-----------------------10---|-------------10---10--------|---------------------------------|
D|-------------8----8----10---|-------------10---10---7----|-------------7---------7----7----|
A|-------------8----8----8----|-8--8--8--8--8----8----5----|-5--5--5--5--5---5--5--5----5----|
E|-6--6--6--6--6----6---------|----------------------------|---------------------------------|


E|----------------------------|-------------------------------|----------------------------10---|
B|----------------------------|-------------------------------|-------------11--------11---10---|
G|------------------7----10---|-------------10-----------10---|-------------10--------10---7----|
D|-------------7----7----10---|-------------10------10---8----|-8--8--8--8--8---8--8--8---------|
A|-5--5--5--5--5----5----8----|-8--8--8--8--8---8---8---------|---------------------------------|
E|----------------------------|-------------------------------|---------------------------------|


E|-12---13---15---17---|-13----------15---15---13---|-15----------13---10---13---|
B|-11---13---15---15---|-15----------15---13---11---|-11----------15---11---10---|
G|----------------7----|-------------7----7---------|----------------------------|
D|----------------7----|-------------7----7----8----|-------------8----8----10---|
A|----------------5----|-5--5--5--5--5----5----8----|-------------8----8----8----|
E|---------------------|-----------------------6----|-6--6--6--6--6----6---------|


E|-13----------13---13---10---|-------------10--15----17--15--13---|-------------17--------17---|
B|-13----------10---8----10---|-------------10--15----17--15--15---|-------------18--------18---|
G|----------------------------|------------------------------------|------------------7----10---|
D|-------------10---10---7----|-------------7---------7-------7----|-------------7----7----10---|
A|-8--8--8--8--8----8----5----|-5--5--5--5--5---5--5--5-------5----|-5--5--5--5--5----5----8----|
E|----------------------------|------------------------------------|----------------------------|


E|-------------20-----------22---|-------------18-------------17---|--------17---|
B|-------------22-----------23---|-------------18-------------15---|--------15---|
G|-------------10-----------10---|-------------10--------10---7----|--------7----|
D|-------------10------10---8----|-8--8--8--8--8---8--8--8---------|-------------|
A|-8--8--8--8--8---8---8---------|---------------------------------|-------------|
E|-------------------------------|---------------------------------|-------------|


E|--------17---|--------17---|--------17---|
B|--------15---|--------15---|--------15---|
G|--------7----|--------7----|--------7----|
D|-------------|-------------|-------------|
A|-------------|-------------|-------------|
E|-------------|-------------|-------------|





Track 5: Flute

E|--------|--------|--------|--------|--------|--------|--------|--------|--------|
B|--------|--------|--------|--------|--------|--------|--------|--------|--------|
G|--------|--------|--------|--------|--------|--------|--------|--------|--------|
D|--------|--------|--------|--------|--------|--------|--------|--------|--------|
A|--------|--------|--------|--------|--------|--------|--------|--------|--------|
E|--------|--------|--------|--------|--------|--------|--------|--------|--------|


E|--------|--------|--------|--------|--------|--------|--------|--------|--------|
B|--------|--------|--------|--------|--------|--------|--------|--------|--------|
G|--------|--------|--------|--------|--------|--------|--------|--------|--------|
D|--------|--------|--------|--------|--------|--------|--------|--------|--------|
A|--------|--------|--------|--------|--------|--------|--------|--------|--------|
E|--------|--------|--------|--------|--------|--------|--------|--------|--------|


E|--------|--------|--------|--------|--------|--------|--------|--------|--------|
B|--------|--------|--------|--------|--------|--------|--------|--------|--------|
G|--------|--------|--------|--------|--------|--------|--------|--------|--------|
D|--------|--------|--------|--------|--------|--------|--------|--------|--------|
A|--------|--------|--------|--------|--------|--------|--------|--------|--------|
E|--------|--------|--------|--------|--------|--------|--------|--------|--------|


E|--------|--------|--------|--------|--------|--------|--------|--------|--------|
B|--------|--------|--------|--------|--------|--------|--------|--------|--------|
G|--------|--------|--------|--------|--------|--------|--------|--------|--------|
D|--------|--------|--------|--------|--------|--------|--------|--------|--------|
A|--------|--------|--------|--------|--------|--------|--------|--------|--------|
E|--------|--------|--------|--------|--------|--------|--------|--------|--------|


E|--------|--------|--------|--------|--------|--------|--------|--------|--------|
B|--------|--------|--------|--------|--------|--------|--------|--------|--------|
G|--------|--------|--------|--------|--------|--------|--------|--------|--------|
D|--------|--------|--------|--------|--------|--------|--------|--------|--------|
A|--------|--------|--------|--------|--------|--------|--------|--------|--------|
E|--------|--------|--------|--------|--------|--------|--------|--------|--------|


E|--------|--------|--------|--------|--------|--------|--------|--------|--------|
B|--------|--------|--------|--------|--------|--------|--------|--------|--------|
G|--------|--------|--------|-7------|-7------|--------|--------|--------|--------|
D|--------|--------|--------|-7------|-7------|--------|--------|--------|--------|
A|--------|--------|--------|-5------|-5------|--------|--------|--------|--------|
E|--------|--------|--------|--------|--------|--------|--------|--------|--------|


E|--------|--------|--------|--------|--------|--------|--------|--------|--------|
B|--------|--------|--------|--------|--------|--------|--------|--------|--------|
G|--------|--------|--------|--------|--------|--------|--------|--------|--------|
D|--------|--------|--------|--------|--------|--------|--------|--------|--------|
A|--------|--------|--------|--------|--------|--------|--------|--------|--------|
E|--------|--------|--------|--------|--------|--------|--------|--------|--------|


E|--------|--------|--------|--------|--------|--------|--------|--------|--------|
B|--------|--------|--------|--------|--------|--------|--------|--------|--------|
G|--------|--------|--------|--------|--------|--------|--------|--------|--------|
D|--------|--------|--------|--------|--------|--------|--------|--------|--------|
A|--------|--------|--------|--------|--------|--------|--------|--------|--------|
E|--------|--------|--------|--------|--------|--------|--------|--------|--------|


E|--------|--------|--------|--------|--------|--------|--------|--------|--------|
B|--------|--------|--------|--------|--------|--------|--------|--------|--------|
G|--------|--------|--------|--------|--------|--------|--------|--------|--------|
D|--------|--------|--------|--------|--------|--------|--------|--------|--------|
A|--------|--------|--------|--------|--------|--------|--------|--------|--------|
E|--------|--------|--------|--------|--------|--------|--------|--------|--------|


E|--------|--------|--------|--------|--------|--------|--------|--------|--------|
B|--------|--------|--------|--------|--------|--------|--------|--------|--------|
G|--------|--------|--------|--------|--------|--------|--------|--------|--------|
D|--------|--------|--------|--------|--------|--------|--------|--------|--------|
A|--------|--------|--------|--------|--------|--------|--------|--------|--------|
E|--------|--------|--------|--------|--------|--------|--------|--------|--------|


E|--------|--------|--------|--------|--------|--------|--------|--------|--------|
B|--------|--------|--------|--------|--------|--------|--------|--------|--------|
G|--------|--------|--------|--------|--------|--------|--------|--------|--------|
D|--------|--------|--------|--------|--------|--------|--------|--------|--------|
A|--------|--------|--------|--------|--------|--------|--------|--------|--------|
E|--------|--------|--------|--------|--------|--------|--------|--------|--------|


E|--------|--------|--------|--------|--------|--------|--------|--------|--------|
B|--------|--------|--------|--------|--------|--------|--------|--------|--------|
G|--------|--------|--------|--------|--------|--------|--------|--------|--------|
D|--------|--------|--------|--------|--------|--------|--------|--------|--------|
A|--------|--------|--------|--------|--------|--------|--------|--------|--------|
E|--------|--------|--------|--------|--------|--------|--------|--------|--------|


E|--------|--------|--------|--------|--------|--------|--------|--------|--------|
B|--------|--------|--------|--------|--------|--------|--------|--------|--------|
G|--------|--------|--------|--------|--------|--------|--------|--------|--------|
D|--------|--------|--------|--------|--------|--------|--------|--------|--------|
A|--------|--------|--------|--------|--------|--------|--------|--------|--------|
E|--------|--------|--------|--------|--------|--------|--------|--------|--------|


E|--------|--------|--------|--------|--------|--------|--------|--------|--------|
B|--------|--------|--------|--------|--------|--------|--------|--------|--------|
G|--------|--------|--------|--------|--------|--------|--------|--------|--------|
D|--------|--------|--------|--------|--------|--------|--------|--------|--------|
A|--------|--------|--------|--------|--------|--------|--------|--------|--------|
E|--------|--------|--------|--------|--------|--------|--------|--------|--------|


E|--------|--------|--------|--------|--------|--------|--------|--------|--------|
B|--------|--------|--------|--------|--------|--------|--------|--------|--------|
G|--------|--------|--------|--------|--------|--------|--------|--------|--------|
D|--------|--------|--------|--------|--------|--------|--------|--------|--------|
A|--------|--------|--------|--------|--------|--------|--------|--------|--------|
E|--------|--------|--------|--------|--------|--------|--------|--------|--------|


E|--------|--------|--------|--------|--------|--------|--------|--------|--------|
B|--------|--------|--------|--------|--------|--------|--------|--------|--------|
G|--------|--------|--------|--------|--------|--------|--------|--------|--------|
D|--------|--------|--------|--------|--------|--------|--------|--------|--------|
A|--------|--------|--------|--------|--------|--------|--------|--------|--------|
E|--------|--------|--------|--------|--------|--------|--------|--------|--------|


E|--------|--------|--------|--------|--------|--------|--------|--------|--------|
B|--------|--------|--------|--------|--------|--------|--------|--------|--------|
G|--------|--------|--------|--------|--------|--------|--------|--------|--------|
D|--------|--------|--------|--------|--------|--------|--------|--------|--------|
A|--------|--------|--------|--------|--------|--------|--------|--------|--------|
E|--------|--------|--------|--------|--------|--------|--------|--------|--------|


E|--------|--------|--------|--------|--------|--------|--------|--------|--------|
B|--------|--------|--------|--------|--------|--------|--------|--------|--------|
G|--------|--------|--------|--------|--------|--------|--------|--------|--------|
D|--------|--------|--------|--------|--------|--------|--------|--------|--------|
A|--------|--------|--------|--------|--------|--------|--------|--------|--------|
E|--------|--------|--------|--------|--------|--------|--------|--------|--------|


E|--------|--------|--------|--------|--------|--------|--------|--------|--------|
B|--------|--------|--------|--------|--------|--------|--------|--------|--------|
G|--------|--------|--------|--------|--------|--------|--------|--------|--------|
D|--------|--------|--------|--------|--------|--------|--------|--------|--------|
A|--------|--------|--------|--------|--------|--------|--------|--------|--------|
E|--------|--------|--------|--------|--------|--------|--------|--------|--------|


E|--------|--------|--------|--------|--------|--------|
B|--------|--------|--------|--------|--------|--------|
G|--------|--------|--------|--------|--------|--------|
D|--------|--------|--------|--------|--------|--------|
A|--------|--------|--------|--------|--------|--------|
E|--------|--------|--------|--------|--------|--------|





Track 6: Guitar 

E|--------|--------|--------|--------|--------|--------|--------|--------|--------|
B|--------|--------|--------|--------|--------|--------|--------|--------|--------|
G|--------|--------|--------|--------|--------|--------|--------|--------|--------|
D|--------|--------|--------|--------|--------|--------|--------|--------|--------|
A|--------|--------|--------|--------|--------|--------|--------|--------|--------|
E|--------|--------|--------|--------|--------|--------|--------|--------|--------|


E|--------|--------|--------|--------|--------|--------|--------|--------|--------|
B|--------|--------|--------|--------|--------|--------|--------|--------|--------|
G|--------|--------|--------|--------|--------|--------|--------|--------|--------|
D|--------|--------|--------|--------|--------|--------|--------|--------|--------|
A|--------|--------|--------|--------|--------|--------|--------|--------|--------|
E|--------|--------|--------|--------|--------|--------|--------|--------|--------|


E|--------|--------|--------|--------|--------|--------|--------|--------|--------|
B|--------|--------|--------|--------|--------|--------|--------|--------|--------|
G|--------|--------|--------|--------|--------|--------|--------|--------|--------|
D|--------|--------|--------|--------|--------|--------|--------|--------|--------|
A|--------|--------|--------|--------|--------|--------|--------|--------|--------|
E|--------|--------|--------|--------|--------|--------|--------|--------|--------|


E|--------|--------|--------|--------|--------|--------|--------|--------|--------|
B|--------|--------|--------|--------|--------|--------|--------|--------|--------|
G|--------|--------|--------|--------|--------|--------|--------|--------|--------|
D|--------|--------|--------|--------|--------|--------|--------|--------|--------|
A|--------|--------|--------|--------|--------|--------|--------|--------|--------|
E|--------|--------|--------|--------|--------|--------|--------|--------|--------|


E|--------|--------|--------|--------|--------|--------|--------|--------|--------|
B|--------|--------|--------|--------|--------|--------|--------|--------|--------|
G|--------|--------|--------|--------|--------|--------|--------|--------|--------|
D|--------|--------|--------|--------|--------|--------|--------|--------|--------|
A|--------|--------|--------|--------|--------|--------|--------|--------|--------|
E|--------|--------|--------|--------|--------|--------|--------|--------|--------|


E|--------|--------|--------|--------|--------|---------------------------------------------------|
B|--------|--------|--------|--------|--------|---------------------------------------------------|
G|--------|--------|--------|--------|--------|-7------------7---7---7---7------------7---7---7---|
D|--------|--------|--------|--------|--------|-7------------7---7---7---7------------7---7---7---|
A|--------|--------|--------|--------|--------|-5---5--5--5--5---5---5---5---5--5--5--5---5---5---|
E|--------|--------|--------|--------|--------|---------------------------------------------------|


E|---------------------------------------------------|--------|--------|--------|--------|
B|---------------------------------------------------|--------|--------|--------|--------|
G|-7------------7---7---7---7------------7---7---7---|--------|--------|--------|--------|
D|-7------------7---7---7---7------------7---7---7---|--------|--------|--------|--------|
A|-5---5--5--5--5---5---5---5---5--5--5--5---5---5---|--------|--------|--------|--------|
E|---------------------------------------------------|--------|--------|--------|--------|


E|--------|--------|--------|--------|--------|--------|--------|--------|--------|
B|--------|--------|--------|--------|--------|--------|--------|--------|--------|
G|--------|--------|--------|--------|--------|--------|--------|--------|--------|
D|--------|--------|--------|--------|--------|--------|--------|--------|--------|
A|--------|--------|--------|--------|--------|--------|--------|--------|--------|
E|--------|--------|--------|--------|--------|--------|--------|--------|--------|


E|--------|--------|--------|--------|--------|--------|--------|--------|--------|
B|--------|--------|--------|--------|--------|--------|--------|--------|--------|
G|--------|--------|--------|--------|--------|--------|--------|--------|--------|
D|--------|--------|--------|--------|--------|--------|--------|--------|--------|
A|--------|--------|--------|--------|--------|--------|--------|--------|--------|
E|--------|--------|--------|--------|--------|--------|--------|--------|--------|


E|--------|--------|--------|--------|--------|--------|--------|--------|--------|
B|--------|--------|--------|--------|--------|--------|--------|--------|--------|
G|--------|--------|--------|--------|--------|--------|--------|--------|--------|
D|--------|--------|--------|--------|--------|--------|--------|--------|--------|
A|--------|--------|--------|--------|--------|--------|--------|--------|--------|
E|--------|--------|--------|--------|--------|--------|--------|--------|--------|


E|--------|--------|--------|--------|--------|--------|--------|--------|--------|
B|--------|--------|--------|--------|--------|--------|--------|--------|--------|
G|--------|--------|--------|--------|--------|--------|--------|--------|--------|
D|--------|--------|--------|--------|--------|--------|--------|--------|--------|
A|--------|--------|--------|--------|--------|--------|--------|--------|--------|
E|--------|--------|--------|--------|--------|--------|--------|--------|--------|


E|--------|--------|--------|--------|--------|--------|--------|--------|--------|
B|--------|--------|--------|--------|--------|--------|--------|--------|--------|
G|--------|--------|--------|--------|--------|--------|--------|--------|--------|
D|--------|--------|--------|--------|--------|--------|--------|--------|--------|
A|--------|--------|--------|--------|--------|--------|--------|--------|--------|
E|--------|--------|--------|--------|--------|--------|--------|--------|--------|


E|--------|--------|--------|--------|--------|--------|--------|--------|--------|
B|--------|--------|--------|--------|--------|--------|--------|--------|--------|
G|--------|--------|--------|--------|--------|--------|--------|--------|--------|
D|--------|--------|--------|--------|--------|--------|--------|--------|--------|
A|--------|--------|--------|--------|--------|--------|--------|--------|--------|
E|--------|--------|--------|--------|--------|--------|--------|--------|--------|


E|--------|--------|--------|--------|--------|--------|--------|--------|--------|
B|--------|--------|--------|--------|--------|--------|--------|--------|--------|
G|--------|--------|--------|--------|--------|--------|--------|--------|--------|
D|--------|--------|--------|--------|--------|--------|--------|--------|--------|
A|--------|--------|--------|--------|--------|--------|--------|--------|--------|
E|--------|--------|--------|--------|--------|--------|--------|--------|--------|


E|--------|--------|--------|--------|--------|--------|--------|--------|--------|
B|--------|--------|--------|--------|--------|--------|--------|--------|--------|
G|--------|--------|--------|--------|--------|--------|--------|--------|--------|
D|--------|--------|--------|--------|--------|--------|--------|--------|--------|
A|--------|--------|--------|--------|--------|--------|--------|--------|--------|
E|--------|--------|--------|--------|--------|--------|--------|--------|--------|


E|--------|--------|--------|--------|--------|--------|--------|--------|--------|
B|--------|--------|--------|--------|--------|--------|--------|--------|--------|
G|--------|--------|--------|--------|--------|--------|--------|--------|--------|
D|--------|--------|--------|--------|--------|--------|--------|--------|--------|
A|--------|--------|--------|--------|--------|--------|--------|--------|--------|
E|--------|--------|--------|--------|--------|--------|--------|--------|--------|


E|--------|--------|--------|--------|--------|--------|--------|--------|--------|
B|--------|--------|--------|--------|--------|--------|--------|--------|--------|
G|--------|--------|--------|--------|--------|--------|--------|--------|--------|
D|--------|--------|--------|--------|--------|--------|--------|--------|--------|
A|--------|--------|--------|--------|--------|--------|--------|--------|--------|
E|--------|--------|--------|--------|--------|--------|--------|--------|--------|


E|--------|--------|--------|--------|--------|--------|--------|--------|--------|
B|--------|--------|--------|--------|--------|--------|--------|--------|--------|
G|--------|--------|--------|--------|--------|--------|--------|--------|--------|
D|--------|--------|--------|--------|--------|--------|--------|--------|--------|
A|--------|--------|--------|--------|--------|--------|--------|--------|--------|
E|--------|--------|--------|--------|--------|--------|--------|--------|--------|


E|--------|--------|--------|--------|--------|--------|--------|--------|--------|
B|--------|--------|--------|--------|--------|--------|--------|--------|--------|
G|--------|--------|--------|--------|--------|--------|--------|--------|--------|
D|--------|--------|--------|--------|--------|--------|--------|--------|--------|
A|--------|--------|--------|--------|--------|--------|--------|--------|--------|
E|--------|--------|--------|--------|--------|--------|--------|--------|--------|


E|--------|--------|--------|--------|--------|--------|--------|--------|--------|
B|--------|--------|--------|--------|--------|--------|--------|--------|--------|
G|--------|--------|--------|--------|--------|--------|--------|--------|--------|
D|--------|--------|--------|--------|--------|--------|--------|--------|--------|
A|--------|--------|--------|--------|--------|--------|--------|--------|--------|
E|--------|--------|--------|--------|--------|--------|--------|--------|--------|


E|--------|--------|--------|--------|
B|--------|--------|--------|--------|
G|--------|--------|--------|--------|
D|--------|--------|--------|--------|
A|--------|--------|--------|--------|
E|--------|--------|--------|--------|





Track 7: Guitar

E|--------|--------|--------|--------|--------|--------|--------|--------|--------|
B|--------|--------|--------|--------|--------|--------|--------|--------|--------|
G|--------|--------|--------|--------|--------|--------|--------|--------|--------|
D|--------|--------|--------|--------|--------|--------|--------|--------|--------|
A|--------|--------|--------|--------|--------|--------|--------|--------|--------|
E|--------|--------|--------|--------|--------|--------|--------|--------|--------|


E|--------|--------|--------|--------|--------|--------|--------|--------|--------|
B|--------|--------|--------|--------|--------|--------|--------|--------|--------|
G|--------|--------|--------|--------|--------|--------|--------|--------|--------|
D|--------|--------|--------|--------|--------|--------|--------|--------|--------|
A|--------|--------|--------|--------|--------|--------|--------|--------|--------|
E|--------|--------|--------|--------|--------|--------|--------|--------|--------|


E|--------|--------|--------|--------|--------|--------|--------|--------|--------|
B|--------|--------|--------|--------|--------|--------|--------|--------|--------|
G|--------|--------|--------|--------|--------|--------|--------|--------|--------|
D|--------|--------|--------|--------|--------|--------|--------|--------|--------|
A|--------|--------|--------|--------|--------|--------|--------|--------|--------|
E|--------|--------|--------|--------|--------|--------|--------|--------|--------|


E|--------|--------|--------|--------|--------|--------|--------|--------|--------|
B|--------|--------|--------|--------|--------|--------|--------|--------|--------|
G|--------|--------|--------|--------|--------|--------|--------|--------|--------|
D|--------|--------|--------|--------|--------|--------|--------|--------|--------|
A|--------|--------|--------|--------|--------|--------|--------|--------|--------|
E|--------|--------|--------|--------|--------|--------|--------|--------|--------|


E|--------|--------|--------|--------|--------|--------|--------|--------|--------|
B|--------|--------|--------|--------|--------|--------|--------|--------|--------|
G|--------|--------|--------|--------|--------|--------|--------|--------|--------|
D|--------|--------|--------|--------|--------|--------|--------|--------|--------|
A|--------|--------|--------|--------|--------|--------|--------|--------|--------|
E|--------|--------|--------|--------|--------|--------|--------|--------|--------|


E|--------|--------|--------|--------|--------|--------|--------|--------|--------|
B|--------|--------|--------|--------|--------|--------|--------|--------|--------|
G|--------|--------|--------|--------|--------|--------|--------|--------|--------|
D|--------|--------|--------|--------|--------|--------|--------|--------|--------|
A|--------|--------|--------|--------|--------|--------|--------|--------|--------|
E|--------|--------|--------|--------|--------|--------|--------|--------|--------|


E|--------|--------|--------|--------|--------|--------|--------|--------|--------|
B|--------|--------|--------|--------|--------|--------|--------|--------|--------|
G|--------|--------|--------|--------|--------|--------|--------|--------|--------|
D|--------|--------|--------|--------|--------|--------|--------|--------|--------|
A|--------|--------|--------|--------|--------|--------|--------|--------|--------|
E|--------|--------|--------|--------|--------|--------|--------|--------|--------|


E|--------|--------|--------|-------------|-------------|-------------|-------------|
B|--------|--------|--------|-------------|-------6-----|-5-----5-----|-------10----|
G|--------|--------|--------|-------------|-7-----7-----|-5-----5-----|-10----10----|
D|--------|--------|--------|-------------|-7-----7-----|-5-----5-----|-10----10----|
A|--------|--------|--------|--------12---|-5-----5-----|-3-----3-----|-8-----8-----|
E|--------|--------|--------|--------10---|-------------|-------------|-------------|


E|-7------|-------------|-------------|-------------|-7------|-----------------------------|
B|-8------|-------6-----|-5-----5-----|-------10----|-8------|-----------------------------|
G|-7------|-7-----7-----|-5-----5-----|-10----10----|-7------|-----------------------------|
D|-5------|-7-----7-----|-5-----5-----|-10----10----|-5------|-7---------7---7-------------|
A|--------|-5-----5-----|-3-----3-----|-8-----8-----|--------|-7---------7---7---5----7----|
E|--------|-------------|-------------|-------------|--------|-5---5--5--5---5---3----5----|


E|--------------------------------|-----------------------------|--------------------------------|
B|--------------------------------|-----------------------------|--------------------------------|
G|--------------------------------|-10--------------------------|-10-----------------------------|
D|-7---------7---7----------------|-10--------10--10--8----10---|-10--------10--10--8----10--12--|
A|-7---------7---7---5----7---10--|-8---8--8--8---8---6----8----|-8---8--8--8---8---6----8---10--|
E|-5---5--5--5---5---3----5---8---|-----------------------------|--------------------------------|


E|-----------------------------|--------------------------------|--------------------------------|
B|-----------------------------|--------------------------------|--------------------------------|
G|-----------------------------|--------------------------------|--------------------------------|
D|-7---------7---7-------------|-7---------7---7----------------|------------------------10--10--|
A|-7---------7---7---5----7----|-7---------7---7---5----7---10--|-10--------10--10--8----10--10--|
E|-5---5--5--5---5---3----5----|-5---5--5--5---5---3----5---8---|-8---8--8--8---8---6----8---8---|


E|-----------------------------------|--------------------------------------------|
B|-----------------------------------|--------------------------------------------|
G|-----------------------------------|--------------------------------------------|
D|-10----------------------------10--|-7----7---7------------------------5--7--5--|
A|-10--------10--10--8---12--12--8---|-5----5---5---5-----------5--7--8-----------|
E|-8---8--8--8---8---6---10--10------|-----------------8--7--8--------------------|


E|--------------------------------------------|--------------------------------------------|
B|--------------------------------------------|--------------------------------------------|
G|--------------------------------------------|--------------------------------------------|
D|------10--10--------------------7-----------|-7----7---7------------------------5--7--5--|
A|-8----8---8---8--7-----7--8--10----10-8--7--|-5----5---5---5-----------5--7--8-----------|
E|--------------------10----------------------|-----------------8--7--8--------------------|


E|--------------------------------------------------|----------------------------|
B|--------------------------------------------------|----------------------------|
G|--------------------------------------------------|-7----------------7----7----|
D|------10--10--------------------10-9--7-----------|-7----------------7----7----|
A|-8----8---8---8--7-----7--8--10----------10-8--7--|-5----5--5--5--5--5----5----|
E|--------------------10----------------------------|----------------------------|


E|----------------------------|----------------------------|---------------------------------|
B|----------------------------|----------------------------|---------------------------------|
G|----------------------------|-10---------------10---10---|---------------------------------|
D|-8----------------8----8----|-10---------------10---10---|-7----------------7---------7----|
A|-8----------------8----8----|-8----8--8--8--8--8----8----|-5----5--5--5--5--5---5--5--5----|
E|-6----6--6--6--6--6----6----|----------------------------|---------------------------------|


E|----------------------------|-------------------------------|---------------------------------|
B|----------------------------|-------------------------------|------------------11--------11---|
G|-----------------------7----|-10---------------10-----------|-10---------------10--------10---|
D|-7----------------7----7----|-10---------------10------10---|-8----8--8--8--8--8---8--8--8----|
A|-5----5--5--5--5--5----5----|-8----8--8--8--8--8---8---8----|---------------------------------|
E|----------------------------|-------------------------------|---------------------------------|


E|-10---12---13---15---|-17----15-13-12-13----|-15----13-12-10-12--13--15---|-17----15-13-12-13----|
B|-10---11---13---15---|-17----15-13-12-13----|-15----13-12-10-12--13--15---|-17----15-13-12-13----|
G|-7-------------------|----------------------|-----------------------------|----------------------|
D|---------------------|----------------------|-----------------------------|----------------------|
A|---------------------|----------------------|-----------------------------|----------------------|
E|---------------------|----------------------|-----------------------------|----------------------|


E|-15----13-12-10-12---13---|-13-----|-17-----|-12-----|-17-----|-13-----|-17-----|
B|-15----13-12-10-12---13---|-15-----|-18-----|-13-----|-17-----|-15-----|-18-----|
G|--------------------------|--------|--------|--------|--------|--------|--------|
D|--------------------------|--------|--------|--------|--------|--------|--------|
A|--------------------------|--------|--------|--------|--------|--------|--------|
E|--------------------------|--------|--------|--------|--------|--------|--------|


E|-17-----|-22-----|-22----------|-------------|-------------|-------------|-7------|
B|-18-----|-22-----|-22----------|-------6-----|-5-----5-----|-------10----|-8------|
G|--------|--------|-------------|-7-----7-----|-5-----5-----|-10----10----|-7------|
D|--------|--------|-------------|-7-----7-----|-5-----5-----|-10----10----|-5------|
A|--------|--------|--------12---|-5-----5-----|-3-----3-----|-8-----8-----|--------|
E|--------|--------|--------10---|-------------|-------------|-------------|--------|


E|-------------|-------------|-------------|-7------|------------------------------------------|
B|-------6-----|-5-----5-----|-------10----|-8------|------------------------------------------|
G|-7-----7-----|-5-----5-----|-10----10----|-7------|------------------------------------------|
D|-7-----7-----|-5-----5-----|-10----10----|-5------|------------------------------------------|
A|-5-----5-----|-3-----3-----|-8-----8-----|--------|-7---7---7---7---5--5--8-8-8--7--5--------|
E|-------------|-------------|-------------|--------|-5---5---5---5----------------------8--7--|


E|------------------------------------------|------------------------------------------|
B|------------------------------------------|------------------------------------------|
G|------------------------------------------|------------------------------------------|
D|------------------------------------------|-10--10--10--10--8--8--121212-10-8--------|
A|-7---7---7---7---5--5--8-8-8--7--5-----5--|-8---8---8---8----------------------12-10-|
E|-5---5---5---5----------------------8-----|------------------------------------------|


E|------------------------------------------------|------------------------------------------|
B|------------------------------------------------|------------------------------------------|
G|------------------------------------------------|------------------------------------------|
D|-10--10--10--10--8--8--121212-10-8--------------|------------------------------------------|
A|-8---8---8---8----------------------12-10-8-----|-7---7---7---7---5--5--8-8-8--7--5--------|
E|---------------------------------------------12-|-5---5---5---5----------------------8--7--|


E|------------------------------------------|------------------------------------------|
B|------------------------------------------|------------------------------------------|
G|------------------------------------------|------------------------------------------|
D|------------------------------------------|------------------------------------------|
A|-7---7---7---7---5--5--8-8-8--7--5--------|-10--10--10--10--8--8--121212-10-8--------|
E|-5---5---5---5----------------------8--7--|-8---8---8---8----------------------12-10-|


E|----------------------------------------|-------------------------------------------|
B|----------------------------------------|-------------------------------------------|
G|----------------------------------------|-------------------------------------5-----|
D|----------------------------------------|-7-----7---7---------5-7---5---7--9-----9--|
A|-10--10--10--10--8--8--121212-12-10-8---|-5--5--5---5---5-7-8---5-------------------|
E|-8---8---8---8--------------------------|-------------------------------------------|


E|-------------------------------------------|-------------------------------------------|
B|-------------------------------------------|-------------------------------------------|
G|-------------------------------5-----------|-------------------------------------5-----|
D|-10--------10------7-8-10--9------9--7--5--|-7-----7---7---------5-7---5---7--9-----9--|
A|-8---8--8--8---8-10----8---7---------------|-5--5--5---5---5-7-8---5-------------------|
E|-------------------------------------------|-------------------------------------------|


E|-------------------------------------------------|-------------|-----------------|
B|-------------------------------------------------|-------------|-----------------|
G|-------------------------------9--7--5-----------|-7-----7-----|-----------------|
D|-10--------10------7-8-10--9------------8--7--5--|-7-----7-----|-8-----8----8----|
A|-8---8--8--8---8-10----8---7---------------------|-5-----5-----|-8-----8----8----|
E|-------------------------------------------------|-------------|-6-----6----6----|


E|-------------|-------------|-------------|-----------------|-------------|--------|
B|-------------|-------------|-------------|-----------------|-------------|--------|
G|-10----10----|-7-----7-----|-7-----7-----|-10----10---10---|-------------|-7------|
D|-10----10----|-7-----7-----|-7-----7-----|-10----10---10---|-8-----8-----|-7------|
A|-8-----8-----|-5-----5-----|-5-----5-----|-8-----8----8----|-8-----8-----|-5------|
E|-------------|-------------|-------------|-----------------|-6-----6-----|--------|


E|--------|--------|--------|------19-17-15-17--19--17-15-13-----19--|-17--15--17---17--15--17--15--|
B|--------|--------|--------|--------------------------------17------|------------------------------|
G|--------|--------|--------|----------------------------------------|------------------------------|
D|-7------|--------|--------|----------------------------------------|------------------------------|
A|-7------|--------|--------|----------------------------------------|------------------------------|
E|-5------|--------|--------|----------------------------------------|------------------------------|


E|-17-17-15--13--------------13-15-13--|-15-15-13--12--------------12-13-12--|-13-13-12--10--------------10-12-10--|
B|---------------17--17--17------------|---------------15--15--15------------|---------------13--13--13------------|
G|-------------------------------------|-------------------------------------|-------------------------------------|
D|-------------------------------------|-------------------------------------|-------------------------------------|
A|-------------------------------------|-------------------------------------|-------------------------------------|
E|-------------------------------------|-------------------------------------|-------------------------------------|


E|-12-12-12--13-13-13--15-17-18--18-20-18--|-20-20-19--17--------------17-19-17--|
B|-----------------------------------------|---------------20--20--20------------|
G|-----------------------------------------|-------------------------------------|
D|-----------------------------------------|-------------------------------------|
A|-----------------------------------------|-------------------------------------|
E|-----------------------------------------|-------------------------------------|


E|-18-18-17--15--------------15-17-15--|-17-17-15--13--------------13-15-13--|-15-17-15--17-19-17--19-20-19--20-22-20--|
B|---------------18--18--18------------|---------------17--17--17------------|-----------------------------------------|
G|-------------------------------------|-------------------------------------|-----------------------------------------|
D|-------------------------------------|-------------------------------------|-----------------------------------------|
A|-------------------------------------|-------------------------------------|-----------------------------------------|
E|-------------------------------------|-------------------------------------|-----------------------------------------|


E|-20---24----24-24-22-20-|----20----20-24-24-22-20----20----20-22-20-18----|-------------22-20-18----------------29-27-25-24-|
B|------------------------|-23----22----------------23----22-------------22-|-20-22-18-22----------22-20-22-18-22-------------|
G|------------------------|-------------------------------------------------|-------------------------------------------------|
D|------------7-----------|-------7-----7-----------------7-----3-----------|-------3-----------3-----------3-----------------|
A|------------5-----------|-5--5--5-----5-----5--5--5--5--5-----1-----1--1--|-1--1--1-----1--1--1-----1--1--1-----3-----------|
E|------------------------|-------------------------------------------------|-------------------------------------1-----1--1--|


E|----24----24-29-27-25-24----24----24-24-24-22-20-|----20----20-24-24-22-20----20----20-24-22-20----|
B|-27----25----------------27----25----------------|-23----22----------------23----22-------------23-|
G|-------------------------------------------------|-------------------------------------------------|
D|-------------------------------------7-----------|-------7-----7-----------------7-----5-----------|
A|-------------3-----------------3-----5-----5--5--|-5--5--5-----5-----5--5--5--5--5-----3-----3--3--|
E|-1--1--1--1--1-----1--1--1--1--1-----------------|-------------------------------------------------|


E|-------------24-22-20----------------20-18-17----|-------------20-18-17----------------18-17-15----|
B|-22-23-20-23----------23-22-23-20-23----------20-|-18-20-17-20----------20-18-20-17-20----------18-|
G|-------------------------------------------------|-------------------------------------------------|
D|-------5-----5-----------------5-----------------|-------------------------------------------------|
A|-3--3--3-----3-----3--3--3--3--3-----7-----------|-------7-----7-----------------7-----5-----------|
E|-------------------------------------5-----5--5--|-5--5--5-----5-----5--5--5--5--5-----3-----3--3--|


E|-------------18-17-15----------------17-15-13----|----------15-17-19-17-15-------------------------13---|
B|-17-18-15-18----------18-17-18-15-18----------17-|-15-17-18----------------18-17-15----------15-17------|
G|-------------------------------------------------|----------------------------------17-15-17-------7----|
D|-------------------------------------------------|-------------------------------------------------7----|
A|-------5-----5-----------------5-----3-----------|-------3-----3--------5--------7--------10-------5----|
E|-3--3--3-----3-----3--3--3--3--3-----1-----1--1--|-1--1--1-----1--------3--------5--------8-------------|


E|-----------------|---------------------|-----------------|-----------------|-----------------|
B|-----------------|---------------------|-----------------|-----------------|-----------------|
G|------7----------|----------------10---|------10----7----|------7-----7----|------7-----10---|
D|------7-----8----|------8----8----10---|------10----7----|------7-----7----|------7-----10---|
A|------5-----8----|------8----8----8----|------8-----5----|------5-----5----|------5-----8----|
E|------------6----|------6----6---------|-----------------|-----------------|-----------------|


E|---------------------|-----------------|-------------|-----------------|---------------------|
B|---------------------|-----------------|-------------|-----------------|---------------------|
G|------10---10--------|------------7----|--------7----|------7----------|----------------10---|
D|------10---10---8----|------8-----7----|--------7----|------7-----8----|------8----8----10---|
A|------8----8----8----|------8-----5----|--------5----|------5-----8----|------8----8----8----|
E|----------------6----|------6----------|-------------|------------6----|------6----6---------|


E|-----------------|-----------------|-----------------|---------------------|-----------------|
B|-----------------|-----------------|-----------------|---------------------|-----------------|
G|------10----7----|------7-----7----|------7-----10---|------10---10--------|------------7----|
D|------10----7----|------7-----7----|------7-----10---|------10---10---8----|------8-----7----|
A|------8-----5----|------5-----5----|------5-----8----|------8----8----8----|------8-----5----|
E|-----------------|-----------------|-----------------|----------------6----|------6----------|


E|-------------|-------------|-------------|-------------|
B|-------------|-------------|-------------|-------------|
G|--------7----|--------7----|--------7----|--------7----|
D|--------7----|--------7----|--------7----|--------7----|
A|--------5----|--------5----|--------5----|--------5----|
E|-------------|-------------|-------------|-------------|





Track 8: Bassoon/English Horn

E|--------|--------|--------|--------|--------|--------|-------------|---------------------|
B|--------|--------|--------|--------|--------|--------|-------------|---------------------|
G|--------|--------|--------|--------|--------|--------|-------------|---------------------|
D|--------|--------|--------|--------|--------|--------|-------2-----|-2-------------------|
A|--------|--------|--------|--------|--------|--------|-0-----------|------2----3----0----|
E|--------|--------|--------|--------|--------|--------|-------------|---------------------|


E|-------------|-----------------|-----------------|-------------|--------|--------|
B|-------------|-----------------|-----------------|-------------|--------|--------|
G|-------------|------------0----|-----------------|-------------|--------|--------|
D|-2-----0-----|-------2---------|-3-----2---------|-0-----------|--------|--------|
A|-------------|-3---------------|-----------3-----|-------0-----|--------|--------|
E|-------------|-----------------|-----------------|-------------|--------|--------|


E|-------------|-------------|-----------------|-------------|-----------------|-----------------|
B|-------------|-------------|-----------------|-------------|-----------------|-----------------|
G|-------------|-------------|-----------------|-------------|------0----------|-----------------|
D|-------------|-------------|-----------2-----|-0-----------|-2---------3-----|-2---------------|
A|-------------|-7-----------|-3----0----------|-------3-----|-----------------|-------3----0----|
E|-------5-----|--------7----|-----------------|-------------|-----------------|-----------------|


E|-----------------|---------------------|---------------------|-----------------|
B|-----------------|---------------------|---------------------|-----------------|
G|-----------------|----------------2----|-0-------------------|-----------------|
D|-0---------------|---------------------|------3----2----2----|-0---------------|
A|-------0----3----|-2-----2---0---------|---------------------|------3----2-----|
E|-----------------|---------------------|---------------------|-----------------|


E|---------------------|-----------------|-----------------|---------------------|
B|---------------------|-----------------|-----------------|---------------------|
G|------2----0---------|-----------------|-----------------|---------------------|
D|----------------3----|-2-----0----2----|------------2----|-2----2----2----2----|
A|-0-------------------|-----------------|-2---------------|---------------------|
E|---------------------|-----------------|-----------------|---------------------|


E|-----------------|---------------------|---------------------|-------------|--------|
B|-----------------|---------------------|---------------------|-------------|--------|
G|-----------------|------2----2----2----|-2----2----------0---|-2-----------|--------|
D|-------0---2-----|---------------------|-----------3---------|-------2-----|--------|
A|-3---------------|-0-------------------|---------------------|-------------|--------|
E|-----------------|---------------------|---------------------|-------------|--------|


E|--------|--------|---------------------|-----------------|---------------------|
B|--------|--------|---------------------|-----------------|---------------------|
G|--------|--------|---------------------|-----------------|---------------------|
D|--------|--------|------2---------0----|-2---------------|-----------2---------|
A|--------|--------|-----------2---------|------3----2-----|-3----0---------2----|
E|--------|--------|---------------------|-----------------|---------------------|


E|-----------------|--------|--------|--------|---------------------|-----------------|
B|-----------------|--------|--------|--------|---------------------|-----------------|
G|-----------------|--------|--------|--------|---------------------|-----------------|
D|-------0---2-----|--------|--------|--------|------2---------0----|-2---------------|
A|-3---------------|--------|--------|--------|-----------2---------|------3----2-----|
E|-----------------|--------|--------|--------|---------------------|-----------------|


E|---------------------|-----------------|-----------------|-------------|--------|
B|---------------------|-----------------|-----------------|-------------|--------|
G|------2---------0----|-2---------------|-----------------|-------------|--------|
D|-2---------2---------|------3----2-----|------------0----|-------0-----|--------|
A|---------------------|-----------------|-0---------------|-0-----------|-0------|
E|---------------------|-----------------|-----------------|-------------|--------|


E|--------|-----------------|--------|--------|--------|--------|--------|--------|
B|--------|-----------------|--------|--------|--------|--------|--------|--------|
G|--------|-----------------|--------|--------|--------|--------|--------|--------|
D|-0------|-0---------------|--------|--------|--------|--------|--------|--------|
A|--------|-----------------|--------|--------|--------|--------|--------|--------|
E|--------|-----------------|--------|--------|--------|--------|--------|--------|


E|--------|--------|--------|--------|--------|--------|--------|--------|--------|
B|--------|--------|--------|--------|--------|--------|--------|--------|--------|
G|--------|--------|--------|--------|--------|--------|--------|--------|--------|
D|--------|--------|--------|--------|--------|--------|--------|--------|--------|
A|--------|--------|--------|--------|--------|--------|--------|--------|--------|
E|--------|--------|--------|--------|--------|--------|--------|--------|--------|


E|--------|--------|--------|--------|--------|--------|--------|--------|--------|
B|--------|--------|--------|--------|--------|--------|--------|--------|--------|
G|--------|--------|--------|--------|--------|--------|--------|--------|--------|
D|--------|--------|--------|--------|--------|--------|--------|--------|--------|
A|--------|--------|--------|--------|--------|--------|--------|--------|--------|
E|--------|--------|--------|--------|--------|--------|--------|--------|--------|


E|--------|--------|--------|--------|--------|--------|--------|--------|--------|
B|--------|--------|--------|--------|--------|--------|--------|--------|--------|
G|--------|--------|--------|--------|--------|--------|--------|--------|--------|
D|--------|--------|--------|--------|--------|--------|--------|--------|--------|
A|--------|--------|--------|--------|--------|--------|--------|--------|--------|
E|--------|--------|--------|--------|--------|--------|--------|--------|--------|


E|--------|--------|--------|--------|--------|--------|--------|--------|--------|
B|--------|--------|--------|--------|--------|--------|--------|--------|--------|
G|--------|--------|--------|--------|--------|--------|--------|--------|--------|
D|--------|--------|--------|--------|--------|--------|--------|--------|--------|
A|--------|--------|--------|--------|--------|--------|--------|--------|--------|
E|--------|--------|--------|--------|--------|--------|--------|--------|--------|


E|--------|--------|--------|--------|--------|--------|--------|--------|--------|
B|--------|--------|--------|--------|--------|--------|--------|--------|--------|
G|--------|--------|--------|--------|--------|--------|--------|--------|--------|
D|--------|--------|--------|--------|--------|--------|--------|--------|--------|
A|--------|--------|--------|--------|--------|--------|--------|--------|--------|
E|--------|--------|--------|--------|--------|--------|--------|--------|--------|


E|--------|--------|--------|--------|--------|--------|--------|--------|--------|
B|--------|--------|--------|--------|--------|--------|--------|--------|--------|
G|--------|--------|--------|--------|--------|--------|--------|--------|--------|
D|--------|--------|--------|--------|--------|--------|--------|--------|--------|
A|--------|--------|--------|--------|--------|--------|--------|--------|--------|
E|--------|--------|--------|--------|--------|--------|--------|--------|--------|


E|--------|--------|--------|--------|--------|--------|--------|--------|--------|
B|--------|--------|--------|--------|--------|--------|--------|--------|--------|
G|--------|--------|--------|--------|--------|--------|--------|--------|--------|
D|--------|--------|--------|--------|--------|--------|--------|--------|--------|
A|--------|--------|--------|--------|--------|--------|--------|--------|--------|
E|--------|--------|--------|--------|--------|--------|--------|--------|--------|


E|--------|--------|--------|--------|--------|--------|--------|--------|--------|
B|--------|--------|--------|--------|--------|--------|--------|--------|--------|
G|--------|--------|--------|--------|--------|--------|--------|--------|--------|
D|--------|--------|--------|--------|--------|--------|--------|--------|--------|
A|--------|--------|--------|--------|--------|--------|--------|--------|--------|
E|--------|--------|--------|--------|--------|--------|--------|--------|--------|


E|--------|--------|--------|--------|--------|--------|--------|--------|--------|
B|--------|--------|--------|--------|--------|--------|--------|--------|--------|
G|--------|--------|--------|--------|--------|--------|--------|--------|--------|
D|--------|--------|--------|--------|--------|--------|--------|--------|--------|
A|--------|--------|--------|--------|--------|--------|--------|--------|--------|
E|--------|--------|--------|--------|--------|--------|--------|--------|--------|


E|--------|--------|--------|--------|--------|--------|--------|--------|--------|
B|--------|--------|--------|--------|--------|--------|--------|--------|--------|
G|--------|--------|--------|--------|--------|--------|--------|--------|--------|
D|--------|--------|--------|--------|--------|--------|--------|--------|--------|
A|--------|--------|--------|--------|--------|--------|--------|--------|--------|
E|--------|--------|--------|--------|--------|--------|--------|--------|--------|


E|--------|--------|--------|--------|--------|--------|--------|--------|--------|
B|--------|--------|--------|--------|--------|--------|--------|--------|--------|
G|--------|--------|--------|--------|--------|--------|--------|--------|--------|
D|--------|--------|--------|--------|--------|--------|--------|--------|--------|
A|--------|--------|--------|--------|--------|--------|--------|--------|--------|
E|--------|--------|--------|--------|--------|--------|--------|--------|--------|


E|--------|--------|--------|--------|--------|--------|--------|--------|--------|
B|--------|--------|--------|--------|--------|--------|--------|--------|--------|
G|--------|--------|--------|--------|--------|--------|--------|--------|--------|
D|--------|--------|--------|--------|--------|--------|--------|--------|--------|
A|--------|--------|--------|--------|--------|--------|--------|--------|--------|
E|--------|--------|--------|--------|--------|--------|--------|--------|--------|


E|--------|--------|--------|--------|--------|--------|--------|--------|--------|
B|--------|--------|--------|--------|--------|--------|--------|--------|--------|
G|--------|--------|--------|--------|--------|--------|--------|--------|--------|
D|--------|--------|--------|--------|--------|--------|--------|--------|--------|
A|--------|--------|--------|--------|--------|--------|--------|--------|--------|
E|--------|--------|--------|--------|--------|--------|--------|--------|--------|


E|--------|--------|--------|
B|--------|--------|--------|
G|--------|--------|--------|
D|--------|--------|--------|
A|--------|--------|--------|
E|--------|--------|--------|





Track 9: Bass

G|--------|--------|--------|--------|--------|--------|--------|--------|--------|
D|--------|--------|--------|--------|--------|--------|--------|--------|--------|
A|--------|--------|--------|--------|--------|--------|--------|--------|--------|
E|--------|--------|--------|--------|--------|--------|--------|--------|--------|


G|--------|--------|--------|--------|--------|--------|--------|--------|--------|
D|--------|--------|--------|--------|--------|--------|--------|--------|--------|
A|--------|--------|--------|--------|--------|--------|--------|--------|--------|
E|--------|--------|--------|--------|--------|--------|--------|--------|--------|


G|--------|--------|--------|--------|--------|--------|--------|--------|--------|
D|--------|--------|--------|--------|--------|--------|--------|--------|--------|
A|--------|--------|--------|--------|--------|--------|--------|--------|--------|
E|--------|--------|--------|--------|--------|--------|--------|--------|--------|


G|--------|--------|--------|--------|--------|--------|--------|--------|--------|
D|--------|--------|--------|--------|--------|--------|--------|--------|--------|
A|--------|--------|--------|--------|--------|--------|--------|--------|--------|
E|--------|--------|--------|--------|--------|--------|--------|--------|--------|


G|--------|--------|--------|--------|--------|--------|--------|--------|--------|
D|--------|--------|--------|--------|--------|--------|--------|--------|--------|
A|--------|--------|--------|--------|--------|--------|--------|--------|--------|
E|--------|--------|--------|--------|--------|--------|--------|--------|--------|


G|--------|--------|--------|--------|--------|---------------------------------------------------|
D|--------|--------|--------|--------|--------|---------------------------------------------------|
A|--------|--------|--------|--------|--------|-5---5--5--5--5---5---5---5---5--5--5--5---5---5---|
E|--------|--------|--------|--------|--------|---------------------------------------------------|


G|---------------------------------------------------|---------------------------------------------------|
D|---------------------------------------------------|---------------------------------------------------|
A|-5---5--5--5--5---5---5---5---5--5--5--5---5---5---|---------------------------------------------------|
E|---------------------------------------------------|-5---5--5--5--5---5---5---5---5--5--5--5---5---5---|


G|---------------------------------------------------|---------------------------------------------------|
D|---------------------------------------------------|---------------------------------------------------|
A|---------------------------------------------------|-5---5--5--5--5---5---5---5---5--5--5--5---5---5---|
E|-5---5--5--5--5---5---5---5---5--5--5--5---5---5---|---------------------------------------------------|


G|---------------------------------------------------|---------------------------------------------------|
D|---------------------------------------------------|---------------------------------------3---3---3---|
A|-5---5--5--5--5---5---5---5---5--5--5--5---5---5---|--------------0---0---0---3---3--3--3--------------|
E|---------------------------------------------------|-1---1--1--1---------------------------------------|


G|---------------------------------------------------|---------------------------------------------------|
D|---------------------------------------------------|---------------------------------------------------|
A|-5---5--5--5--5---5---5---5---5--5--5--5---5---5---|-5---5--5--5--5---5---5---5---5--5--5--5---5---5---|
E|---------------------------------------------------|---------------------------------------------------|


G|---------------------------------------------------|---------------------------------------------------|
D|---------------------------------------------------|---------------------------------------------------|
A|-5---5--5--5--5---5---5---5---5--5--5--5---5---5---|---------------------------------------------------|
E|---------------------------------------------------|-5---5--5--5--5---5---5---5---5--5--5--5---5---5---|


G|---------------------------------------------------|---------------------------------------------------|
D|---------------------------------------------------|---------------------------------------------------|
A|---------------------------------------------------|-5---5--5--5--5---5---5---5---5--5--5--5---5---5---|
E|-5---5--5--5--5---5---5---5---5--5--5--5---5---5---|---------------------------------------------------|


G|---------------------------------------------------|---------------------------------------------------|
D|---------------------------------------------------|---------------------------------------3---3---3---|
A|-5---5--5--5--5---5---5---5---5--5--5--5---5---5---|--------------0---0---0---3---3--3--3--------------|
E|---------------------------------------------------|-1---1--1--1---------------------------------------|


G|---------------------------------------------------------|--------|--------|--------|
D|---------------------------------------------------------|--------|--------|--------|
A|-5---5--5--5--5---5---5---5---5--5--5--5--5--5--5--5--5--|-5------|-5------|-7------|
E|---------------------------------------------------------|--------|--------|--------|


G|--------|-------------------------------------------------|--------|--------|--------|
D|--------|-5-----------------------------------------------|--------|--------|--------|
A|-8------|----8--7--8--7--5--7--5-----5--------------------|-5------|-7------|-8------|
E|--------|-------------------------8-----8--7--8--7--5--8--|--------|--------|--------|


G|-------------------------------------------------|---------------------|------------------------|
D|-5-----------------------------------------------|---------------------|------------------------|
A|----8--7--8--7--5--7--5-----5--------------------|---------------------|------------------------|
E|-------------------------8-----8--7--8--7--5--8--|-5----5----3----5----|-5----5----3----5---8---|


G|---------------------|----------------------------------|---------------------|------------------------|
D|---------------------|----------------------------------|---------------------|------------------------|
A|-8----8----6----8----|-8----8----6----8--10-8--6--------|---------------------|------------------------|
E|---------------------|----------------------------10-8--|-5----5----3----5----|-5----5----3----5---8---|


G|---------------------|---------------------|------------------------|---------------------|
D|---------------------|---------------------|------------------------|-------5-------------|
A|---------------------|---------------------|-5-----5---5--------7---|----------------7----|
E|-8----8----6----8----|-8----8----6----5----|----------------8-------|-8---------8---------|


G|------------------------|---------------------|-------------------------------------------------|
D|------------------------|-------5-------------|-------------------------------------------------|
A|-5-----5---5--------7---|----------------7----|-5--5--5--5--5--5--5--5--5--5--5--5--5--5--5--5--|
E|----------------8-------|-8---------8---------|-------------------------------------------------|


G|-------------------------------------------------|-------------------------------------------------|
D|-------------------------------------------------|-------------------------------------------------|
A|-------------------------------------------------|-8--8--8--8--8--8--8--8--8--8--8--8--8--8--8--8--|
E|-6--6--6--6--6--6--6--6--6--6--6--6--6--6--6--6--|-------------------------------------------------|


G|-------------------------------------------------|-------------------------------------------------|
D|-------------------------------------------------|-------------------------------------------------|
A|-5--5--5--5--5--5--5--5--5--5--5--5--5--5--5--5--|-5--5--5--5--5--5--5--5--5--5--5--5--5--5--5--5--|
E|-------------------------------------------------|-------------------------------------------------|


G|-------------------------------------------------|-------------------------------------------------|
D|-------------------------------------------------|-8--8--8--8--8--8--8--8--8--8--8--8--8--8--8--8--|
A|-8--8--8--8--8--8--8--8--8--8--8--8--8--8--8--8--|-------------------------------------------------|
E|-------------------------------------------------|-------------------------------------------------|


G|-7--7--7---7--7--7---7--7--7--7--7---7---|-------------------------------------------------|
D|-----------------------------------------|-7--7--7--7--7--7--7--7--3--3--3--3--3--3--3--3--|
A|-----------------------------------------|-------------------------------------------------|
E|-----------------------------------------|-------------------------------------------------|


G|-------------------------------------------------|-------------------------------------------------|
D|-5--5--5--5--5--5--5--5--2--2--2--2--2--0--------|-------------------------------------------------|
A|-------------------------------------------3--2--|-0--0--0--0--0--0--0--0--------------------------|
E|-------------------------------------------------|-------------------------1--1--1--1--1--1--1--1--|


G|-------------------------------------------------|---------------------------------------------------|
D|-------------------------------------------------|---------------------------------------------------|
A|-------------------------------------------2--2--|-5---5--5--5--5---5---5---5---5--5--5--5---5---5---|
E|-3--3--3--3--3--3--3--3--0--0--0--0--3--3--------|---------------------------------------------------|


G|---------------------------------------------------|---------------------------------------------------|
D|---------------------------------------------------|---------------------------------------------------|
A|-5---5--5--5--5---5---5---5---5--5--5--5---5---5---|---------------------------------------------------|
E|---------------------------------------------------|-5---5--5--5--5---5---5---5---5--5--5--5---5---5---|


G|---------------------------------------------------|---------------------------------------------------|
D|---------------------------------------------------|---------------------------------------------------|
A|---------------------------------------------------|-5---5--5--5--5---5---5---5---5--5--5--5---5---5---|
E|-5---5--5--5--5---5---5---5---5--5--5--5---5---5---|---------------------------------------------------|


G|---------------------------------------------------|---------------------------------------------------|
D|---------------------------------------------------|---------------------------------------3---3---3---|
A|-5---5--5--5--5---5---5---5---5--5--5--5---5---5---|--------------0---0---0---3---3--3--3--------------|
E|---------------------------------------------------|-1---1--1--1---------------------------------------|


G|---------------------------------------------------------|--------|--------|--------|
D|---------------------------------------------------------|--------|--------|--------|
A|-5---5--5--5--5---5---5---5---5--5--5--5--5--5--5--5--5--|-5------|-5------|-7------|
E|---------------------------------------------------------|--------|--------|--------|


G|--------|-------------------------------------------------|--------|--------|--------|
D|--------|-5-----------------------------------------------|--------|--------|--------|
A|-8------|----8--7--8--7--5--7--5-----5--------------------|-5------|-7------|-8------|
E|--------|-------------------------8-----8--7--8--7--5--8--|--------|--------|--------|


G|-------------------------------------------------|---------------------|------------------------|
D|-5-----------------------------------------------|---------------------|------------------------|
A|----8--7--8--7--5--7--5-----5--------------------|---------------------|------------------------|
E|-------------------------8-----8--7--8--7--5--8--|-5----5----3----5----|-5----5----3----5---8---|


G|---------------------|----------------------------------|---------------------|------------------------|
D|---------------------|----------------------------------|---------------------|------------------------|
A|-8----8----6----8----|-8----8----6----8--10-8--6--------|---------------------|------------------------|
E|---------------------|----------------------------10-8--|-5----5----3----5----|-5----5----3----5---8---|


G|---------------------|---------------------|------------------------|---------------------|
D|---------------------|---------------------|------------------------|-------5-------------|
A|---------------------|---------------------|-5-----5---5--------7---|----------------7----|
E|-8----8----6----8----|-8----8----6----5----|----------------8-------|-8---------8---------|


G|------------------------|---------------------|-------------------------------------------------|
D|------------------------|-------5-------------|-------------------------------------------------|
A|-5-----5---5--------7---|----------------7----|-5--5--5--5--5--5--5--5--5--5--5--5--5--5--5--5--|
E|----------------8-------|-8---------8---------|-------------------------------------------------|


G|-------------------------------------------------|-------------------------------------------------|
D|-------------------------------------------------|-------------------------------------------------|
A|-------------------------------------------------|-8--8--8--8--8--8--8--8--8--8--8--8--8--8--8--8--|
E|-6--6--6--6--6--6--6--6--6--6--6--6--6--6--6--6--|-------------------------------------------------|


G|-------------------------------------------------|-------------------------------------------------|
D|-------------------------------------------------|-------------------------------------------------|
A|-5--5--5--5--5--5--5--5--5--5--5--5--5--5--5--5--|-5--5--5--5--5--5--5--5--5--5--5--5--5--5--5--5--|
E|-------------------------------------------------|-------------------------------------------------|


G|-------------------------------------------------|-------------------------------------------------|
D|-------------------------------------------------|-8--8--8--8--8--8--8--8--8--8--8--8--8--8--8--8--|
A|-8--8--8--8--8--8--8--8--8--8--8--8--8--8--8--8--|-------------------------------------------------|
E|-------------------------------------------------|-------------------------------------------------|


G|-7--7--7---7--7--7---7--7--7--7--7---7---|--------|--------|--------|--------|--------|
D|-----------------------------------------|--------|--------|--------|--------|--------|
A|-----------------------------------------|-0------|--------|--------|--------|--------|
E|-----------------------------------------|--------|--------|--------|--------|--------|


G|--------|--------|--------|--------|--------|--------|--------|--------|------------------------|
D|--------|--------|--------|--------|--------|--------|--------|--------|------------------------|
A|--------|--------|--------|--------|--------|--------|--------|--------|------------5--5--5--5--|
E|--------|--------|--------|--------|--------|--------|--------|--------|------------------------|


G|-------------------------------------------------|-------------------------------------------------|
D|-------------------------------------------------|----------------------------------2--3--3--3--3--|
A|-5--5--5--5--5--5--5--5--5--5--3--3--1--1--1--1--|-1--1--1--1--1--1--1--1--1--3--5-----------------|
E|-------------------------------------------------|-------------------------------------------------|


G|-------------------------------------------------|-------------------------------------------------|
D|-3--3--3--3--3--3--3--3--3--3--2--2--------------|-------------------------------------------------|
A|-------------------------------------5--5--5--5--|-5--5--5--5--5--5--5--5--5--5--5--5--3--3--3--3--|
E|-------------------------------------------------|-------------------------------------------------|


G|-------------------------------------------------|-------------------------------------------------|
D|-------------------------------------------------|-------------------------------------------------|
A|-3--3--3--3--3--3--3--3--3--3--2--2--------------|-------------------------------------------------|
E|-------------------------------------5--5--5--5--|-5--5--5--5--5--5--5--5--5--5--5--5--3--3--3--3--|


G|-------------------------------------------------|-------------------------------------------------|
D|-------------------------------------------------|-------------------------------------------------|
A|-------------------------------------------------|----------------------------1--3--3--5--5--5--5--|
E|-3--3--3--3--3--3--3--3--3--3--3--3--1--1--1--1--|-1--1--1--1--1--1--3--3--5-----------------------|


G|-------------------------------------------------|-------------------------------------------------|
D|-------------------------------------------------|-------------------------------------------------|
A|-5--5--5--5--5--5--5--5--5--5--5--5--------------|-------------------------------------8--8--8--8--|
E|-------------------------------------6--6--6--6--|-6--6--6--6--6--6--6--6--6--6--6--6--------------|


G|-------------------------------------------------|-------------------------------------------------|
D|-------------------------------------------------|-------------------------------------------------|
A|-8--8--8--8--8--8--8--8--8--8--8--8--5--5--5--5--|-5--5--5--5--5--5--5--5--5--5--5--5--5--5--5--5--|
E|-------------------------------------------------|-------------------------------------------------|


G|-------------------------------------------------|-------------------------------------------------|
D|-------------------------------------------------|-------------------------------------8--8--8--8--|
A|-5--5--5--5--5--5--5--5--5--5--5--5--8--8--8--8--|-8--8--8--8--8--8--8--8--8--8--8--8--------------|
E|-------------------------------------------------|-------------------------------------------------|


G|-------------------------------------7--7--7---|-7--7--7---7--7--7--7--7---7---------------|
D|-8--8--8--8--8--8--8--8--8--8--8--8------------|-------------------------------------------|
A|-----------------------------------------------|-------------------------------5--5--5--5--|
E|-----------------------------------------------|-------------------------------------------|


G|-------------------------------------------------|-------------------------------------------------|
D|-------------------------------------------------|-------------------------------------------------|
A|-5--5--5--5--5--5--5--5--5--5--5--5--------------|-------------------------------------8--8--8--8--|
E|-------------------------------------6--6--6--6--|-6--6--6--6--6--6--6--6--6--6--6--6--------------|


G|-------------------------------------------------|-------------------------------------------------|
D|-------------------------------------------------|-------------------------------------------------|
A|-8--8--8--8--8--8--8--8--8--8--8--8--5--5--5--5--|-5--5--5--5--5--5--5--5--5--5--5--5--5--5--5--5--|
E|-------------------------------------------------|-------------------------------------------------|


G|-------------------------------------------------|-------------------------------------------------|
D|-------------------------------------------------|-------------------------------------8--8--8--8--|
A|-5--5--5--5--5--5--5--5--5--5--5--5--8--8--8--8--|-8--8--8--8--8--8--8--8--8--8--8--8--------------|
E|-------------------------------------------------|-------------------------------------------------|


G|-------------------------------------7----|--------7----|--------7----|--------7----|
D|-8--8--8--8--8--8--8--8--8--8--8--8--0----|--------0----|--------0----|--------0----|
A|------------------------------------------|-------------|-------------|-------------|
E|------------------------------------------|-------------|-------------|-------------|


G|--------7----|
D|--------0----|
A|-------------|
E|-------------|