Menu:

 

Search:

 

bad religion - materialist:

 



Title: Materialist
Artist: 
Album: Process Of Belief
Author: Bad Religion


Track 1: Guitar 1 (Lead)

E|---------------------------------|---------------------------------|---------------------------------|
B|---------------------------------|---------------------------------|---------------------------------|
G|-----------------------------9---|-----------------------------9---|-----------------------------9---|
D|-9---9--9----10--9---9--9----9---|-9---9--9----10--9---9--9----9---|-9---9--9----10--9---9--9----9---|
A|-9---9--9----10--9---9--9----7---|-9---9--9----10--9---9--9----7---|-9---9--9----10--9---9--9----7---|
E|-7---7--7----8---7---7--7--------|-7---7--7----8---7---7--7--------|-7---7--7----8---7---7--7--------|


E|---------------------------------|---------------------------------|---------------------------------|
B|---------------------------------|---------------------------------|---------------------------------|
G|-----------------------------9---|-7---7--7----7-------------------|-9---9--9----9---11--11-11---11--|
D|-9---9--9----10--9---9--9----9---|-7---7--7----7---7---7--7----7---|-9---9--9----9---11--11-11---11--|
A|-9---9--9----10--9---9--9----7---|-5---5--5----5---7---7--7----7---|-7---7--7----7---9---9--9----9---|
E|-7---7--7----8---7---7--7--------|-----------------5---5--5----5---|---------------------------------|


E|---------------------------------|---------------------------------|---------------------------------|
B|---------------------------------|---------------------------------|---------------------------------|
G|-12--12-12---12--12--12--12--12--|-7---7--7----7---7---7---7---7---|-----------------7---7--7----7---|
D|-12--12-12---12--12--12--12--12--|-7---7--7----7---7---7---7---7---|-5---5--5----5---7---7--7----7---|
A|-10--10-10---10--10--10--10--10--|-5---5--5----5---5---5---5---5---|-5---5--5----5---5---5--5----5---|
E|---------------------------------|---------------------------------|-3---3--3----3-------------------|


E|---------------------------|---------------------------------|---------------------------------|
B|---------------------------|---------------------------------|---------------------------------|
G|---------------------------|---------------------------------|---------------------------------|
D|-7---7---7---7---7---------|-9---9--9--------9---9--9--------|-9---9--9--------9---9--9--------|
A|-7---7---7---7---7---------|-9---9--9--------9---9--9--------|-9---9--9--------9---9--9--------|
E|-5---5---5---5---5---------|-7---7--7--------7---7--7--------|-7---7--7--------7---7--7--------|


E|---------------------------------|---------------------------------|---------------------------------|
B|---------------------------------|---------------------------------|---------------------------------|
G|---------------------------------|---------------------------------|---------------------------------|
D|-9-------9-------9-------9-------|-9-------9-------9-------9-------|-9-------9-------9-------9-------|
A|-----9-------9-------9-------9---|-----9-------9-------9-------9---|-----9-------9-------9-------9---|
E|---------------------------------|---------------------------------|---------------------------------|


E|---------------------------------|---------------------------------|---------------------------------|
B|---------------------------------|---------------------------------|---------------------------------|
G|---------------------------------|---------------------------------|-----------------------------9---|
D|-9-------9-------9-------9-------|-9-------9-------9-------9-------|-9-------9-------9-------9-------|
A|-----9-------9-------9-------9---|-----9-------9-------9-------9---|-----9-------9-------9-----------|
E|---------------------------------|---------------------------------|---------------------------------|


E|---------------------------------|---------------------------------|---------------------------------|
B|---------------------------------|---------------------------------|---------------------------------|
G|-8---8--8----------------8---9---|-8---8--8----------------8---9---|-8---8--8----------------8---9---|
D|-------------9-------------------|-------------9-------------------|-------------9-------------------|
A|-----------------9---6-----------|-----------------9---6-----------|-----------------9---6-----------|
E|---------------------------------|---------------------------------|---------------------------------|


E|------------------------------|-7------10---|-9----------|---------------------------------|
B|-7---7---7---7---10--7---10---|-------------|------------|---------------------------------|
G|------------------------------|-------------|--------9---|-8---8--8----------------8---9---|
D|------------------------------|-------------|------------|-------------9-------------------|
A|------------------------------|-------------|------------|-----------------9---6-----------|
E|------------------------------|-------------|------------|---------------------------------|


E|---------------------------------|---------------------------------|------------------------------|
B|---------------------------------|---------------------------------|-7---7---7---7---10--7---10---|
G|-8---8--8----------------8---9---|-8---8--8----------------8---9---|------------------------------|
D|-------------9-------------------|-------------9-------------------|------------------------------|
A|-----------------9---6-----------|-----------------9---6-----------|------------------------------|
E|---------------------------------|---------------------------------|------------------------------|


E|-7------10---|-9------|---------------------------------|---------------------------------|
B|-------------|--------|---------------------------------|---------------------------------|
G|-------------|--------|-7---7--7----7-------------------|---------------------------------|
D|-------------|--------|-7---7--7----7---7---7--7----7---|-2---2--2----2---4---4--4----4---|
A|-------------|--------|-5---5--5----5---7---7--7----7---|-2---2--2----2---4---4--4----4---|
E|-------------|--------|-----------------5---5--5----5---|-0---0--0----0---2---2--2----2---|


E|---------------------------------|---------------------------------|---------------------------------|
B|---------------------------------|---------------------------------|---------------------------------|
G|-7---7--7----7-------------------|-9---9--9----9-------------------|---------------------------------|
D|-7---7--7----7---7---7--7----7---|-9---9--9----9---9---9--9----9---|-5---5--5----5---5---5---5---5---|
A|-5---5--5----5---7---7--7----7---|-7---7--7----7---9---9--9----9---|-5---5--5----5---5---5---5---5---|
E|-----------------5---5--5----5---|-----------------7---7--7----7---|-3---3--3----3---3---3---3---3---|


E|---------------------------------|---------------------------------|---------------------------|
B|---------------------------------|---------------------------------|---------------------------|
G|-7---7--7----7---7---7---7---7---|-----------------7---7--7----7---|---------------------------|
D|-7---7--7----7---7---7---7---7---|-5---5--5----5---7---7--7----7---|-7---7---7---7---7---------|
A|-5---5--5----5---5---5---5---5---|-5---5--5----5---5---5--5----5---|-7---7---7---7---7---------|
E|---------------------------------|-3---3--3----3-------------------|-5---5---5---5---5---------|


E|---------------------------------|---------------------------------|---------------------------------|
B|---------------------------------|---------------------------------|---------------------------------|
G|---------------------------------|---------------------------------|---------------------------------|
D|-9---9--9--------9---9--9--------|-9---9--9--------9---9--9--------|-9-------9-------9-------9-------|
A|-9---9--9--------9---9--9--------|-9---9--9--------9---9--9--------|-----9-------9-------9-------9---|
E|-7---7--7--------7---7--7--------|-7---7--7--------7---7--7--------|---------------------------------|


E|---------------------------------|---------------------------------|---------------------------------|
B|---------------------------------|---------------------------------|---------------------------------|
G|---------------------------------|---------------------------------|---------------------------------|
D|-9-------9-------9-------9-------|-9-------9-------9-------9-------|-9-------9-------9-------9-------|
A|-----9-------9-------9-------9---|-----9-------9-------9-------9---|-----9-------9-------9-------9---|
E|---------------------------------|---------------------------------|---------------------------------|


E|---------------------------------|---------------------------------|---------------------------------|
B|---------------------------------|---------------------------------|---------------------------------|
G|---------------------------------|-----------------------------9---|-8---8--8----------------8---9---|
D|-9-------9-------9-------9-------|-9-------9-------9-------9-------|-------------9-------------------|
A|-----9-------9-------9-------9---|-----9-------9-------9-----------|-----------------9---6-----------|
E|---------------------------------|---------------------------------|---------------------------------|


E|---------------------------------|---------------------------------|------------------------------|
B|---------------------------------|---------------------------------|-7---7---7---7---10--7---10---|
G|-8---8--8----------------8---9---|-8---8--8----------------8---9---|------------------------------|
D|-------------9-------------------|-------------9-------------------|------------------------------|
A|-----------------9---6-----------|-----------------9---6-----------|------------------------------|
E|---------------------------------|---------------------------------|------------------------------|


E|-7------10---|-9----------|---------------------------------|---------------------------------|
B|-------------|------------|---------------------------------|---------------------------------|
G|-------------|--------9---|-8---8--8----------------8---9---|-8---8--8----------------8---9---|
D|-------------|------------|-------------9-------------------|-------------9-------------------|
A|-------------|------------|-----------------9---6-----------|-----------------9---6-----------|
E|-------------|------------|---------------------------------|---------------------------------|


E|---------------------------------|------------------------------|-7------10---|-9------|
B|---------------------------------|-7---7---7---7---10--7---10---|-------------|--------|
G|-8---8--8----------------8---9---|------------------------------|-------------|--------|
D|-------------9-------------------|------------------------------|-------------|--------|
A|-----------------9---6-----------|------------------------------|-------------|--------|
E|---------------------------------|------------------------------|-------------|--------|


E|---------------------------------|---------------------------------|---------------------------------|
B|---------------------------------|---------------------------------|---------------------------------|
G|---------------------------------|---------------------------------|---------------------------------|
D|-9---9---9---9---5---5---5---5---|-7---7---7---7---7---7---7---7---|-9---9---9---9---5---5---5---5---|
A|-9---9---9---9---5---5---5---5---|-7---7---7---7---7---7---7---7---|-9---9---9---9---5---5---5---5---|
E|-7---7---7---7---3---3---3---3---|-5---5---5---5---5---5---5---5---|-7---7---7---7---3---3---3---3---|


E|---------------------------------|---------------------------------|---------------------------------|
B|---------------------------------|---------------------------------|---------------------------------|
G|---------------------------------|---------------------------------|---------------------------------|
D|-7---7---7---7---7---7---7---7---|-9---9---9---9---5---5---5---5---|-7---7---7---7---7---7---7---7---|
A|-7---7---7---7---7---7---7---7---|-9---9---9---9---5---5---5---5---|-7---7---7---7---7---7---7---7---|
E|-5---5---5---5---5---5---5---5---|-7---7---7---7---3---3---3---3---|-5---5---5---5---5---5---5---5---|


E|---------------------------------|---------------------------|---------------------------------|
B|---------------------------------|---------------------------|---------------------------------|
G|---------------------------------|---------------------------|-8---8--8----------------8---9---|
D|-9---9---9---9---5---5---5---5---|-7---7---7---7---7---------|-------------9-------------------|
A|-9---9---9---9---5---5---5---5---|-7---7---7---7---7---------|-----------------9---6-----------|
E|-7---7---7---7---3---3---3---3---|-5---5---5---5---5---------|---------------------------------|


E|---------------------------------|---------------------------------|---------------------------------|
B|---------------------------------|---------------------------------|-7---7---7---7-------------------|
G|-8---8--8----------------8---9---|-8---8--8----------------8---9---|-----------------9---9---9---9---|
D|-------------9-------------------|-------------9-------------------|---------------------------------|
A|-----------------9---6-----------|-----------------9---6-----------|---------------------------------|
E|---------------------------------|---------------------------------|---------------------------------|


E|---------------------------|
B|---------------------------|
G|-8---8--8----9---8---------|
D|---------------------------|
A|---------------------------|
E|---------------------------|





Track 2: Guitar 2 (Rhythm(

E|--------|--------|--------|--------|--------|--------|--------|--------|--------|
B|--------|--------|--------|--------|--------|--------|--------|--------|--------|
G|--------|--------|--------|--------|--------|--------|--------|--------|--------|
D|--------|--------|--------|--------|--------|--------|--------|--------|--------|
A|--------|--------|--------|--------|--------|--------|--------|--------|--------|
E|--------|--------|--------|--------|--------|--------|--------|--------|--------|


E|--------|--------|--------|---------------------------------|---------------------------------|
B|--------|--------|--------|---------------------------------|---------------------------------|
G|--------|--------|--------|---------------------------------|---------------------------------|
D|--------|--------|--------|-9---9--9----7---5---5---5---5---|-7---7---7---7---7---7---7---7---|
A|--------|--------|--------|-9---9--9----7---5---5---5---5---|-7---7---7---7---7---7---7---7---|
E|--------|--------|--------|-7---7--7----5---3---3---3---3---|-5---5---5---5---5---5---5---5---|


E|---------------------------------|---------------------------------|---------------------------------|
B|---------------------------------|---------------------------------|---------------------------------|
G|---------------------------------|---------------------------------|---------------------------------|
D|-9---9--9----7---5---5---5---5---|-7---7---7---7---7---7---7---7---|-9---9--9----7---5---5---5---5---|
A|-9---9--9----7---5---5---5---5---|-7---7---7---7---7---7---7---7---|-9---9--9----7---5---5---5---5---|
E|-7---7--7----5---3---3---3---3---|-5---5---5---5---5---5---5---5---|-7---7--7----5---3---3---3---3---|


E|------------------------------|---------------------------------|---------------------------------|
B|------------------------------|---------------------------------|---------------------------------|
G|-------------------------9----|-----------------------------9---|-----------------------------9---|
D|-7---7---7---7---7---7---9----|-9---9--9----10--9---9--9----9---|-9---9--9----10--9---9--9----9---|
A|-7---7---7---7---7---7---7----|-9---9--9----10--9---9--9----7---|-9---9--9----10--9---9--9----7---|
E|-5---5---5---5---5---5--------|-7---7--7----8---7---7--7--------|-7---7--7----8---7---7--7--------|


E|---------------------------------|---------------------------------|---------------------------------|
B|---------------------------------|---------------------------------|---------------------------------|
G|-----------------------------9---|-7---7---7---7-------------------|---------------------------------|
D|-9---9--9----10--9---9--9----9---|-7---7---7---7---7---7---7---7---|-5---5---5---5---5---5---5---5---|
A|-9---9--9----10--9---9--9----7---|-5---5---5---5---7---7---7---7---|-5---5---5---5---5---5---5---5---|
E|-7---7--7----8---7---7--7--------|-----------------5---5---5---5---|-3---3---3---3---3---3---3---3---|


E|---------------------------------|---------------------------------|---------------------------------|
B|---------------------------------|---------------------------------|---------------------------------|
G|---------------------------------|-----------------------------9---|-----------------------------9---|
D|-7---7---7---7---7---7---7---7---|-9---9--9----10--9---9--9----9---|-9---9--9----10--9---9--9----9---|
A|-7---7---7---7---7---7---7---7---|-9---9--9----10--9---9--9----7---|-9---9--9----10--9---9--9----7---|
E|-5---5---5---5---5---5---5---5---|-7---7--7----8---7---7--7--------|-7---7--7----8---7---7--7--------|


E|---------------------------------|---------------------------------|---------------------------------|
B|---------------------------------|---------------------------------|---------------------------------|
G|-----------------------------9---|-7---7---7---7-------------------|---------------------------------|
D|-9---9--9----10--9---9--9----9---|-7---7---7---7---7---7---7---7---|-5---5---5---5---5---5---5---5---|
A|-9---9--9----10--9---9--9----7---|-5---5---5---5---7---7---7---7---|-5---5---5---5---5---5---5---5---|
E|-7---7--7----8---7---7--7--------|-----------------5---5---5---5---|-3---3---3---3---3---3---3---3---|


E|---------------------------------|---------------------------------|---------------------------------|
B|---------------------------------|---------------------------------|---------------------------------|
G|---------------------------------|-7---7--7----7-------------------|---------------------------------|
D|-7---7---7---7---7---7---7---7---|-7---7--7----7---7---7--7----7---|-2---2--2----2---4---4--4----4---|
A|-7---7---7---7---7---7---7---7---|-5---5--5----5---7---7--7----7---|-2---2--2----2---4---4--4----4---|
E|-5---5---5---5---5---5---5---5---|-----------------5---5--5----5---|-0---0--0----0---2---2--2----2---|


E|--------|--------|--------|--------|--------|--------|--------|--------|---------------------------------|
B|--------|--------|--------|--------|--------|--------|--------|--------|---------------------------------|
G|--------|--------|--------|--------|--------|--------|--------|--------|---------------------------------|
D|--------|--------|--------|--------|--------|--------|--------|--------|-9---9--9----7---5---5---5---5---|
A|--------|--------|--------|--------|--------|--------|--------|--------|-9---9--9----7---5---5---5---5---|
E|--------|--------|--------|--------|--------|--------|--------|--------|-7---7--7----5---3---3---3---3---|


E|---------------------------------|---------------------------------|---------------------------------|
B|---------------------------------|---------------------------------|---------------------------------|
G|---------------------------------|---------------------------------|---------------------------------|
D|-7---7---7---7---7---7---7---7---|-9---9--9----7---5---5---5---5---|-7---7---7---7---7---7---7---7---|
A|-7---7---7---7---7---7---7---7---|-9---9--9----7---5---5---5---5---|-7---7---7---7---7---7---7---7---|
E|-5---5---5---5---5---5---5---5---|-7---7--7----5---3---3---3---3---|-5---5---5---5---5---5---5---5---|


E|---------------------------------|------------------------------|---------------------------------|
B|---------------------------------|------------------------------|---------------------------------|
G|---------------------------------|-------------------------9----|-----------------------------9---|
D|-9---9--9----7---5---5---5---5---|-7---7---7---7---7---7---9----|-9---9--9----10--9---9--9----9---|
A|-9---9--9----7---5---5---5---5---|-7---7---7---7---7---7---7----|-9---9--9----10--9---9--9----7---|
E|-7---7--7----5---3---3---3---3---|-5---5---5---5---5---5--------|-7---7--7----8---7---7--7--------|


E|---------------------------------|---------------------------------|---------------------------------|
B|---------------------------------|---------------------------------|---------------------------------|
G|-----------------------------9---|-----------------------------9---|-7---7---7---7-------------------|
D|-9---9--9----10--9---9--9----9---|-9---9--9----10--9---9--9----9---|-7---7---7---7---7---7---7---7---|
A|-9---9--9----10--9---9--9----7---|-9---9--9----10--9---9--9----7---|-5---5---5---5---7---7---7---7---|
E|-7---7--7----8---7---7--7--------|-7---7--7----8---7---7--7--------|-----------------5---5---5---5---|


E|---------------------------------|---------------------------------|---------------------------------|
B|---------------------------------|---------------------------------|---------------------------------|
G|---------------------------------|---------------------------------|-----------------------------9---|
D|-5---5---5---5---5---5---5---5---|-7---7---7---7---7---7---7---7---|-9---9--9----10--9---9--9----9---|
A|-5---5---5---5---5---5---5---5---|-7---7---7---7---7---7---7---7---|-9---9--9----10--9---9--9----7---|
E|-3---3---3---3---3---3---3---3---|-5---5---5---5---5---5---5---5---|-7---7--7----8---7---7--7--------|


E|---------------------------------|---------------------------------|---------------------------------|
B|---------------------------------|---------------------------------|---------------------------------|
G|-----------------------------9---|-----------------------------9---|-7---7---7---7-------------------|
D|-9---9--9----10--9---9--9----9---|-9---9--9----10--9---9--9----9---|-7---7---7---7---7---7---7---7---|
A|-9---9--9----10--9---9--9----7---|-9---9--9----10--9---9--9----7---|-5---5---5---5---7---7---7---7---|
E|-7---7--7----8---7---7--7--------|-7---7--7----8---7---7--7--------|-----------------5---5---5---5---|


E|---------------------------------|---------------------------------|--------|--------|
B|---------------------------------|---------------------------------|--------|--------|
G|---------------------------------|---------------------------------|--------|--------|
D|-5---5---5---5---5---5---5---5---|-7---7---7---7---7---7---7---7---|--------|--------|
A|-5---5---5---5---5---5---5---5---|-7---7---7---7---7---7---7---7---|--------|--------|
E|-3---3---3---3---3---3---3---3---|-5---5---5---5---5---5---5---5---|--------|--------|


E|--------|--------|--------|--------|--------|--------|---------------------------------|
B|--------|--------|--------|--------|--------|--------|---------------------------------|
G|--------|--------|--------|--------|--------|--------|-----------------------------9---|
D|--------|--------|--------|--------|--------|--------|-9---9--9----10--9---9--9----9---|
A|--------|--------|--------|--------|--------|--------|-9---9--9----10--9---9--9----7---|
E|--------|--------|--------|--------|--------|--------|-7---7--7----8---7---7--7--------|


E|---------------------------------|---------------------------------|---------------------------------|
B|---------------------------------|---------------------------------|---------------------------------|
G|-----------------------------9---|-----------------------------9---|-7---7---7---7-------------------|
D|-9---9--9----10--9---9--9----9---|-9---9--9----10--9---9--9----9---|-7---7---7---7---7---7---7---7---|
A|-9---9--9----10--9---9--9----7---|-9---9--9----10--9---9--9----7---|-5---5---5---5---7---7---7---7---|
E|-7---7--7----8---7---7--7--------|-7---7--7----8---7---7--7--------|-----------------5---5---5---5---|


E|---------------------------|
B|---------------------------|
G|---------------------------|
D|-9---9--9----10--9---------|
A|-9---9--9----10--9---------|
E|-7---7--7----8---7---------|





Track 3: Untitled

G|--------|--------|--------|--------|--------|--------|--------|--------|--------|
D|--------|--------|--------|--------|--------|--------|--------|--------|--------|
A|--------|--------|--------|--------|--------|--------|--------|--------|--------|
E|--------|--------|--------|--------|--------|--------|--------|--------|--------|


G|--------|--------|--------|--------|--------|--------|--------|--------|--------|
D|--------|--------|--------|--------|--------|--------|--------|--------|--------|
A|--------|--------|--------|--------|--------|--------|--------|--------|--------|
E|--------|--------|--------|--------|--------|--------|--------|--------|--------|


G|--------|--------|--------|--------|--------|--------|--------|--------|--------|
D|--------|--------|--------|--------|--------|--------|--------|--------|--------|
A|--------|--------|--------|--------|--------|--------|--------|--------|--------|
E|--------|--------|--------|--------|--------|--------|--------|--------|--------|


G|--------|--------|--------|--------|--------|--------|--------|--------|--------|
D|--------|--------|--------|--------|--------|--------|--------|--------|--------|
A|--------|--------|--------|--------|--------|--------|--------|--------|--------|
E|--------|--------|--------|--------|--------|--------|--------|--------|--------|


G|--------|--------|--------|--------|--------|--------|--------|--------|--------|
D|--------|--------|--------|--------|--------|--------|--------|--------|--------|
A|--------|--------|--------|--------|--------|--------|--------|--------|--------|
E|--------|--------|--------|--------|--------|--------|--------|--------|--------|


G|--------|--------|--------|--------|--------|--------|--------|--------|--------|
D|--------|--------|--------|--------|--------|--------|--------|--------|--------|
A|--------|--------|--------|--------|--------|--------|--------|--------|--------|
E|--------|--------|--------|--------|--------|--------|--------|--------|--------|


G|--------|--------|--------|--------|--------|--------|--------|--------|--------|
D|--------|--------|--------|--------|--------|--------|--------|--------|--------|
A|--------|--------|--------|--------|--------|--------|--------|--------|--------|
E|--------|--------|--------|--------|--------|--------|--------|--------|--------|


G|--------|--------|--------|--------|--------|--------|--------|--------|
D|--------|--------|--------|--------|--------|--------|--------|--------|
A|--------|--------|--------|--------|--------|--------|--------|--------|
E|--------|--------|--------|--------|--------|--------|--------|--------|