Menu:

 

Search:

 

bad religion - big bang:

 



Title: Big Bang
Artist: 
Album: No Control
Author: Bad Religion


Track 1: Brett Gurewitz

E|-------------------------------------|-------------------------------------|-------------------------------------|
B|-------------------------------------|-------------------------------------|-------------------------------------|
G|---------------8-----------------8---|---------------8-----------------8---|---------------5---------------------|
D|-7---7--7--7---8---7---7--7--7---8---|-7---7--7--7---8---7---7--7--7---8---|-7---7--7--7---5---5---5--5--5---5---|
A|-7---7--7--7---6---7---7--7--7---6---|-7---7--7--7---6---7---7--7--7---6---|-7---7--7--7---3---5---5--5--5---5---|
E|-5---5--5--5-------5---5--5--5-------|-5---5--5--5-------5---5--5--5-------|-5---5--5--5-------3---3--3--3---3---|


E|-----------------------------------|-------------------------------------|--------------------------------|
B|-----------------------------------|-------------------------------------|--------------------------------|
G|---------------5---7---7--7----7---|---------------5---------------------|---------------5---4---2--------|
D|-7---7--7--7---5---7---7--7----7---|-7---7--7--7---5---5---5--5--5---2---|-3---3--3--3---5---4---2---5----|
A|-7---7--7--7---3---5---5--5----5---|-7---7--7--7---3---5---5--5--5---2---|-3---3--3--3---3---2---0---5----|
E|-5---5--5--5-----------------------|-5---5--5--5-------3---3--3--3---0---|-1---1--1--1---------------3----|


E|-------------------------------------|-----------------------------------|-------------------------------------|
B|-------------------------------------|-----------------------------------|-------------------------------------|
G|---------------5---------------------|---------------5---7---7--7----7---|---------------5---------------------|
D|-7---7--7--7---5---5---5--5--5---5---|-7---7--7--7---5---7---7--7----7---|-7---7--7--7---5---5---5--5--5---2---|
A|-7---7--7--7---3---5---5--5--5---5---|-7---7--7--7---3---5---5--5----5---|-7---7--7--7---3---5---5--5--5---2---|
E|-5---5--5--5-------3---3--3--3---3---|-5---5--5--5-----------------------|-5---5--5--5-------3---3--3--3---0---|


E|--------------------------------|-------------------------------------|-------------------------------------|
B|--------------------------------|-------------------------------------|-------------------------------------|
G|---------------5---4---2--------|-------------------------------------|-5---5--5--5---5---5---5--5--5---5---|
D|-3---3--3--3---5---4---2---5----|-7---7--7--7---7---7---7--7--7---7---|-5---5--5--5---5---5---5--5--5---5---|
A|-3---3--3--3---3---2---0---5----|-7---7--7--7---7---7---7--7--7---7---|-3---3--3--3---3---3---3--3--3---3---|
E|-1---1--1--1---------------3----|-5---5--5--5---5---5---5--5--5---5---|-------------------------------------|


E|-------------------------------------|-------------------------------------|-------------------------------------|
B|-------------------------------------|-------------------------------------|-------------------------------------|
G|-------------------------------------|-7---7--7--7---7---7---7--7--7---7---|-------------------------------------|
D|-5---5--5--5---5---5---5--5--5---5---|-7---7--7--7---7---7---7--7--7---7---|-7---7--7--7---7---7---7--7--7---7---|
A|-5---5--5--5---5---5---5--5--5---5---|-5---5--5--5---5---5---5--5--5---5---|-7---7--7--7---7---7---7--7--7---7---|
E|-3---3--3--3---3---3---3--3--3---3---|-------------------------------------|-5---5--5--5---5---5---5--5--5---5---|


E|-------------------------------------|-------------------------------------|-------------------------------------|
B|-------------------------------------|-------------------------------------|-------------------------------------|
G|-5---5--5--5---5---5---5--5--5---5---|-------------------------------------|-7---7--7--7---7---7---7--7--7---7---|
D|-5---5--5--5---5---5---5--5--5---5---|-5---5--5--5---5---5---5--5--5---5---|-7---7--7--7---7---7---7--7--7---7---|
A|-3---3--3--3---3---3---3--3--3---3---|-5---5--5--5---5---5---5--5--5---5---|-5---5--5--5---5---5---5--5--5---5---|
E|-------------------------------------|-3---3--3--3---3---3---3--3--3---3---|-------------------------------------|


E|-------------------------------------|-------------------------------------|-------------------------------------|
B|-------------------------------------|-------------------------------------|-------------------------------------|
G|-------------------5---5--5--5---5---|-------------------7---7--7--7---7---|-------------------5---5--5--5---5---|
D|-7---7--7--7---7---5---5--5--5---5---|-5---5--5--5---5---7---7--7--7---7---|-7---7--7--7---7---5---5--5--5---5---|
A|-7---7--7--7---7---3---3--3--3---3---|-5---5--5--5---5---5---5--5--5---5---|-7---7--7--7---7---3---3--3--3---3---|
E|-5---5--5--5---5---------------------|-3---3--3--3---3---------------------|-5---5--5--5---5---------------------|


E|-----------------------------------|-------------------------------------|-------------------------------------|
B|-----------------------------------|-------------------------------------|-------------------------------------|
G|-------------------7---7---7---7---|-------------------5---5--5--5---5---|-------------------7---7--7--7---7---|
D|-5---5--5--5---5---7---7---7---7---|-7---7--7--7---7---5---5--5--5---5---|-5---5--5--5---5---7---7--7--7---7---|
A|-5---5--5--5---5---5---5---5---5---|-7---7--7--7---7---3---3--3--3---3---|-5---5--5--5---5---5---5--5--5---5---|
E|-3---3--3--3---3-------------------|-5---5--5--5---5---------------------|-3---3--3--3---3---------------------|


E|-------------------------------------|-------------------------------------|-------------------------------------|
B|-------------------------------------|-------------------------------------|-------------------------------------|
G|-------------------5---5--5--5---5---|-------------------7---7--7--7---7---|---------------8-----------------8---|
D|-7---7--7--7---7---5---5--5--5---5---|-5---5--5--5---5---7---7--7--7---7---|-7---7--7--7---8---7---7--7--7---8---|
A|-7---7--7--7---7---3---3--3--3---3---|-5---5--5--5---5---5---5--5--5---5---|-7---7--7--7---6---7---7--7--7---6---|
E|-5---5--5--5---5---------------------|-3---3--3--3---3---------------------|-5---5--5--5-------5---5--5--5-------|


E|-------------------------------------|-------------------------------------|-----------------------------------|
B|-------------------------------------|-------------------------------------|-----------------------------------|
G|---------------8-----------------8---|---------------5---------------------|---------------5---7---7--7----7---|
D|-7---7--7--7---8---7---7--7--7---8---|-7---7--7--7---5---5---5--5--5---5---|-7---7--7--7---5---7---7--7----7---|
A|-7---7--7--7---6---7---7--7--7---6---|-7---7--7--7---3---5---5--5--5---5---|-7---7--7--7---3---5---5--5----5---|
E|-5---5--5--5-------5---5--5--5-------|-5---5--5--5-------3---3--3--3---3---|-5---5--5--5-----------------------|


E|-------------------------------------|-----------------|-------------------------------------|
B|-------------------------------------|-----------------|-------------------------------------|
G|---------------5---------------------|-----------------|-------------------------------------|
D|-7---7--7--7---5---5---5--5--5---2---|-3---------------|-7---7--7--7---7---7---7--7--7---7---|
A|-7---7--7--7---3---5---5--5--5---2---|-3---------------|-7---7--7--7---7---7---7--7--7---7---|
E|-5---5--5--5-------3---3--3--3---0---|-1---------------|-5---5--5--5---5---5---5--5--5---5---|


E|-------------------------------------|-------------------------------------|-------------------------------------|
B|-------------------------------------|-------------------------------------|-------------------------------------|
G|-5---5--5--5---5---5---5--5--5---5---|-------------------------------------|-7---7--7--7---7---7---7--7--7---7---|
D|-5---5--5--5---5---5---5--5--5---5---|-5---5--5--5---5---5---5--5--5---5---|-7---7--7--7---7---7---7--7--7---7---|
A|-3---3--3--3---3---3---3--3--3---3---|-5---5--5--5---5---5---5--5--5---5---|-5---5--5--5---5---5---5--5--5---5---|
E|-------------------------------------|-3---3--3--3---3---3---3--3--3---3---|-------------------------------------|


E|-------------------------------------|-------------------------------------|-------------------------------------|
B|-------------------------------------|-------------------------------------|-------------------------------------|
G|-------------------------------------|-5---5--5--5---5---5---5--5--5---5---|-------------------------------------|
D|-7---7--7--7---7---7---7--7--7---7---|-5---5--5--5---5---5---5--5--5---5---|-5---5--5--5---5---5---5--5--5---5---|
A|-7---7--7--7---7---7---7--7--7---7---|-3---3--3--3---3---3---3--3--3---3---|-5---5--5--5---5---5---5--5--5---5---|
E|-5---5--5--5---5---5---5--5--5---5---|-------------------------------------|-3---3--3--3---3---3---3--3--3---3---|


E|-------------------------------------|-------------------------------------|-------------------------------------|
B|-------------------------------------|-------------------------------------|-------------------------------------|
G|-7---7--7--7---7---7---7--7--7---7---|-------------------5---5--5--5---5---|-------------------7---7--7--7---7---|
D|-7---7--7--7---7---7---7--7--7---7---|-7---7--7--7---7---5---5--5--5---5---|-5---5--5--5---5---7---7--7--7---7---|
A|-5---5--5--5---5---5---5--5--5---5---|-7---7--7--7---7---3---3--3--3---3---|-5---5--5--5---5---5---5--5--5---5---|
E|-------------------------------------|-5---5--5--5---5---------------------|-3---3--3--3---3---------------------|


E|-------------------------------------|-------------------------------------|-------------------------------------|
B|-------------------------------------|-------------------------------------|-------------------------------------|
G|-------------------5---5--5--5---5---|-------------------7---7--7--7---7---|-------------------5---5--5--5---5---|
D|-7---7--7--7---7---5---5--5--5---5---|-5---5--5--5---5---7---7--7--7---7---|-7---7--7--7---7---5---5--5--5---5---|
A|-7---7--7--7---7---3---3--3--3---3---|-5---5--5--5---5---5---5--5--5---5---|-7---7--7--7---7---3---3--3--3---3---|
E|-5---5--5--5---5---------------------|-3---3--3--3---3---------------------|-5---5--5--5---5---------------------|


E|-------------------------------------|-------------------------------------|-------------------------------------|
B|-------------------------------------|-------------------------------------|-------------------------------------|
G|-------------------7---7--7--7---7---|-------------------5---5--5--5---5---|-------------------7---7--7--7---7---|
D|-5---5--5--5---5---7---7--7--7---7---|-7---7--7--7---7---5---5--5--5---5---|-5---5--5--5---5---7---7--7--7---7---|
A|-5---5--5--5---5---5---5--5--5---5---|-7---7--7--7---7---3---3--3--3---3---|-5---5--5--5---5---5---5--5--5---5---|
E|-3---3--3--3---3---------------------|-5---5--5--5---5---------------------|-3---3--3--3---3---------------------|


E|-------------------------------------|-------------------------------------|-------------------------------------|
B|-------------------------------------|-------------------------------------|-------------------------------------|
G|---------------8-----------------8---|---------------8-----------------8---|-------------------------------------|
D|-7---7--7--7---8---7---7--7--7---8---|-7---7--7--7---8---7---7--7--7---8---|-9---9--9--9---9---9---9--9--9---9---|
A|-7---7--7--7---6---7---7--7--7---6---|-7---7--7--7---6---7---7--7--7---6---|-9---9--9--9---9---9---9--9--9---9---|
E|-5---5--5--5-------5---5--5--5-------|-5---5--5--5-------5---5--5--5-------|-7---7--7--7---7---7---7--7--7---7---|


E|-------------------------------------|-------------------------------------|-------------------------------------|
B|-------------------------------------|-------------------------------------|-------------------------------------|
G|-7---7--7--7---7---7---7--7--7---7---|-------------------------------------|-9---9--9--9---9---9---9--9--9---9---|
D|-7---7--7--7---7---7---7--7--7---7---|-7---7--7--7---7---7---7--7--7---7---|-9---9--9--9---9---9---9--9--9---9---|
A|-5---5--5--5---5---5---5--5--5---5---|-7---7--7--7---7---7---7--7--7---7---|-7---7--7--7---7---7---7--7--7---7---|
E|-------------------------------------|-5---5--5--5---5---5---5--5--5---5---|-------------------------------------|


E|-------------------------------------|-------------------------------------|-------------------------------------|
B|-------------------------------------|-------------------------------------|-------------------------------------|
G|-------------------------------------|-7---7--7--7---7---7---7--7--7---7---|-------------------------------------|
D|-9---9--9--9---9---9---9--9--9---9---|-7---7--7--7---7---7---7--7--7---7---|-7---7--7--7---7---7---7--7--7---7---|
A|-9---9--9--9---9---9---9--9--9---9---|-5---5--5--5---5---5---5--5--5---5---|-7---7--7--7---7---7---7--7--7---7---|
E|-7---7--7--7---7---7---7--7--7---7---|-------------------------------------|-5---5--5--5---5---5---5--5--5---5---|


E|-------------------------------------|-------------------------------------|-------------------------------------|
B|-------------------------------------|-------------------------------------|-------------------------------------|
G|-9---9--9--9---9---9---9--9--9---9---|-------------------7---7--7--7---7---|-------------------9---9--9--9---9---|
D|-9---9--9--9---9---9---9--9--9---9---|-9---9--9--9---9---7---7--7--7---7---|-7---7--7--7---7---9---9--9--9---9---|
A|-7---7--7--7---7---7---7--7--7---7---|-9---9--9--9---9---5---5--5--5---5---|-7---7--7--7---7---7---7--7--7---7---|
E|-------------------------------------|-7---7--7--7---7---------------------|-5---5--5--5---5---------------------|


E|-------------------------------------|-----------------------------------|-------------------------------------|
B|-------------------------------------|-----------------------------------|-------------------------------------|
G|-------------------7---7--7--7---7---|-------------------9---9---9---9---|-------------------7---7--7--7---7---|
D|-9---9--9--9---9---7---7--7--7---7---|-7---7--7--7---7---9---9---9---9---|-9---9--9--9---9---7---7--7--7---7---|
A|-9---9--9--9---9---5---5--5--5---5---|-7---7--7--7---7---7---7---7---7---|-9---9--9--9---9---5---5--5--5---5---|
E|-7---7--7--7---7---------------------|-5---5--5--5---5-------------------|-7---7--7--7---7---------------------|


E|-------------------------------------|-------------------------------------|-------------------------------------|
B|-------------------------------------|-------------------------------------|-------------------------------------|
G|-------------------9---9--9--9---9---|-------------------7---7--7--7---7---|-------------------9---9--9--9---9---|
D|-7---7--7--7---7---9---9--9--9---9---|-9---9--9--9---9---7---7--7--7---7---|-7---7--7--7---7---9---9--9--9---9---|
A|-7---7--7--7---7---7---7--7--7---7---|-9---9--9--9---9---5---5--5--5---5---|-7---7--7--7---7---7---7--7--7---7---|
E|-5---5--5--5---5---------------------|-7---7--7--7---7---------------------|-5---5--5--5---5---------------------|


E|-------------------------------------|-----------------------------|
B|-------------------------------------|-----------------------------|
G|---------------10----------------10--|---------------10------------|
D|-9---9--9--9---10--9---9--9--9---10--|-9---9--9--9---10--9---------|
A|-9---9--9--9---8---9---9--9--9---8---|-9---9--9--9---8---9---------|
E|-7---7--7--7-------7---7--7--7-------|-7---7--7--7-------7---------|





Track 2: Pickscrape

E|--------|--------|--------|--------|--------|--------|--------|--------|--------|
B|--------|--------|--------|--------|--------|--------|--------|--------|--------|
G|--------|--------|--------|--------|--------|--------|--------|--------|--------|
D|--------|--------|--------|--------|--------|--------|--------|--------|--------|
A|--------|--------|--------|--------|--------|--------|--------|--------|--------|
E|--------|--------|--------|--------|--------|--------|--------|--------|--------|


E|--------|--------|--------|--------|--------|--------|--------|--------|--------|
B|--------|--------|--------|--------|--------|--------|--------|--------|--------|
G|--------|--------|--------|--------|--------|--------|--------|--------|--------|
D|--------|--------|--------|--------|--------|--------|--------|--------|--------|
A|--------|--------|--------|--------|--------|--------|--------|--------|--------|
E|--------|--------|--------|--------|--------|--------|--------|--------|--------|


E|--------|--------|--------|--------|--------|--------|--------|--------|--------|
B|--------|--------|--------|--------|--------|--------|--------|--------|--------|
G|--------|--------|--------|--------|--------|--------|--------|--------|--------|
D|--------|--------|--------|--------|--------|--------|--------|--------|--------|
A|--------|--------|--------|--------|--------|--------|--------|--------|--------|
E|--------|--------|--------|--------|--------|--------|--------|--------|--------|


E|--------|--------|--------|--------|-------------|--------|--------|--------|--------|
B|--------|--------|--------|--------|-------------|--------|--------|--------|--------|
G|--------|--------|--------|--------|-------------|--------|--------|--------|--------|
D|--------|--------|--------|--------|-------29----|--------|--------|--------|--------|
A|--------|--------|--------|--------|-------29----|--------|--------|--------|--------|
E|--------|--------|--------|--------|-------27----|--------|--------|--------|--------|


E|--------|--------|--------|--------|--------|--------|--------|--------|--------|
B|--------|--------|--------|--------|--------|--------|--------|--------|--------|
G|--------|--------|--------|--------|--------|--------|--------|--------|--------|
D|--------|--------|--------|--------|--------|--------|--------|--------|--------|
A|--------|--------|--------|--------|--------|--------|--------|--------|--------|
E|--------|--------|--------|--------|--------|--------|--------|--------|--------|


E|--------|--------|--------|--------|--------|--------|--------|--------|--------|
B|--------|--------|--------|--------|--------|--------|--------|--------|--------|
G|--------|--------|--------|--------|--------|--------|--------|--------|--------|
D|--------|--------|--------|--------|--------|--------|--------|--------|--------|
A|--------|--------|--------|--------|--------|--------|--------|--------|--------|
E|--------|--------|--------|--------|--------|--------|--------|--------|--------|


E|--------|--------|--------|--------|--------|--------|--------|--------|--------|
B|--------|--------|--------|--------|--------|--------|--------|--------|--------|
G|--------|--------|--------|--------|--------|--------|--------|--------|--------|
D|--------|--------|--------|--------|--------|--------|--------|--------|--------|
A|--------|--------|--------|--------|--------|--------|--------|--------|--------|
E|--------|--------|--------|--------|--------|--------|--------|--------|--------|


E|--------|--------|--------|--------|--------|
B|--------|--------|--------|--------|--------|
G|--------|--------|--------|--------|--------|
D|--------|--------|--------|--------|--------|
A|--------|--------|--------|--------|--------|
E|--------|--------|--------|--------|--------|





Track 3: Bass - Jay Bentley

G|-------------------------------------|-------------------------------------|-------------------------------------|
D|-------------------------------------|-------------------------------------|-------------------------------------|
A|---------------6-----------------6---|---------------6-----------------6---|---------------3---------------------|
E|-5---5--5--5-------5---5--5--5-------|-5---5--5--5-------5---5--5--5-------|-5---5--5--5-------3---3--3--3---3---|


G|-----------------------------------|-------------------------------------|--------------------------------|
D|-----------------------------------|-------------------------------------|--------------------------------|
A|---------------3---5---5--5----5---|---------------3---------------------|---------------3---2---0--------|
E|-5---5--5--5-----------------------|-5---5--5--5-------3---3--3--3---0---|-1---1--1--1---------------3----|


G|-------------------------------------|-----------------------------------|-------------------------------------|
D|-------------------------------------|-----------------------------------|-------------------------------------|
A|---------------3---------------------|---------------3---5---5--5----5---|---------------3---------------------|
E|-5---5--5--5-------3---3--3--3---3---|-5---5--5--5-----------------------|-5---5--5--5-------3---3--3--3---0---|


G|--------------------------------|-------------------------------------|-------------------------------------|
D|--------------------------------|-------------------------------------|-------------------------------------|
A|---------------3---2---0--------|-------------------------------------|-3---3--3--3---3---3---3--3--3---3---|
E|-1---1--1--1---------------3----|-5---5--5--5---5---5---5--5--5---5---|-------------------------------------|


G|-------------------------------------|-------------------------------------|-------------------------------------|
D|-------------------------------------|-------------------------------------|-------------------------------------|
A|-------------------------------------|-5---5--5--5---5---5---5--5--5---5---|-------------------------------------|
E|-3---3--3--3---3---3---3--3--3---3---|-------------------------------------|-5---5--5--5---5---5---5--5--5---5---|


G|-------------------------------------|-------------------------------------|-------------------------------------|
D|-------------------------------------|-------------------------------------|-------------------------------------|
A|-3---3--3--3---3---3---3--3--3---3---|-------------------------------------|-5---5--5--5---5---5---5--5--5---5---|
E|-------------------------------------|-3---3--3--3---3---3---3--3--3---3---|-------------------------------------|


G|-------------------------------------|-------------------------------------|-------------------------------------|
D|-------------------------------------|-------------------------------------|-------------------------------------|
A|-------------------3---3--3--3---3---|-------------------5---5--5--5---5---|-------------------3---3--3--3---3---|
E|-5---5--5--5---5---------------------|-3---3--3--3---3---------------------|-5---5--5--5---5---------------------|


G|-----------------------------------|-------------------------------------|-------------------------------------|
D|-----------------------------------|-------------------------------------|-------------------------------------|
A|-------------------5---3---2-------|-------------------3---3--3--3---3---|-------------------5---5--5--5---5---|
E|-3---3--3--3---3---------------3---|-5---5--5--5---5---------------------|-3---3--3--3---3---------------------|


G|-------------------------------------|-------------------------------------|-------------------------------------|
D|-------------------------------------|-------------------------------------|-------------------------------------|
A|-------------------3---3--3--3---3---|-------------------5---5--5--5---5---|---------------6-----------------6---|
E|-5---5--5--5---5---------------------|-3---3--3--3---3---------------------|-5---5--5--5-------5---5--5--5-------|


G|-------------------------------------|-------------------------------------|-----------------------------------|
D|-------------------------------------|-------------------------------------|-----------------------------------|
A|---------------6-----------------6---|---------------3---------------------|---------------3---5---5--5----5---|
E|-5---5--5--5-------5---5--5--5-------|-5---5--5--5-------3---3--3--3---3---|-5---5--5--5-----------------------|


G|-------------------------------------|-----------------|-------------------------------------|
D|-------------------------------------|-----------------|-------------------------------------|
A|---------------3---------------------|-----------------|-------------------------------------|
E|-5---5--5--5-------3---3--3--3---0---|-1---------------|-5---5--5--5---5---5---5--5--5---5---|


G|-------------------------------------|-------------------------------------|-------------------------------------|
D|-------------------------------------|-------------------------------------|-------------------------------------|
A|-3---3--3--3---3---3---3--3--3---3---|-------------------------------------|-5---5--5--5---5---5---5--5--5---5---|
E|-------------------------------------|-3---3--3--3---3---3---3--3--3---3---|-------------------------------------|


G|-------------------------------------|-------------------------------------|-------------------------------------|
D|-------------------------------------|-------------------------------------|-------------------------------------|
A|-------------------------------------|-3---3--3--3---3---3---3--3--3---3---|-------------------------------------|
E|-5---5--5--5---5---5---5--5--5---5---|-------------------------------------|-3---3--3--3---3---3---3--3--3---3---|


G|-------------------------------------|-------------------------------------|-------------------------------------|
D|-------------------------------------|-------------------------------------|-------------------------------------|
A|-5---5--5--5---5---5---5--5--5---5---|-------------------3---3--3--3---3---|-------------------5---5--5--5---5---|
E|-------------------------------------|-5---5--5--5---5---------------------|-3---3--3--3---3---------------------|


G|-------------------------------------|-----------------------------------|-------------------------------------|
D|-------------------------------------|-----------------------------------|-------------------------------------|
A|-------------------3---3--3--3---3---|-------------------5---3---2-------|-------------------3---3--3--3---3---|
E|-5---5--5--5---5---------------------|-3---3--3--3---3---------------3---|-5---5--5--5---5---------------------|


G|-------------------------------------|-------------------------------------|-------------------------------------|
D|-------------------------------------|-------------------------------------|-------------------------------------|
A|-------------------5---5--5--5---5---|-------------------3---3--3--3---3---|-------------------5---5--5--5---5---|
E|-3---3--3--3---3---------------------|-5---5--5--5---5---------------------|-3---3--3--3---3---------------------|


G|-------------------------------------|-------------------------------------|-------------------------------------|
D|-------------------------------------|-------------------------------------|-------------------------------------|
A|---------------6-----------------6---|---------------6-----------------6---|-------------------------------------|
E|-5---5--5--5-------5---5--5--5-------|-5---5--5--5-------5---5--5--5-------|-7---7--7--7---7---7---7--7--7---7---|


G|-------------------------------------|-------------------------------------|-------------------------------------|
D|-------------------------------------|-------------------------------------|-------------------------------------|
A|-5---5--5--5---5---5---5--5--5---5---|-------------------------------------|-7---7--7--7---7---7---7--7--7---7---|
E|-------------------------------------|-5---5--5--5---5---5---5--5--5---5---|-------------------------------------|


G|-------------------------------------|-------------------------------------|-------------------------------------|
D|-------------------------------------|-------------------------------------|-------------------------------------|
A|-------------------------------------|-5---5--5--5---5---5---5--5--5---5---|-------------------------------------|
E|-7---7--7--7---7---7---7--7--7---7---|-------------------------------------|-5---5--5--5---5---5---5--5--5---5---|


G|-------------------------------------|-------------------------------------|-----------------------------------|
D|-------------------------------------|-------------------------------------|-----------------------------------|
A|-7---7--7--7---7---7---7--7--7---7---|-------------------5---5--5--5---5---|-------------------7---5---4-------|
E|-------------------------------------|-7---7--7--7---7---------------------|-5---5--5--5---5---------------5---|


G|-------------------------------------|-------------------------------------|-------------------------------------|
D|-------------------------------------|-------------------------------------|-------------------------------------|
A|-------------------5---5--5--5---5---|-------------------7---7--7--7---7---|-------------------5---5--5--5---5---|
E|-7---7--7--7---7---------------------|-5---5--5--5---5---------------------|-7---7--7--7---7---------------------|


G|-------------------------------------|-------------------------------------|-------------------------------------|
D|-------------------------------------|-------------------------------------|-------------------------------------|
A|-------------------7---7--7--7---7---|-------------------5---5--5--5---5---|-------------------7---7--7--7---7---|
E|-5---5--5--5---5---------------------|-7---7--7--7---7---------------------|-5---5--5--5---5---------------------|


G|-------------------------------------|-----------------------------|
D|-------------------------------------|-----------------------------|
A|---------------8-----------------8---|---------------8-------------|
E|-7---7--7--7-------7---7--7--7-------|-7---7--7--7-------7---------|