Menu:

 

Search:

 

at the gates - terminal spirit disease:

 



Title: Terminal Spirit Disease
Artist: 
Album: Terminal Spirit Disease
Author: At the Gates


Track 1: 1

 B|---------------------------------|---------------------------------|---------------------------------|
F#|---------------------------------|---------------------------------|---------------------------------|
 D|-9---9---9---9---9---9---9---9---|-9---9---9---9---9---9---9---9---|-9---9---11--11--11--12--12--12--|
 A|---------------------------------|---------------------------------|---------------------------------|
 E|-7---7---7---7---7---7---7---7---|-7---7---7---7---7---7---7---7---|-7---7---9---9---9---10--10--10--|
 B|---------------------------------|---------------------------------|---------------------------------|


 B|---------------------------------|---------------------------------|---------------------------------|
F#|---------------------------------|---------------------------------|---------------------------------|
 D|-5---5---5---5---5---5---5---5---|-5---5---5---5---5---5---5---5---|-5---5---5---5---5---5---5---5---|
 A|---------------------------------|---------------------------------|---------------------------------|
 E|-3---3---3---3---3---3---3---3---|-3---3---3---3---3---3---3---3---|-3---3---3---3---3---3---3---3---|
 B|---------------------------------|---------------------------------|---------------------------------|


 B|---------------------------------|---------------------------------|---------------------------------|
F#|---------------------------------|---------------------------------|---------------------------------|
 D|-9---9---9---9---9---9---9---9---|-9---9---9---9---9---9---9---9---|-9---9---11--11--11--12--12--12--|
 A|---------------------------------|---------------------------------|---------------------------------|
 E|-7---7---7---7---7---7---7---7---|-7---7---7---7---7---7---7---7---|-7---7---9---9---9---10--10--10--|
 B|---------------------------------|---------------------------------|---------------------------------|


 B|---------------------------------|---------------------------------|---------------------------------|
F#|---------------------------------|---------------------------------|---------------------------------|
 D|-5---5---5---5---5---5---5---5---|-5---5---5---5---5---5---5---5---|-5---5---5---5---5---5---5---5---|
 A|---------------------------------|---------------------------------|---------------------------------|
 E|-3---3---3---3---3---3---3---3---|-3---3---3---3---3---3---3---3---|-3---3---3---3---3---3---3---3---|
 B|---------------------------------|---------------------------------|---------------------------------|


 B|------------------------------|------------------------------|---------------------------------|
F#|------------------------------|------------------------------|---------------------------------|
 D|------------------------------|------------------------------|---------------------------------|
 A|------------------------------|------------------------------|---------------------------------|
 E|----------------------2---2---|-2---2---2---2----------------|---------3---3---3---3---3---3---|
 B|-0----0---0---2---3-----------|-----------------0----0---0---|-2---3---------------------------|


 B|------------------------------|------------------------------|------------------------------|
F#|------------------------------|------------------------------|------------------------------|
 D|------------------------------|------------------------------|------------------------------|
 A|------------------------------|------------------------------|------------------------------|
 E|----------------------2---2---|-2---2---2---2----------------|---------2---2---2------------|
 B|-0----0---0---2---3-----------|-----------------0----0---0---|-2---3---------------3----2---|


 B|------------------------------|------------------------------|---------------------------------|
F#|------------------------------|------------------------------|---------------------------------|
 D|------------------------------|------------------------------|---------------------------------|
 A|------------------------------|------------------------------|---------------------------------|
 E|----------------------2---2---|-2---2---2---2----------------|---------3---3---3---3---3---3---|
 B|-0----0---0---2---3-----------|-----------------0----0---0---|-2---3---------------------------|


 B|------------------------------|------------------------------|------------------------------|
F#|------------------------------|------------------------------|------------------------------|
 D|------------------------------|------------------------------|------------------------------|
 A|------------------------------|------------------------------|------------------------------|
 E|----------------------2---2---|-2---2---2---2----------------|---------2---2---2------------|
 B|-0----0---0---2---3-----------|-----------------0----0---0---|-2---3---------------3----2---|


 B|---------------------|------------------------|---------------------|---------------------|
F#|---------------------|------------------------|---------------------|---------------------|
 D|---------------------|------------------------|---------------------|---------------------|
 A|---------------------|------------------------|---------------------|---------------------|
 E|-2----2--------------|-----2----2-------------|------2----2---------|-------2----2--------|
 B|-0----0--------------|-----0----0-------------|------0----0---------|-------0----0--------|


 B|------------------------|------------------------|------------------------|---------------------------|
F#|------------------------|------------------------|------------------------|---------------------------|
 D|------------------------|------------------------|------------------------|---------------------------|
 A|--------------------8---|-7-------7--------------|-8---7-------7----------|-----8---7-------7---------|
 E|------------------------|------------------------|------------------------|---------------------------|
 B|-0---12----3----3-------|-----3---------3----3---|---------3---------3----|-3-----------3---------3---|


 B|---------------------------|---------------------------|------------------------------|
F#|---------------------------|---------------------------|------------------------------|
 D|---------------------------|---------------------------|------------------------------|
 A|---------8---7-------5-----|----------5---4-------4----|--------------5---4-------4---|
 E|---------------------------|---------------------------|------------------------------|
 B|-----3-----------3---------|-0----0-----------0--------|-----0----0-----------0-------|


 B|---------------------------|------------------------|------------------------|------------------------|
F#|---------------------------|------------------------|------------------------|------------------------|
 D|---------------------------|------------------------|------------------------|------------------------|
 A|---------------5---4-------|-4--------------5---4---|-----2--------------8---|-7-------7--------------|
 E|---------------------------|------------------------|------------------------|------------------------|
 B|------0----0-----------0---|-------0----0-----------|-0---------3----3-------|-----3---------3----3---|


 B|------------------------|---------------------------|---------------------------|
F#|------------------------|---------------------------|---------------------------|
 D|------------------------|---------------------------|---------------------------|
 A|-8---7-------7----------|-----8---7-------7---------|---------8---7-------5-----|
 E|------------------------|---------------------------|---------------------------|
 B|---------3---------3----|-3-----------3---------3---|-----3-----------3---------|


 B|---------------------------|------------------------------|---------------------------|
F#|---------------------------|------------------------------|---------------------------|
 D|---------------------------|------------------------------|---------------------------|
 A|---------------------------|------------------------------|---------------------------|
 E|-7----7---10--9---9---9----|-----7----7---10--9---9---9---|------7----7---10--9---9---|
 B|---------------------------|------------------------------|---------------------------|


 B|---------------------------|------------------------|------------------------|------------------------|
F#|---------------------------|------------------------|------------------------|------------------------|
 D|---------------------------|------------------------|------------------------|------------------------|
 A|-------10--10--10--9---9---|-9---7------------------|------------------------|------------------------|
 E|-9-------------------------|-----------7----7---10--|-9---9---9-----7----7---|-10--9---9---9-----7----|
 B|---------------------------|------------------------|------------------------|------------------------|


 B|---------------------------|---------------------|---------------------------|------------------------------|
F#|---------------------------|---------------------|---------------------------|------------------------------|
 D|---------------------------|---------------------|---------------------------|------------------------------|
 A|---------------------------|------------7---9----|---------------------------|------------------------------|
 E|-7---10--9---9---9-----10--|------9--------------|-7----7---10--9---9---9----|-----7----7---10--9---9---9---|
 B|---------------------------|---------------------|---------------------------|------------------------------|


 B|---------------------------|---------------------------|------------------------|
F#|---------------------------|---------------------------|------------------------|
 D|---------------------------|---------------------------|------------------------|
 A|---------------------------|-------10--10--10--9---9---|-9---7------------------|
 E|------7----7---10--9---9---|-9-------------------------|-----------7----7---10--|
 B|---------------------------|---------------------------|------------------------|


 B|------------------------|------------------------|---------------------------|---------------------|
F#|------------------------|------------------------|---------------------------|---------------------|
 D|------------------------|------------------------|---------------------------|---------------------|
 A|------------------------|------------------------|---------------------------|------------7---9----|
 E|-9---9---9-----7----7---|-10--9---9---9-----7----|-7---10--9---9---9-----10--|------9--------------|
 B|------------------------|------------------------|---------------------------|---------------------|


 B|------------------------------|------------------------------|---------------------------------|
F#|------------------------------|------------------------------|---------------------------------|
 D|------------------------------|------------------------------|---------------------------------|
 A|------------------------------|------------------------------|---------------------------------|
 E|----------------------2---2---|-2---2---2---2----------------|---------3---3---3---3---3---3---|
 B|-0----0---0---2---3-----------|-----------------0----0---0---|-2---3---------------------------|


 B|------------------------------|------------------------------|------------------------------|
F#|------------------------------|------------------------------|------------------------------|
 D|------------------------------|------------------------------|------------------------------|
 A|------------------------------|------------------------------|------------------------------|
 E|----------------------2---2---|-2---2---2---2----------------|---------2---2---2------------|
 B|-0----0---0---2---3-----------|-----------------0----0---0---|-2---3---------------3----2---|


 B|------------------------------|------------------------------|---------------------------------|
F#|------------------------------|------------------------------|---------------------------------|
 D|------------------------------|------------------------------|---------------------------------|
 A|------------------------------|------------------------------|---------------------------------|
 E|----------------------2---2---|-2---2---2---2----------------|---------3---3---3---3---3---3---|
 B|-0----0---0---2---3-----------|-----------------0----0---0---|-2---3---------------------------|


 B|------------------------------|------------------------------|------------------------------|
F#|------------------------------|------------------------------|------------------------------|
 D|------------------------------|------------------------------|------------------------------|
 A|------------------------------|------------------------------|------------------------------|
 E|----------------------2---2---|-2---2---2---2----------------|---------2---2---2------------|
 B|-0----0---0---2---3-----------|-----------------0----0---0---|-2---3---------------3----2---|


 B|---------------------------------|---------------------------------|---------------------------------|
F#|---------------------------------|---------------------------------|---------------------------------|
 D|-9---9---9---9---9---9---9---9---|-9---9---9---9---9---9---9---9---|-9---9---11--11--11--12--12--12--|
 A|---------------------------------|---------------------------------|---------------------------------|
 E|-7---7---7---7---7---7---7---7---|-7---7---7---7---7---7---7---7---|-7---7---9---9---9---10--10--10--|
 B|---------------------------------|---------------------------------|---------------------------------|


 B|---------------------------------|---------------------------------|---------------------------------|
F#|---------------------------------|---------------------------------|---------------------------------|
 D|-5---5---5---5---5---5---5---5---|-5---5---5---5---5---5---5---5---|-5---5---5---5---5---5---5---5---|
 A|---------------------------------|---------------------------------|---------------------------------|
 E|-3---3---3---3---3---3---3---3---|-3---3---3---3---3---3---3---3---|-3---3---3---3---3---3---3---3---|
 B|---------------------------------|---------------------------------|---------------------------------|


 B|---------------------------------|---------------------------------|---------------------------------|
F#|---------------------------------|---------------------------------|---------------------------------|
 D|-9---9---9---9---9---9---9---9---|-9---9---9---9---9---9---9---9---|-9---9---11--11--11--12--12--12--|
 A|---------------------------------|---------------------------------|---------------------------------|
 E|-7---7---7---7---7---7---7---7---|-7---7---7---7---7---7---7---7---|-7---7---9---9---9---10--10--10--|
 B|---------------------------------|---------------------------------|---------------------------------|


 B|---------------------------------|---------------------------------|---------------------------------|
F#|---------------------------------|---------------------------------|---------------------------------|
 D|-5---5---5---5---5---5---5---5---|-5---5---5---5---5---5---5---5---|-5---5---5---5---5---5---5---5---|
 A|---------------------------------|---------------------------------|---------------------------------|
 E|-3---3---3---3---3---3---3---3---|-3---3---3---3---3---3---3---3---|-3---3---3---3---3---3---3---3---|
 B|---------------------------------|---------------------------------|---------------------------------|


 B|---------------------|------------------------|---------------------|---------------------|
F#|---------------------|------------------------|---------------------|---------------------|
 D|---------------------|------------------------|---------------------|---------------------|
 A|---------------------|------------------------|---------------------|---------------------|
 E|-2----2--------------|-----2----2-------------|------2----2---------|-------2----2--------|
 B|-0----0--------------|-----0----0-------------|------0----0---------|-------0----0--------|


 B|------------------------|------------------------|------------------------|---------------------------|
F#|------------------------|------------------------|------------------------|---------------------------|
 D|------------------------|------------------------|------------------------|---------------------------|
 A|--------------------8---|-7-------7--------------|-8---7-------7----------|-----8---7-------7---------|
 E|------------------------|------------------------|------------------------|---------------------------|
 B|-0---12----3----3-------|-----3---------3----3---|---------3---------3----|-3-----------3---------3---|


 B|---------------------------|---------------------------|------------------------------|
F#|---------------------------|---------------------------|------------------------------|
 D|---------------------------|---------------------------|------------------------------|
 A|---------8---7-------5-----|----------5---4-------4----|--------------5---4-------4---|
 E|---------------------------|---------------------------|------------------------------|
 B|-----3-----------3---------|-0----0-----------0--------|-----0----0-----------0-------|


 B|---------------------------|------------------------|------------------------|------------------------|
F#|---------------------------|------------------------|------------------------|------------------------|
 D|---------------------------|------------------------|------------------------|------------------------|
 A|---------------5---4-------|-4--------------5---4---|-----2--------------8---|-7-------7--------------|
 E|---------------------------|------------------------|------------------------|------------------------|
 B|------0----0-----------0---|-------0----0-----------|-0---------3----3-------|-----3---------3----3---|


 B|------------------------|---------------------------|---------------------------|
F#|------------------------|---------------------------|---------------------------|
 D|------------------------|---------------------------|---------------------------|
 A|-8---7-------7----------|-----8---7-------7---------|---------8---7-------5-----|
 E|------------------------|---------------------------|---------------------------|
 B|---------3---------3----|-3-----------3---------3---|-----3-----------3---------|


 B|---------------------------|------------------------------|---------------------------|
F#|---------------------------|------------------------------|---------------------------|
 D|---------------------------|------------------------------|---------------------------|
 A|---------------------------|------------------------------|---------------------------|
 E|-7----7---10--9---9---9----|-----7----7---10--9---9---9---|------7----7---10--9---9---|
 B|---------------------------|------------------------------|---------------------------|


 B|---------------------------|------------------------|------------------------|------------------------|
F#|---------------------------|------------------------|------------------------|------------------------|
 D|---------------------------|------------------------|------------------------|------------------------|
 A|-------10--10--10--9---9---|-9---7------------------|------------------------|------------------------|
 E|-9-------------------------|-----------7----7---10--|-9---9---9-----7----7---|-10--9---9---9-----7----|
 B|---------------------------|------------------------|------------------------|------------------------|


 B|---------------------------|---------------------|---------------------------|------------------------------|
F#|---------------------------|---------------------|---------------------------|------------------------------|
 D|---------------------------|---------------------|---------------------------|------------------------------|
 A|---------------------------|------------7---9----|---------------------------|------------------------------|
 E|-7---10--9---9---9-----10--|------9--------------|-7----7---10--9---9---9----|-----7----7---10--9---9---9---|
 B|---------------------------|---------------------|---------------------------|------------------------------|


 B|---------------------------|---------------------------|------------------------|
F#|---------------------------|---------------------------|------------------------|
 D|---------------------------|---------------------------|------------------------|
 A|---------------------------|-------10--10--10--9---9---|-9---7------------------|
 E|------7----7---10--9---9---|-9-------------------------|-----------7----7---10--|
 B|---------------------------|---------------------------|------------------------|


 B|------------------------|------------------------|---------------------------|---------------------|
F#|------------------------|------------------------|---------------------------|---------------------|
 D|------------------------|------------------------|---------------------------|---------------------|
 A|------------------------|------------------------|---------------------------|------------7---9----|
 E|-9---9---9-----7----7---|-10--9---9---9-----7----|-7---10--9---9---9-----10--|------9--------------|
 B|------------------------|------------------------|---------------------------|---------------------|


 B|------------------------------|------------------------------|---------------------------------|
F#|------------------------------|------------------------------|---------------------------------|
 D|------------------------------|------------------------------|---------------------------------|
 A|------------------------------|------------------------------|---------------------------------|
 E|----------------------2---2---|-2---2---2---2----------------|---------3---3---3---3---3---3---|
 B|-0----0---0---2---3-----------|-----------------0----0---0---|-2---3---------------------------|


 B|------------------------------|------------------------------|------------------------------|
F#|------------------------------|------------------------------|------------------------------|
 D|------------------------------|------------------------------|------------------------------|
 A|------------------------------|------------------------------|------------------------------|
 E|----------------------2---2---|-2---2---2---2----------------|---------2---2---2------------|
 B|-0----0---0---2---3-----------|-----------------0----0---0---|-2---3---------------3----2---|


 B|------------------------------|------------------------------|---------------------------------|
F#|------------------------------|------------------------------|---------------------------------|
 D|------------------------------|------------------------------|---------------------------------|
 A|------------------------------|------------------------------|---------------------------------|
 E|----------------------2---2---|-2---2---2---2----------------|---------3---3---3---3---3---3---|
 B|-0----0---0---2---3-----------|-----------------0----0---0---|-2---3---------------------------|


 B|------------------------------|------------------------------|------------------------------|
F#|------------------------------|------------------------------|------------------------------|
 D|------------------------------|------------------------------|------------------------------|
 A|------------------------------|------------------------------|------------------------------|
 E|----------------------2---2---|-2---2---2---2----------------|---------2---2---2------------|
 B|-0----0---0---2---3-----------|-----------------0----0---0---|-2---3---------------3----2---|


 B|---------------------------------|---------------------------------|---------------------------------|
F#|---------------------------------|---------------------------------|---------------------------------|
 D|-9---9---9---9---9---9---9---9---|-9---9---9---9---9---9---9---9---|-9---9---11--11--11--12--12--12--|
 A|---------------------------------|---------------------------------|---------------------------------|
 E|-7---7---7---7---7---7---7---7---|-7---7---7---7---7---7---7---7---|-7---7---9---9---9---10--10--10--|
 B|---------------------------------|---------------------------------|---------------------------------|


 B|---------------------------------|---------------------------------|---------------------------------|
F#|---------------------------------|---------------------------------|---------------------------------|
 D|-5---5---5---5---5---5---5---5---|-5---5---5---5---5---5---5---5---|-5---5---5---5---5---5---5---5---|
 A|---------------------------------|---------------------------------|---------------------------------|
 E|-3---3---3---3---3---3---3---3---|-3---3---3---3---3---3---3---3---|-3---3---3---3---3---3---3---3---|
 B|---------------------------------|---------------------------------|---------------------------------|


 B|---------------------------------|---------------------------------|---------------------------------|
F#|---------------------------------|---------------------------------|---------------------------------|
 D|-9---9---9---9---9---9---9---9---|-9---9---9---9---9---9---9---9---|-9---9---11--11--11--12--12--12--|
 A|---------------------------------|---------------------------------|---------------------------------|
 E|-7---7---7---7---7---7---7---7---|-7---7---7---7---7---7---7---7---|-7---7---9---9---9---10--10--10--|
 B|---------------------------------|---------------------------------|---------------------------------|


 B|---------------------------------|---------------------------------|---------------------------------|
F#|---------------------------------|---------------------------------|---------------------------------|
 D|-5---5---5---5---5---5---5---5---|-5---5---5---5---5---5---5---5---|-5---5---5---5---5---5---5---5---|
 A|---------------------------------|---------------------------------|---------------------------------|
 E|-3---3---3---3---3---3---3---3---|-3---3---3---3---3---3---3---3---|-3---3---3---3---3---3---3---3---|
 B|---------------------------------|---------------------------------|---------------------------------|


 B|---------------------------|---------------------------|------------------------|
F#|---------------------------|---------------------------|------------------------|
 D|---------------------------|---------------------------|------------------------|
 A|---------------------------|---------------------------|------------------------|
 E|---------------------------|---------------------------|--------------2---------|
 B|-0----0---7---6---6---6----|-----6---5---5---5-----5---|-3---3---3---------3----|


 B|---------------------------|---------------------------|---------------------|---------------------------|
F#|---------------------------|---------------------------|---------------------|---------------------------|
 D|---------------------------|---------------------------|---------------------|---------------------------|
 A|---------------------------|---------------------------|---------------------|---------------------------|
 E|---------------------------|-----------------5---------|-----------7----5----|-7----7--------------------|
 B|-0----0---7---6---6---6----|-----6---7---6--------6----|-5----3--------------|----------7---6---6---6----|


 B|---------------------------|------------------------|------------------------|---------------------------|
F#|---------------------------|------------------------|------------------------|---------------------------|
 D|---------------------------|------------------------|------------------------|---------------------------|
 A|---------------------------|------------------------|------------------------|---------------------------|
 E|---------------------------|--------------2---------|------------------------|-----------------5---------|
 B|-----6---5---5---5-----5---|-3---3---3---------3----|-0-----7---6---6---6----|-----6---7---6--------6----|


 B|---------------------|---------------------|------------------------|------------------------|
F#|---------------------|---------------------|------------------------|------------------------|
 D|---------------------|---------------------|------------------------|------------------------|
 A|---------------------|---------------------|-9----------------------|------------------------|
 E|-----------7----5----|------10---9----10---|----------10---9----10--|-----10-------10---9----|
 B|-5----3--------------|-0-------------------|-----0------------------|---------0--------------|


 B|------------------------|---------------------|------------------------|------------------------|
F#|------------------------|---------------------|------------------------|------------------------|
 D|------------------------|---------------------|-----------7------------|------------------------|
 A|------9-----------------|-----------5----8----|-7----8--------5----8---|-----7----8----8---5----|
 E|-10------------10---9---|-----10--------------|------------------------|------------------------|
 B|----------0-------------|---------------------|------------------------|------------------------|


 B|------------------------|---------------------|---------------------|------------------------|
F#|------------------------|---------------------|---------------------|------------------------|
 D|----------------7-------|---------------------|---------------------|------------------------|
 A|-8----7----8--------5---|-----8----7----8-----|---------------------|-9----------------------|
 E|------------------------|---------------------|------10---9----10---|----------10---9----10--|
 B|------------------------|---------------------|-0-------------------|-----0------------------|


 B|------------------------|------------------------|---------------------|------------------------|
F#|------------------------|------------------------|---------------------|------------------------|
 D|------------------------|------------------------|---------------------|-----------7------------|
 A|------------------------|------9-----------------|-----------5----8----|-7----8--------5----8---|
 E|-----10-------10---9----|-10------------10---9---|-----10--------------|------------------------|
 B|---------0--------------|----------0-------------|---------------------|------------------------|


 B|------------------------|------------------------|---------------------|---------------------|
F#|------------------------|------------------------|---------------------|---------------------|
 D|------------------------|----------------7-------|---------------------|---------------------|
 A|-----7----8----8---5----|-8----7----8--------5---|-----8----7----8-----|---------------------|
 E|------------------------|------------------------|---------------------|-2----2--------------|
 B|------------------------|------------------------|---------------------|-0----0--------------|


 B|------------------------|---------------------|---------------------|------------------------|
F#|------------------------|---------------------|---------------------|------------------------|
 D|------------------------|---------------------|---------------------|------------------------|
 A|------------------------|---------------------|---------------------|-----------5----5-------|
 E|-----2----2-------------|------2----2---------|-------2----2--------|-----------5----5-------|
 B|-----0----0-------------|------0----0---------|-------0----0--------|-----------3----3-------|


 B|---------------------|------------------|---------------------|---------------------|
F#|---------------------|------------------|---------------------|---------------------|
 D|---------------------|------------------|---------------------|---------------------|
 A|------------5----5---|-------------5----|-5---------------5---|-----5---------------|
 E|------------5----5---|-------------5----|-5---------------5---|-----5---------------|
 B|------------3----3---|-------------3----|-3---------------3---|-----3---------------|


 B|---------------------------|------------------------------|---------------------------|
F#|---------------------------|------------------------------|---------------------------|
 D|---------------------------|------------------------------|---------------------------|
 A|----------5---4-------4----|--------------5---4-------4---|---------------5---4-------|
 E|---------------------------|------------------------------|---------------------------|
 B|-0----0-----------0--------|-----0----0-----------0-------|------0----0-----------0---|


 B|------------------------|------------------------|------------------------|------------------------|
F#|------------------------|------------------------|------------------------|------------------------|
 D|------------------------|------------------------|------------------------|------------------------|
 A|-4--------------5---4---|-----2--------------8---|-7-------7--------------|-8---7-------7----------|
 E|------------------------|------------------------|------------------------|------------------------|
 B|-------0----0-----------|-0---------3----3-------|-----3---------3----3---|---------3---------3----|


 B|---------------------------|---------------------------|---------------------------|
F#|---------------------------|---------------------------|---------------------------|
 D|---------------------------|---------------------------|---------------------------|
 A|-----8---7-------7---------|---------8---7-------5-----|----------5---4-------4----|
 E|---------------------------|---------------------------|---------------------------|
 B|-3-----------3---------3---|-----3-----------3---------|-0----0-----------0--------|


 B|------------------------------|---------------------------|------------------------|
F#|------------------------------|---------------------------|------------------------|
 D|------------------------------|---------------------------|------------------------|
 A|--------------5---4-------4---|---------------5---4-------|-4--------------5---4---|
 E|------------------------------|---------------------------|------------------------|
 B|-----0----0-----------0-------|------0----0-----------0---|-------0----0-----------|


 B|------------------------|------------------------|------------------------|---------------------------|
F#|------------------------|------------------------|------------------------|---------------------------|
 D|------------------------|------------------------|------------------------|---------------------------|
 A|-----2--------------8---|-7-------7--------------|-8---7-------7----------|-----8---7-------7---------|
 E|------------------------|------------------------|------------------------|---------------------------|
 B|-0---------3----3-------|-----3---------3----3---|---------3---------3----|-3-----------3---------3---|


 B|---------------------------|--------|-------------|--------|--------|-----------------|
F#|---------------------------|--------|-------------|--------|--------|-----------------|
 D|---------------------------|--------|-------------|--------|--------|-----------------|
 A|---------8---7-------5-----|--------|-------------|--------|--------|-----------------|
 E|---------------------------|-7------|-------7-----|--------|-7------|-------7---------|
 B|-----3-----------3---------|--------|-------------|--------|--------|-----------------|


 B|---------------------|---------------------------|---------------------------|------------------------|
F#|---------------------|---------------------------|---------------------------|------------------------|
 D|---------------------|---------------------------|---------------------------|------------------------|
 A|---------------------|---------------------------|---------------------------|------------------------|
 E|-----------7----5----|-7----7--------------------|---------------------------|--------------2---------|
 B|------0--------------|----------7---6---6---6----|-----6---5---5---5-----5---|-3---3---3---------3----|


 B|---------------------------|---------------------------|---------------------|---------------------------|
F#|---------------------------|---------------------------|---------------------|---------------------------|
 D|---------------------------|---------------------------|---------------------|---------------------------|
 A|---------------------------|---------------------------|---------------------|---------------------------|
 E|---------------------------|-----------------5---------|-----------7----5----|-7----7--------------------|
 B|-0----0---7---6---6---6----|-----6---7---6--------6----|-5----3--------------|----------7---6---6---6----|


 B|---------------------------|------------------------|---------------------------|
F#|---------------------------|------------------------|---------------------------|
 D|---------------------------|------------------------|---------------------------|
 A|---------------------------|------------------------|---------------------------|
 E|---------------------------|--------------2---------|---------------------------|
 B|-----6---5---5---5-----5---|-3---3---3---------3----|-0----0---7---6---6---6----|


 B|---------------------------|---------------------|---------------------------|---------------------------|
F#|---------------------------|---------------------|---------------------------|---------------------------|
 D|---------------------------|---------------------|---------------------------|---------------------------|
 A|---------------------------|---------------------|---------------------------|---------------------------|
 E|-----------------5---------|-----------7----5----|-7----7--------------------|---------------------------|
 B|-----6---7---6--------6----|-5----3--------------|----------7---6---6---6----|-----6---5---5---5-----5---|


 B|------------------------|---------------------------|---------------------------|
F#|------------------------|---------------------------|---------------------------|
 D|------------------------|---------------------------|---------------------------|
 A|------------------------|---------------------------|---------------------------|
 E|--------------2---------|---------------------------|-----------------5---------|
 B|-3---3---3---------3----|-0----0---7---6---6---6----|-----6---7---6--------6----|


 B|---------------------|------------------|
F#|---------------------|------------------|
 D|---------------------|------------------|
 A|---------------------|------------------|
 E|-----------7----5----|-7-----7----------|
 B|-5----3--------------|------------------|





Track 2: 2

 B|---------------------------------|---------------------------------|---------------------------------|
F#|---------------------------------|---------------------------------|---------------------------------|
 D|-9---9---9---9---9---9---7---7---|-7---7---7---7---5---5---5---5---|-5---5---5---5---5---5---5---5---|
 A|---------------------------------|---------------------------------|---------------------------------|
 E|-7---7---7---7---7---7---5---5---|-5---5---5---5---3---3---3---3---|-3---3---3---3---3---3---3---3---|
 B|---------------------------------|---------------------------------|---------------------------------|


 B|---------------------------------|---------------------------------|---------------------------------|
F#|---------------------------------|---------------------------------|---------------------------------|
 D|-5---5---5---5---5---5---4---4---|-4---4---4---4-------------------|---------------------------------|
 A|---------------------------------|-----------------7---7---7---7---|-7---7---7---7---7---7---7---7---|
 E|-3---3---3---3---3---3---2---2---|-2---2---2---2-------------------|---------------------------------|
 B|---------------------------------|-----------------5---5---5---5---|-5---5---5---5---5---5---5---5---|


 B|---------------------------------|---------------------------------|---------------------------------|
F#|---------------------------------|---------------------------------|---------------------------------|
 D|-9---9---9---9---9---9---7---7---|-7---7---7---7---5---5---5---5---|-5---5---5---5---5---5---5---5---|
 A|---------------------------------|---------------------------------|---------------------------------|
 E|-7---7---7---7---7---7---5---5---|-5---5---5---5---3---3---3---3---|-3---3---3---3---3---3---3---3---|
 B|---------------------------------|---------------------------------|---------------------------------|


 B|---------------------------------|---------------------------------|---------------------------------|
F#|---------------------------------|---------------------------------|---------------------------------|
 D|-5---5---5---5---5---5---4---4---|-4---4---4---4-------------------|---------------------------------|
 A|---------------------------------|-----------------7---7---7---7---|-7---7---7---7---7---7---7---7---|
 E|-3---3---3---3---3---3---2---2---|-2---2---2---2-------------------|---------------------------------|
 B|---------------------------------|-----------------5---5---5---5---|-5---5---5---5---5---5---5---5---|


 B|------------------------------|------------------------------|---------------------------------|
F#|------------------------------|------------------------------|---------------------------------|
 D|------------------------------|------------------------------|---------------------------------|
 A|------------------------------|------------------------------|---------------------------------|
 E|----------------------5---5---|-5---5---5---5----------------|---------7---7---7---9---9---10--|
 B|-0----0---0---2---3-----------|-----------------0----0---0---|-2---3---------------------------|


 B|------------------------------|------------------------------|------------------------------|
F#|------------------------------|------------------------------|------------------------------|
 D|------------------------------|------------------------------|------------------------------|
 A|------------------------------|------------------------------|------------------------------|
 E|----------------------5---5---|-5---5---5---5----------------|---------2---2---2------------|
 B|-0----0---0---2---3-----------|-----------------0----0---0---|-2---3---------------3----2---|


 B|------------------------------|------------------------------|---------------------------------|
F#|------------------------------|------------------------------|---------------------------------|
 D|------------------------------|------------------------------|---------------------------------|
 A|------------------------------|------------------------------|---------------------------------|
 E|----------------------5---5---|-5---5---5---5----------------|---------7---7---7---9---9---10--|
 B|-0----0---0---2---3-----------|-----------------0----0---0---|-2---3---------------------------|


 B|------------------------------|------------------------------|------------------------------|
F#|------------------------------|------------------------------|------------------------------|
 D|------------------------------|------------------------------|------------------------------|
 A|------------------------------|------------------------------|------------------------------|
 E|----------------------5---5---|-5---5---5---5----------------|---------2---2---2------------|
 B|-0----0---0---2---3-----------|-----------------0----0---0---|-2---3---------------3----2---|


 B|--------|--------|--------|--------|--------|--------|--------|--------|--------|
F#|--------|--------|--------|--------|--------|--------|--------|--------|--------|
 D|--------|--------|--------|--------|--------|--------|--------|--------|--------|
 A|--------|--------|--------|--------|--------|--------|--------|--------|--------|
 E|--------|--------|--------|--------|--------|--------|--------|--------|--------|
 B|--------|--------|--------|--------|--------|--------|--------|--------|--------|


 B|--------|--------|--------|--------|--------|--------|--------|--------|--------|
F#|--------|--------|--------|--------|--------|--------|--------|--------|--------|
 D|--------|--------|--------|--------|--------|--------|--------|--------|--------|
 A|--------|--------|--------|--------|--------|--------|--------|--------|--------|
 E|--------|--------|--------|--------|--------|--------|--------|--------|--------|
 B|--------|--------|--------|--------|--------|--------|--------|--------|--------|


 B|-------------|----------------|-------------|--------------|-----------------|------------------|
F#|-------------|----------------|-------------|--------------|-----------------|------------------|
 D|-9------9----|-----9------7---|------5------|-5-----5------|-----5-----9-----|------9-----9-----|
 A|-9------9----|-----9------7---|------5------|-5-----5------|-----5-----9-----|------9-----9-----|
 E|-7------7----|-----7------5---|------3------|-3-----3------|-----3-----7-----|------7-----7-----|
 B|-------------|----------------|-------------|--------------|-----------------|------------------|


 B|------------------|-----------------|-----------------|-------------|----------------|
F#|------------------|-----------------|-----------------|-------------|----------------|
 D|-------7-----5----|-------5---------|-----------------|-9------9----|-----9------7---|
 A|-------7-----5----|-------5-----5---|-----------5-----|-9------9----|-----9------7---|
 E|-------5-----3----|-------3-----5---|-----------5-----|-7------7----|-----7------5---|
 B|------------------|-------------3---|-----------3-----|-------------|----------------|


 B|-------------|--------------|-----------------|------------------|------------------|
F#|-------------|--------------|-----------------|------------------|------------------|
 D|------5------|-5-----5------|-----5-----9-----|------9-----9-----|-------7-----5----|
 A|------5------|-5-----5------|-----5-----9-----|------9-----9-----|-------7-----5----|
 E|------3------|-3-----3------|-----3-----7-----|------7-----7-----|-------5-----3----|
 B|-------------|--------------|-----------------|------------------|------------------|


 B|-----------------|-----------------|------------------------------|------------------------------|
F#|-----------------|-----------------|------------------------------|------------------------------|
 D|-------5---------|-----------------|------------------------------|------------------------------|
 A|-------5-----5---|-----------5-----|------------------------------|------------------------------|
 E|-------3-----5---|-----------5-----|----------------------5---5---|-5---5---5---5----------------|
 B|-------------3---|-----------3-----|-0----0---0---2---3-----------|-----------------0----0---0---|


 B|---------------------------------|------------------------------|------------------------------|
F#|---------------------------------|------------------------------|------------------------------|
 D|---------------------------------|------------------------------|------------------------------|
 A|---------------------------------|------------------------------|------------------------------|
 E|---------7---7---7---9---9---10--|----------------------5---5---|-5---5---5---5----------------|
 B|-2---3---------------------------|-0----0---0---2---3-----------|-----------------0----0---0---|


 B|------------------------------|------------------------------|------------------------------|
F#|------------------------------|------------------------------|------------------------------|
 D|------------------------------|------------------------------|------------------------------|
 A|------------------------------|------------------------------|------------------------------|
 E|---------2---2---2------------|----------------------2---2---|-2---2---2---2----------------|
 B|-2---3---------------3----2---|-0----0---0---2---3-----------|-----------------0----0---0---|


 B|---------------------------------|------------------------------|------------------------------|
F#|---------------------------------|------------------------------|------------------------------|
 D|---------------------------------|------------------------------|------------------------------|
 A|---------------------------------|------------------------------|------------------------------|
 E|---------7---7---7---9---9---10--|----------------------2---2---|-2---2---2---2----------------|
 B|-2---3---------------------------|-0----0---0---2---3-----------|-----------------0----0---0---|


 B|------------------------------|---------------------------------|---------------------------------|
F#|------------------------------|---------------------------------|---------------------------------|
 D|------------------------------|-9---9---9---9---9---9---7---7---|-7---7---7---7---5---5---5---5---|
 A|------------------------------|---------------------------------|---------------------------------|
 E|---------2---2---2------------|-7---7---7---7---7---7---5---5---|-5---5---5---5---3---3---3---3---|
 B|-2---3---------------3----2---|---------------------------------|---------------------------------|


 B|---------------------------------|---------------------------------|---------------------------------|
F#|---------------------------------|---------------------------------|---------------------------------|
 D|-5---5---5---5---5---5---5---5---|-5---5---5---5---5---5---4---4---|-4---4---4---4-------------------|
 A|---------------------------------|---------------------------------|-----------------7---7---7---7---|
 E|-3---3---3---3---3---3---3---3---|-3---3---3---3---3---3---2---2---|-2---2---2---2-------------------|
 B|---------------------------------|---------------------------------|-----------------5---5---5---5---|


 B|---------------------------------|---------------------------------|---------------------------------|
F#|---------------------------------|---------------------------------|---------------------------------|
 D|---------------------------------|-9---9---9---9---9---9---7---7---|-7---7---7---7---5---5---5---5---|
 A|-7---7---7---7---7---7---7---7---|---------------------------------|---------------------------------|
 E|---------------------------------|-7---7---7---7---7---7---5---5---|-5---5---5---5---3---3---3---3---|
 B|-5---5---5---5---5---5---5---5---|---------------------------------|---------------------------------|


 B|---------------------------------|---------------------------------|---------------------------------|
F#|---------------------------------|---------------------------------|---------------------------------|
 D|-5---5---5---5---5---5---5---5---|-5---5---5---5---5---5---4---4---|-4---4---4---4-------------------|
 A|---------------------------------|---------------------------------|-----------------7---7---7---7---|
 E|-3---3---3---3---3---3---3---3---|-3---3---3---3---3---3---2---2---|-2---2---2---2-------------------|
 B|---------------------------------|---------------------------------|-----------------5---5---5---5---|


 B|---------------------------------|--------|--------|--------|--------|--------|
F#|---------------------------------|--------|--------|--------|--------|--------|
 D|---------------------------------|--------|--------|--------|--------|--------|
 A|-7---7---7---7---7---7---7---7---|--------|--------|--------|--------|--------|
 E|---------------------------------|--------|--------|--------|--------|--------|
 B|-5---5---5---5---5---5---5---5---|--------|--------|--------|--------|--------|


 B|--------|--------|--------|--------|--------|--------|--------|--------|--------|
F#|--------|--------|--------|--------|--------|--------|--------|--------|--------|
 D|--------|--------|--------|--------|--------|--------|--------|--------|--------|
 A|--------|--------|--------|--------|--------|--------|--------|--------|--------|
 E|--------|--------|--------|--------|--------|--------|--------|--------|--------|
 B|--------|--------|--------|--------|--------|--------|--------|--------|--------|


 B|--------|--------|--------|--------|-------------|----------------|-------------|
F#|--------|--------|--------|--------|-------------|----------------|-------------|
 D|--------|--------|--------|--------|-9------9----|-----9------7---|------5------|
 A|--------|--------|--------|--------|-9------9----|-----9------7---|------5------|
 E|--------|--------|--------|--------|-7------7----|-----7------5---|------3------|
 B|--------|--------|--------|--------|-------------|----------------|-------------|


 B|--------------|-----------------|------------------|------------------|-----------------|
F#|--------------|-----------------|------------------|------------------|-----------------|
 D|-5-----5------|-----5-----9-----|------9-----9-----|-------7-----5----|-------5---------|
 A|-5-----5------|-----5-----9-----|------9-----9-----|-------7-----5----|-------5-----5---|
 E|-3-----3------|-----3-----7-----|------7-----7-----|-------5-----3----|-------3-----5---|
 B|--------------|-----------------|------------------|------------------|-------------3---|


 B|-----------------|-------------|----------------|-------------|--------------|-----------------|
F#|-----------------|-------------|----------------|-------------|--------------|-----------------|
 D|-----------------|-9------9----|-----9------7---|------5------|-5-----5------|-----5-----9-----|
 A|-----------5-----|-9------9----|-----9------7---|------5------|-5-----5------|-----5-----9-----|
 E|-----------5-----|-7------7----|-----7------5---|------3------|-3-----3------|-----3-----7-----|
 B|-----------3-----|-------------|----------------|-------------|--------------|-----------------|


 B|------------------|------------------|-----------------|-----------------|------------------------------|
F#|------------------|------------------|-----------------|-----------------|------------------------------|
 D|------9-----9-----|-------7-----5----|-------5---------|-----------------|------------------------------|
 A|------9-----9-----|-------7-----5----|-------5-----5---|-----------5-----|------------------------------|
 E|------7-----7-----|-------5-----3----|-------3-----5---|-----------5-----|----------------------5---5---|
 B|------------------|------------------|-------------3---|-----------3-----|-0----0---0---2---3-----------|


 B|------------------------------|---------------------------------|------------------------------|
F#|------------------------------|---------------------------------|------------------------------|
 D|------------------------------|---------------------------------|------------------------------|
 A|------------------------------|---------------------------------|------------------------------|
 E|-5---5---5---5----------------|---------7---7---7---9---9---10--|----------------------5---5---|
 B|-----------------0----0---0---|-2---3---------------------------|-0----0---0---2---3-----------|


 B|------------------------------|------------------------------|------------------------------|
F#|------------------------------|------------------------------|------------------------------|
 D|------------------------------|------------------------------|------------------------------|
 A|------------------------------|------------------------------|------------------------------|
 E|-5---5---5---5----------------|---------2---2---2------------|----------------------2---2---|
 B|-----------------0----0---0---|-2---3---------------3----2---|-0----0---0---2---3-----------|


 B|------------------------------|---------------------------------|------------------------------|
F#|------------------------------|---------------------------------|------------------------------|
 D|------------------------------|---------------------------------|------------------------------|
 A|------------------------------|---------------------------------|------------------------------|
 E|-2---2---2---2----------------|---------7---7---7---9---9---10--|----------------------2---2---|
 B|-----------------0----0---0---|-2---3---------------------------|-0----0---0---2---3-----------|


 B|------------------------------|------------------------------|---------------------------------|
F#|------------------------------|------------------------------|---------------------------------|
 D|------------------------------|------------------------------|-9---9---9---9---9---9---7---7---|
 A|------------------------------|------------------------------|---------------------------------|
 E|-2---2---2---2----------------|---------2---2---2------------|-7---7---7---7---7---7---5---5---|
 B|-----------------0----0---0---|-2---3---------------3----2---|---------------------------------|


 B|---------------------------------|---------------------------------|---------------------------------|
F#|---------------------------------|---------------------------------|---------------------------------|
 D|-7---7---7---7---5---5---5---5---|-5---5---5---5---5---5---5---5---|-5---5---5---5---5---5---4---4---|
 A|---------------------------------|---------------------------------|---------------------------------|
 E|-5---5---5---5---3---3---3---3---|-3---3---3---3---3---3---3---3---|-3---3---3---3---3---3---2---2---|
 B|---------------------------------|---------------------------------|---------------------------------|


 B|---------------------------------|---------------------------------|---------------------------------|
F#|---------------------------------|---------------------------------|---------------------------------|
 D|-4---4---4---4-------------------|---------------------------------|-9---9---9---9---9---9---7---7---|
 A|-----------------7---7---7---7---|-7---7---7---7---7---7---7---7---|---------------------------------|
 E|-2---2---2---2-------------------|---------------------------------|-7---7---7---7---7---7---5---5---|
 B|-----------------5---5---5---5---|-5---5---5---5---5---5---5---5---|---------------------------------|


 B|---------------------------------|---------------------------------|---------------------------------|
F#|---------------------------------|---------------------------------|---------------------------------|
 D|-7---7---7---7---5---5---5---5---|-5---5---5---5---5---5---5---5---|-5---5---5---5---5---5---4---4---|
 A|---------------------------------|---------------------------------|---------------------------------|
 E|-5---5---5---5---3---3---3---3---|-3---3---3---3---3---3---3---3---|-3---3---3---3---3---3---2---2---|
 B|---------------------------------|---------------------------------|---------------------------------|


 B|---------------------------------|---------------------------------|--------|--------|
F#|---------------------------------|---------------------------------|--------|--------|
 D|-4---4---4---4-------------------|---------------------------------|--------|--------|
 A|-----------------7---7---7---7---|-7---7---7---7---7---7---7---7---|--------|--------|
 E|-2---2---2---2-------------------|---------------------------------|--------|--------|
 B|-----------------5---5---5---5---|-5---5---5---5---5---5---5---5---|--------|--------|


 B|--------|--------|--------|--------|--------|--------|--------|--------|--------|
F#|--------|--------|--------|--------|--------|--------|--------|--------|--------|
 D|--------|--------|--------|--------|--------|--------|--------|--------|--------|
 A|--------|--------|--------|--------|--------|--------|--------|--------|--------|
 E|--------|--------|--------|--------|--------|--------|--------|--------|--------|
 B|--------|--------|--------|--------|--------|--------|--------|--------|--------|


 B|--------|---------------------|------------------------|------------------------|
F#|--------|---------------------|------------------------|------------------------|
 D|--------|---------------------|------------------------|------------------------|
 A|--------|---------------------|------------------------|------------------------|
 E|--------|------7----5----7----|-7--------7----5----7---|-----7--------7----5----|
 B|--------|-0-------------------|-----0------------------|---------0--------------|


 B|------------------------|---------------------|------------------------|------------------------|
F#|------------------------|---------------------|------------------------|------------------------|
 D|------------------------|---------------------|------------------------|------------------------|
 A|------------------------|----------------5----|-3----5----5--------5---|-----3----5----5--------|
 E|-7----7--------7----5---|-----7---------------|------------------------|------------------------|
 B|----------0-------------|-----------3---------|---------------3--------|-------------------3----|


 B|------------------------|---------------------|---------------------|------------------------|
F#|------------------------|---------------------|---------------------|------------------------|
 D|------------------------|---------------------|---------------------|------------------------|
 A|-5----3----5----5-------|-----5----3----5-----|---------------------|------------------------|
 E|------------------------|---------------------|------7----5----7----|-7--------7----5----7---|
 B|--------------------3---|---------------------|-0-------------------|-----0------------------|


 B|------------------------|------------------------|---------------------|------------------------|
F#|------------------------|------------------------|---------------------|------------------------|
 D|------------------------|------------------------|---------------------|------------------------|
 A|------------------------|------------------------|----------------5----|-3----5----5--------5---|
 E|-----7--------7----5----|-7----7--------7----5---|-----7---------------|------------------------|
 B|---------0--------------|----------0-------------|-----------3---------|---------------3--------|


 B|------------------------|------------------------|---------------------|--------|
F#|------------------------|------------------------|---------------------|--------|
 D|------------------------|------------------------|---------------------|--------|
 A|-----3----5----5--------|-5----3----5----5-------|-----5----3----5-----|--------|
 E|------------------------|------------------------|---------------------|--------|
 B|-------------------3----|--------------------3---|---------------------|--------|


 B|--------|--------|--------|--------|--------|--------|--------|--------|--------|
F#|--------|--------|--------|--------|--------|--------|--------|--------|--------|
 D|--------|--------|--------|--------|--------|--------|--------|--------|--------|
 A|--------|--------|--------|--------|--------|--------|--------|--------|--------|
 E|--------|--------|--------|--------|--------|--------|--------|--------|--------|
 B|--------|--------|--------|--------|--------|--------|--------|--------|--------|


 B|--------|--------|--------|--------|--------|--------|--------|--------|--------|
F#|--------|--------|--------|--------|--------|--------|--------|--------|--------|
 D|--------|--------|--------|--------|--------|--------|--------|--------|--------|
 A|--------|--------|--------|--------|--------|--------|--------|--------|--------|
 E|--------|--------|--------|--------|--------|--------|--------|--------|--------|
 B|--------|--------|--------|--------|--------|--------|--------|--------|--------|


 B|--------|--------|--------|--------|--------|--------|--------|--------|--------|
F#|--------|--------|--------|--------|--------|--------|--------|--------|--------|
 D|--------|--------|--------|--------|--------|--------|--------|--------|--------|
 A|--------|--------|--------|--------|--------|--------|--------|--------|--------|
 E|--------|--------|--------|--------|--------|--------|--------|--------|-10-----|
 B|--------|--------|--------|--------|--------|--------|--------|--------|--------|


 B|-------------|--------|--------|-----------------|---------------------|--------|
F#|-------------|--------|--------|-----------------|---------------------|--------|
 D|-------------|--------|--------|-----------------|---------------------|--------|
 A|-------------|--------|--------|-----------------|---------------------|--------|
 E|-------10----|--------|-10-----|-------10--------|-----------7----5----|--------|
 B|-------------|--------|--------|-----------------|------0--------------|--------|


 B|--------|--------|--------|--------|--------|--------|--------|--------|--------|
F#|--------|--------|--------|--------|--------|--------|--------|--------|--------|
 D|--------|--------|--------|--------|--------|--------|--------|--------|--------|
 A|--------|--------|--------|--------|--------|--------|--------|--------|--------|
 E|--------|--------|--------|--------|--------|--------|--------|--------|--------|
 B|--------|--------|--------|--------|--------|--------|--------|--------|--------|


 B|--------|--------|--------|--------|--------|--------|--------|--------|--------|
F#|--------|--------|--------|--------|--------|--------|--------|--------|--------|
 D|--------|--------|--------|--------|--------|--------|--------|--------|--------|
 A|--------|--------|--------|--------|--------|--------|--------|--------|--------|
 E|--------|--------|--------|--------|--------|--------|--------|--------|--------|
 B|--------|--------|--------|--------|--------|--------|--------|--------|--------|





Track 3: Solo

 B|--------|--------|--------|--------|--------|--------|--------|--------|--------|
F#|--------|--------|--------|--------|--------|--------|--------|--------|--------|
 D|--------|--------|--------|--------|--------|--------|--------|--------|--------|
 A|--------|--------|--------|--------|--------|--------|--------|--------|--------|
 E|--------|--------|--------|--------|--------|--------|--------|--------|--------|
 B|--------|--------|--------|--------|--------|--------|--------|--------|--------|


 B|--------|--------|--------|--------|--------|--------|--------|--------|--------|
F#|--------|--------|--------|--------|--------|--------|--------|--------|--------|
 D|--------|--------|--------|--------|--------|--------|--------|--------|--------|
 A|--------|--------|--------|--------|--------|--------|--------|--------|--------|
 E|--------|--------|--------|--------|--------|--------|--------|--------|--------|
 B|--------|--------|--------|--------|--------|--------|--------|--------|--------|


 B|--------|--------|--------|--------|--------|--------|--------|--------|--------|
F#|--------|--------|--------|--------|--------|--------|--------|--------|--------|
 D|--------|--------|--------|--------|--------|--------|--------|--------|--------|
 A|--------|--------|--------|--------|--------|--------|--------|--------|--------|
 E|--------|--------|--------|--------|--------|--------|--------|--------|--------|
 B|--------|--------|--------|--------|--------|--------|--------|--------|--------|


 B|--------|--------|--------|--------|--------|--------|--------|--------|--------|
F#|--------|--------|--------|--------|--------|--------|--------|--------|--------|
 D|--------|--------|--------|--------|--------|--------|--------|--------|--------|
 A|--------|--------|--------|--------|--------|--------|--------|--------|--------|
 E|--------|--------|--------|--------|--------|--------|--------|--------|--------|
 B|--------|--------|--------|--------|--------|--------|--------|--------|--------|


 B|--------|--------|--------|--------|--------|--------|--------|--------|--------|
F#|--------|--------|--------|--------|--------|--------|--------|--------|--------|
 D|--------|--------|--------|--------|--------|--------|--------|--------|--------|
 A|--------|--------|--------|--------|--------|--------|--------|--------|--------|
 E|--------|--------|--------|--------|--------|--------|--------|--------|--------|
 B|--------|--------|--------|--------|--------|--------|--------|--------|--------|


 B|--------|--------|--------|--------|--------|--------|--------|--------|--------|
F#|--------|--------|--------|--------|--------|--------|--------|--------|--------|
 D|--------|--------|--------|--------|--------|--------|--------|--------|--------|
 A|--------|--------|--------|--------|--------|--------|--------|--------|--------|
 E|--------|--------|--------|--------|--------|--------|--------|--------|--------|
 B|--------|--------|--------|--------|--------|--------|--------|--------|--------|


 B|--------|--------|--------|--------|--------|--------|--------|--------|--------|
F#|--------|--------|--------|--------|--------|--------|--------|--------|--------|
 D|--------|--------|--------|--------|--------|--------|--------|--------|--------|
 A|--------|--------|--------|--------|--------|--------|--------|--------|--------|
 E|--------|--------|--------|--------|--------|--------|--------|--------|--------|
 B|--------|--------|--------|--------|--------|--------|--------|--------|--------|


 B|--------|--------|--------|--------|--------|--------|--------|--------|--------|
F#|--------|--------|--------|--------|--------|--------|--------|--------|--------|
 D|--------|--------|--------|--------|--------|--------|--------|--------|--------|
 A|--------|--------|--------|--------|--------|--------|--------|--------|--------|
 E|--------|--------|--------|--------|--------|--------|--------|--------|--------|
 B|--------|--------|--------|--------|--------|--------|--------|--------|--------|


 B|--------|--------|--------|--------|--------|--------|--------|--------|--------|
F#|--------|--------|--------|--------|--------|--------|--------|--------|--------|
 D|--------|--------|--------|--------|--------|--------|--------|--------|--------|
 A|--------|--------|--------|--------|--------|--------|--------|--------|--------|
 E|--------|--------|--------|--------|--------|--------|--------|--------|--------|
 B|--------|--------|--------|--------|--------|--------|--------|--------|--------|


 B|--------|--------|--------|--------|--------|--------|--------|--------|--------|
F#|--------|--------|--------|--------|--------|--------|--------|--------|--------|
 D|--------|--------|--------|--------|--------|--------|--------|--------|--------|
 A|--------|--------|--------|--------|--------|--------|--------|--------|--------|
 E|--------|--------|--------|--------|--------|--------|--------|--------|--------|
 B|--------|--------|--------|--------|--------|--------|--------|--------|--------|


 B|--------|--------|--------|--------|--------|--------|--------|--------|--------|
F#|--------|--------|--------|--------|--------|--------|--------|--------|--------|
 D|--------|--------|--------|--------|--------|--------|--------|--------|--------|
 A|--------|--------|--------|--------|--------|--------|--------|--------|--------|
 E|--------|--------|--------|--------|--------|--------|--------|--------|--------|
 B|--------|--------|--------|--------|--------|--------|--------|--------|--------|


 B|--------|--------|--------|--------|--------|--------|--------|--------|--------|
F#|--------|--------|--------|--------|--------|--------|--------|--------|--------|
 D|--------|--------|--------|--------|--------|--------|--------|--------|--------|
 A|--------|--------|--------|--------|--------|--------|--------|--------|--------|
 E|--------|--------|--------|--------|--------|--------|--------|--------|--------|
 B|--------|--------|--------|--------|--------|--------|--------|--------|--------|


 B|--------|--------|--------|--------|--------|--------|--------|--------|--------|
F#|--------|--------|--------|--------|--------|--------|--------|--------|--------|
 D|--------|--------|--------|--------|--------|--------|--------|--------|--------|
 A|--------|--------|--------|--------|--------|--------|--------|--------|--------|
 E|--------|--------|--------|--------|--------|--------|--------|--------|--------|
 B|--------|--------|--------|--------|--------|--------|--------|--------|--------|


 B|--------|--------|--------|--------|--------|--------|--------|--------|--------|
F#|--------|--------|--------|--------|--------|--------|--------|--------|--------|
 D|--------|--------|--------|--------|--------|--------|--------|--------|--------|
 A|--------|--------|--------|--------|--------|--------|--------|--------|--------|
 E|--------|--------|--------|--------|--------|--------|--------|--------|--------|
 B|--------|--------|--------|--------|--------|--------|--------|--------|--------|


 B|--------|--------|--------|--------|--------|--------|--------|--------|--------|
F#|--------|--------|--------|--------|--------|--------|--------|--------|--------|
 D|--------|--------|--------|--------|--------|--------|--------|--------|--------|
 A|--------|--------|--------|--------|--------|--------|--------|--------|--------|
 E|--------|--------|--------|--------|--------|--------|--------|--------|--------|
 B|--------|--------|--------|--------|--------|--------|--------|--------|--------|


 B|--------|--------|--------|--------|--------|--------|--------|--------|--------|
F#|--------|--------|--------|--------|--------|--------|--------|--------|--------|
 D|--------|--------|--------|--------|--------|--------|--------|--------|--------|
 A|--------|--------|--------|--------|--------|--------|--------|--------|--------|
 E|--------|--------|--------|--------|--------|--------|--------|--------|--------|
 B|--------|--------|--------|--------|--------|--------|--------|--------|--------|


 B|--------|--------|--------|--------|--------|--------|--------|--------|--------|
F#|--------|--------|--------|--------|--------|--------|--------|--------|--------|
 D|--------|--------|--------|--------|--------|--------|--------|--------|--------|
 A|--------|--------|--------|--------|--------|--------|--------|--------|--------|
 E|--------|--------|--------|--------|--------|--------|--------|--------|--------|
 B|--------|--------|--------|--------|--------|--------|--------|--------|--------|


 B|--------|--------|--------|--------|--------|--------|--------|--------|--------|
F#|--------|--------|--------|--------|--------|--------|--------|--------|--------|
 D|--------|--------|--------|--------|--------|--------|--------|--------|--------|
 A|--------|--------|--------|--------|--------|--------|--------|--------|--------|
 E|--------|--------|--------|--------|--------|--------|--------|--------|--------|
 B|--------|--------|--------|--------|--------|--------|--------|--------|--------|


 B|--------|--------|--------|-------------|---------------------------------|---------------------------|
F#|--------|--------|--------|-------------|-----------------10--12--13--15--|------13--12--10--13---12--|
 D|--------|--------|--------|-9------9----|-----9---11--12------------------|---------------------------|
 A|--------|--------|--------|-------------|---------------------------------|---------------------------|
 E|--------|--------|--------|-------------|---------------------------------|---------------------------|
 B|--------|--------|--------|-------------|---------------------------------|---------------------------|


 B|----------------------|-------------|------------------|------------------|-------------18--|
F#|----------------------|-------15----|------15----------|-------------15---|-------15--------|
 D|-----14---12----12-12-|-12----------|------------15----|-14----15---------|-----------------|
 A|----------------------|-------------|------------------|------------------|-----------------|
 E|----------------------|-------------|------------------|------------------|-----------------|
 B|----------------------|-------------|------------------|------------------|-----------------|


 B|-----------18----|-------------19--20--22--22---|-----22--20--19------------------|
F#|-----------------|-19--20--22-------------------|-----------------22--20--19--20--|
 D|-----------------|------------------------------|---------------------------------|
 A|-----------------|------------------------------|---------------------------------|
 E|-----------------|------------------------------|---------------------------------|
 B|-----------------|------------------------------|---------------------------------|


 B|------------------19--20--22--|--------------|-----------------|------------------|
F#|------19--20--22--------------|-19----19-----|-----17----15----|------15----15----|
 D|------------------------------|--------------|-----------------|------------------|
 A|------------------------------|--------------|-----------------|------------------|
 E|------------------------------|--------------|-----------------|------------------|
 B|------------------------------|--------------|-----------------|------------------|


 B|----------------------------|-----------------|-----------------|--------|--------|
F#|-12--15--12--0---10----12---|-------12----12--|-----------12----|--------|--------|
 D|----------------------------|-----------------|-----------------|--------|--------|
 A|----------------------------|-----------------|-----------------|--------|--------|
 E|----------------------------|-----------------|-----------------|--------|--------|
 B|----------------------------|-----------------|-----------------|--------|--------|


 B|--------|--------|--------|--------|--------|--------|--------|--------|--------|
F#|--------|--------|--------|--------|--------|--------|--------|--------|--------|
 D|--------|--------|--------|--------|--------|--------|--------|--------|--------|
 A|--------|--------|--------|--------|--------|--------|--------|--------|--------|
 E|--------|--------|--------|--------|--------|--------|--------|--------|--------|
 B|--------|--------|--------|--------|--------|--------|--------|--------|--------|


 B|--------|--------|--------|--------|--------|--------|--------|--------|--------|
F#|--------|--------|--------|--------|--------|--------|--------|--------|--------|
 D|--------|--------|--------|--------|--------|--------|--------|--------|--------|
 A|--------|--------|--------|--------|--------|--------|--------|--------|--------|
 E|--------|--------|--------|--------|--------|--------|--------|--------|--------|
 B|--------|--------|--------|--------|--------|--------|--------|--------|--------|


 B|--------|--------|--------|--------|--------|--------|--------|--------|--------|
F#|--------|--------|--------|--------|--------|--------|--------|--------|--------|
 D|--------|--------|--------|--------|--------|--------|--------|--------|--------|
 A|--------|--------|--------|--------|--------|--------|--------|--------|--------|
 E|--------|--------|--------|--------|--------|--------|--------|--------|--------|
 B|--------|--------|--------|--------|--------|--------|--------|--------|--------|


 B|--------|--------|--------|--------|--------|--------|--------|---------------------------|
F#|--------|--------|--------|--------|--------|--------|--------|---------------------------|
 D|--------|--------|--------|--------|--------|--------|--------|---------------------------|
 A|--------|--------|--------|--------|--------|--------|--------|----------9---8---8---8----|
 E|--------|--------|--------|--------|--------|--------|--------|-7----7--------------------|
 B|--------|--------|--------|--------|--------|--------|--------|---------------------------|


 B|---------------------------|------------------------|------------------------|---------------------------|
F#|---------------------------|------------------------|------------------------|---------------------------|
 D|---------------------------|--------------4---------|------------------------|-----------------7---------|
 A|-----8---7---7---7-----7---|-5---5---5---------5----|-------9---8---8---8----|-----8---9---8--------8----|
 E|---------------------------|------------------------|------------------------|---------------------------|
 B|---------------------------|------------------------|------------------------|---------------------------|


 B|---------------------|------------------|
F#|---------------------|------------------|
 D|-----------9----7----|-9-----9----------|
 A|-7----5--------------|------------------|
 E|---------------------|------------------|
 B|---------------------|------------------|





Track 4: Untitled

D|---------------------|---------------------|---------------------|---------------------|
A|---------------------|---------------------|---------------------|---------------------|
E|-7----7----7----5----|-5----5----3----3----|-3----3----3----3----|-3----3----3----2----|
B|---------------------|---------------------|---------------------|---------------------|


D|---------------------|---------------------|---------------------|---------------------|
A|---------------------|---------------------|---------------------|---------------------|
E|-2----2----0----0----|-0----0----0----0----|-7----7----7----5----|-5----5----3----3----|
B|---------------------|---------------------|---------------------|---------------------|


D|---------------------|---------------------|---------------------|---------------------|
A|---------------------|---------------------|---------------------|---------------------|
E|-3----3----3----3----|-3----3----3----2----|-2----2----0----0----|-0----0----0----0----|
B|---------------------|---------------------|---------------------|---------------------|


D|---------------------------|------------------------|------------------------|---------------------------|
A|---------------------------|------------------------|------------------------|---------------------------|
E|----------------------2----|-2---2------------------|---------3----3---3-----|----------------------2----|
B|-0----0---0---2---3--------|-----------0----0---0---|-2---3------------------|-0----0---0---2---3--------|


D|------------------------|------------------------|---------------------------|------------------------|
A|------------------------|------------------------|---------------------------|------------------------|
E|-2---2------------------|---------2--------------|----------------------2----|-2---2------------------|
B|-----------0----0---0---|-2---3---------3----2---|-0----0---0---2---3--------|-----------0----0---0---|


D|------------------------|---------------------------|------------------------|------------------------|
A|------------------------|---------------------------|------------------------|------------------------|
E|---------3----3---3-----|----------------------2----|-2---2------------------|---------2--------------|
B|-2---3------------------|-0----0---0---2---3--------|-----------0----0---0---|-2---3---------3----2---|


D|---------------------|------------------------|---------------------|---------------------|
A|---------------------|------------------------|---------------------|---------------------|
E|---------------------|------------------------|---------------------|---------------------|
B|-0----0--------------|-----0----0-------------|------0----0---------|-------0----0--------|


D|------------------------|---------------------|------------------|---------------------|
A|------------------------|---------------------|------------------|---------------------|
E|------------------------|---------------------|------------------|---------------------|
B|-----12----3----3-------|------------3----3---|-------------3----|-3---------------3---|


D|---------------------|---------------------------------|---------------------------------|
A|---------------------|-2---2---2---2---2---2---2---2---|-2---2---2---2---2---2---2---2---|
E|---------------------|---------------------------------|---------------------------------|
B|-----3---------------|---------------------------------|---------------------------------|


D|---------------------------------|---------------------------------|---------------------------------|
A|-2---2---2---2---2---2---2---2---|-2---2---2---2---2---2---2---2---|-2---2---2---2-------------------|
E|---------------------------------|---------------------------------|---------------------------------|
B|---------------------------------|---------------------------------|-----------------3---3---3---3---|


D|---------------------------------|---------------------------------|---------------------------------|
A|---------------------------------|---------------------------------|---------------------------------|
E|---------------------------------|---------------------------------|---------------------------------|
B|-3---3---3---3---3---3---3---3---|-3---3---3---3---3---3---3---3---|-3---3---3---3---3---3---3---3---|


D|---------------------------|---------------------|------------------------|---------------------|
A|---------------------------|---------------------|------------------------|------10---10--10----|
E|---------------------------|-7----7---7-----7----|-----7----7---7-----10--|---------------------|
B|-3---3---3---3---3---3-----|---------------------|------------------------|---------------------|


D|------------------|--------------------|---------------------|------------------|
A|-10----10----10---|--------------------|---------------------|-------------10---|
E|------------------|-------7----7---7---|------7-----7----7---|-7-----10---------|
B|------------------|--------------------|---------------------|------------------|


D|---------------------|-----------------|---------------------|-----------------7---|
A|-10--10----10--------|-----------------|---------------------|---------------------|
E|-----------------10--|-----------10----|-7----7---7-----7----|-----7-----7---------|
B|---------------------|-----------------|---------------------|---------------------|


D|------------------|------------------|--------------------|---------------------|
A|------10----10----|-------10----10---|--------------------|---------------------|
E|------------------|------------------|-------7----7---7---|------7-----7----7---|
B|------------------|------------------|--------------------|---------------------|


D|-------7----------|----------------|-----------------|---------------------------|
A|-------------10---|-10--10---------|-----------------|---------------------------|
E|-7----------------|------------10--|-----------10----|----------------------2----|
B|------------------|----------------|-----------------|-0----0---0---2---3--------|


D|------------------------|------------------------|---------------------------|------------------------|
A|------------------------|------------------------|---------------------------|------------------------|
E|-2---2------------------|---------3----3---3-----|----------------------2----|-2---2------------------|
B|-----------0----0---0---|-2---3------------------|-0----0---0---2---3--------|-----------0----0---0---|


D|------------------------|---------------------------|------------------------|------------------------|
A|------------------------|---------------------------|------------------------|------------------------|
E|---------2--------------|----------------------2----|-2---2------------------|---------3----3---3-----|
B|-2---3---------3----2---|-0----0---0---2---3--------|-----------0----0---0---|-2---3------------------|


D|---------------------------|------------------------|------------------------|---------------------|
A|---------------------------|------------------------|------------------------|---------------------|
E|----------------------2----|-2---2------------------|---------2--------------|-7----7----7----5----|
B|-0----0---0---2---3--------|-----------0----0---0---|-2---3---------3----2---|---------------------|


D|---------------------|---------------------|---------------------|---------------------|
A|---------------------|---------------------|---------------------|---------------------|
E|-5----5----3----3----|-3----3----3----3----|-3----3----3----2----|-2----2----0----0----|
B|---------------------|---------------------|---------------------|---------------------|


D|---------------------|---------------------|---------------------|---------------------|
A|---------------------|---------------------|---------------------|---------------------|
E|-0----0----0----0----|-7----7----7----5----|-5----5----3----3----|-3----3----3----3----|
B|---------------------|---------------------|---------------------|---------------------|


D|---------------------|---------------------|---------------------|---------------------|
A|---------------------|---------------------|---------------------|---------------------|
E|-3----3----3----2----|-2----2----0----0----|-0----0----0----0----|---------------------|
B|---------------------|---------------------|---------------------|-0----0--------------|


D|------------------------|---------------------|---------------------|------------------------|
A|------------------------|---------------------|---------------------|------------------------|
E|------------------------|---------------------|---------------------|------------------------|
B|-----0----0-------------|------0----0---------|-------0----0--------|-----12----3----3-------|


D|---------------------|------------------|---------------------|---------------------|
A|---------------------|------------------|---------------------|---------------------|
E|---------------------|------------------|---------------------|---------------------|
B|------------3----3---|-------------3----|-3---------------3---|-----3---------------|


D|---------------------------------|---------------------------------|---------------------------------|
A|-2---2---2---2---2---2---2---2---|-2---2---2---2---2---2---2---2---|-2---2---2---2---2---2---2---2---|
E|---------------------------------|---------------------------------|---------------------------------|
B|---------------------------------|---------------------------------|---------------------------------|


D|---------------------------------|---------------------------------|---------------------------------|
A|-2---2---2---2---2---2---2---2---|-2---2---2---2-------------------|---------------------------------|
E|---------------------------------|---------------------------------|---------------------------------|
B|---------------------------------|-----------------3---3---3---3---|-3---3---3---3---3---3---3---3---|


D|---------------------------------|---------------------------------|---------------------------|
A|---------------------------------|---------------------------------|---------------------------|
E|---------------------------------|---------------------------------|---------------------------|
B|-3---3---3---3---3---3---3---3---|-3---3---3---3---3---3---3---3---|-3---3---3---3---3---3-----|


D|---------------------|------------------------|---------------------|------------------|
A|---------------------|------------------------|------10---10--10----|-10----10----10---|
E|-7----7---7-----7----|-----7----7---7-----10--|---------------------|------------------|
B|---------------------|------------------------|---------------------|------------------|


D|--------------------|---------------------|------------------|---------------------|
A|--------------------|---------------------|-------------10---|-10--10----10--------|
E|-------7----7---7---|------7-----7----7---|-7-----10---------|-----------------10--|
B|--------------------|---------------------|------------------|---------------------|


D|-----------------|---------------------|-----------------7---|------------------|
A|-----------------|---------------------|---------------------|------10----10----|
E|-----------10----|-7----7---7-----7----|-----7-----7---------|------------------|
B|-----------------|---------------------|---------------------|------------------|


D|------------------|--------------------|---------------------|-------7----------|
A|-------10----10---|--------------------|---------------------|-------------10---|
E|------------------|-------7----7---7---|------7-----7----7---|-7----------------|
B|------------------|--------------------|---------------------|------------------|


D|----------------|-----------------|---------------------------|------------------------|
A|-10--10---------|-----------------|---------------------------|------------------------|
E|------------10--|-----------10----|----------------------2----|-2---2------------------|
B|----------------|-----------------|-0----0---0---2---3--------|-----------0----0---0---|


D|------------------------|---------------------------|------------------------|------------------------|
A|------------------------|---------------------------|------------------------|------------------------|
E|---------3----3---3-----|----------------------2----|-2---2------------------|---------2--------------|
B|-2---3------------------|-0----0---0---2---3--------|-----------0----0---0---|-2---3---------3----2---|


D|---------------------------|------------------------|------------------------|---------------------------|
A|---------------------------|------------------------|------------------------|---------------------------|
E|----------------------2----|-2---2------------------|---------3----3---3-----|----------------------2----|
B|-0----0---0---2---3--------|-----------0----0---0---|-2---3------------------|-0----0---0---2---3--------|


D|------------------------|------------------------|---------------------|---------------------|
A|------------------------|------------------------|---------------------|---------------------|
E|-2---2------------------|---------2--------------|-7----7----7----5----|-5----5----3----3----|
B|-----------0----0---0---|-2---3---------3----2---|---------------------|---------------------|


D|---------------------|---------------------|---------------------|---------------------|
A|---------------------|---------------------|---------------------|---------------------|
E|-3----3----3----3----|-3----3----3----2----|-2----2----0----0----|-0----0----0----0----|
B|---------------------|---------------------|---------------------|---------------------|


D|---------------------|---------------------|---------------------|---------------------|
A|---------------------|---------------------|---------------------|---------------------|
E|-7----7----7----5----|-5----5----3----3----|-3----3----3----3----|-3----3----3----2----|
B|---------------------|---------------------|---------------------|---------------------|


D|---------------------|---------------------|---------------------------|---------------------------|
A|---------------------|---------------------|---------------------------|---------------------------|
E|-2----2----0----0----|-0----0----0----0----|---------------------------|---------------------------|
B|---------------------|---------------------|-0----0---7---6---6---6----|-----6---5---5---5-----5---|


D|------------------------|------------------------|---------------------------|---------------------|
A|------------------------|------------------------|---------------------------|---------------------|
E|--------------2---------|------------------------|-----------------5---------|-----------7----5----|
B|-3---3---3---------3----|-0-----7---6---6---6----|-----6---7---6--------6----|-5----3--------------|


D|------------------------|---------------------------|------------------------|------------------------|
A|------------------------|---------------------------|------------------------|------------------------|
E|-7----------------------|---------------------------|--------------2---------|------------------------|
B|-------7---6---6---6----|-----6---5---5---5-----5---|-3---3---3---------3----|-0-----7---6---6---6----|


D|---------------------------|---------------------|---------------------|------------------------|
A|---------------------------|---------------------|---------------------|------------------------|
E|-----------------5---------|-----------7----5----|-7----7----5----7----|-7---7----7----5----7---|
B|-----6---7---6--------6----|-5----3--------------|---------------------|------------------------|


D|------------------------|------------------------|---------------------|------------------------|
A|------------------------|------------------------|---------------------|------------------------|
E|-----7---7----7----5----|-7----7---7----7----5---|-----7---------------|------------------------|
B|------------------------|------------------------|-----------3----3----|-1----3----3---3----3---|


D|------------------------|------------------------|---------------------|---------------------|
A|------------------------|------------------------|---------------------|---------------------|
E|------------------------|------------------------|---------------------|-7----7----5----7----|
B|-----1----3----3---3----|-3----1----3----3---3---|-----3----1----3-----|---------------------|


D|------------------------|------------------------|------------------------|---------------------|
A|------------------------|------------------------|------------------------|---------------------|
E|-7---7----7----5----7---|-----7---7----7----5----|-7----7---7----7----5---|-----7---------------|
B|------------------------|------------------------|------------------------|-----------3----3----|


D|------------------------|------------------------|------------------------|---------------------|
A|------------------------|------------------------|------------------------|---------------------|
E|------------------------|------------------------|------------------------|---------------------|
B|-1----3----3---3----3---|-----1----3----3---3----|-3----1----3----3---3---|-----3----1----3-----|


D|---------------------|------------------------|---------------------|---------------------|
A|---------------------|------------------------|---------------------|---------------------|
E|---------------------|------------------------|---------------------|---------------------|
B|-0----0--------------|-----0----0-------------|------0----0---------|-------0----0--------|


D|------------------------|---------------------|------------------|---------------------|
A|------------------------|---------------------|------------------|---------------------|
E|------------------------|---------------------|------------------|---------------------|
B|-----------3----3-------|------------3----3---|-------------3----|-3---------------3---|


D|---------------------|---------------------------------|---------------------------------|
A|---------------------|-2---2---2---2---2---2---2---2---|-2---2---2---2---2---2---2---2---|
E|---------------------|---------------------------------|---------------------------------|
B|-----3---------------|---------------------------------|---------------------------------|


D|---------------------------------|---------------------------------|---------------------------|
A|-2---2---2---2---2---2---2---2---|-2---2---2---2---2---2---2---2---|-2---2---------------------|
E|---------------------------------|---------------------------------|---------------------------|
B|---------------------------------|---------------------------------|-----------3---3---3---3---|


D|---------------------------------|---------------------------------|---------------------------------|
A|---------------------------------|---------------------------------|---------------------------------|
E|---------------------------------|---------------------------------|---------------------------------|
B|-3---3---3---3---3---3---3---3---|-3---3---3---3---3---3---3---3---|-3---3---3---3---3---3---3---3---|


D|---------------------------|---------------------------------|---------------------------------|
A|---------------------------|-2---2---2---2---2---2---2---2---|-2---2---2---2---2---2---2---2---|
E|---------------------------|---------------------------------|---------------------------------|
B|-3---3---3---3---3---3-----|---------------------------------|---------------------------------|


D|---------------------------------|---------------------------------|---------------------------|
A|-2---2---2---2---2---2---2---2---|-2---2---2---2---2---2---2---2---|-2---2---------------------|
E|---------------------------------|---------------------------------|---------------------------|
B|---------------------------------|---------------------------------|-----------3---3---3---3---|


D|---------------------------------|---------------------------------|---------------------------------|
A|---------------------------------|---------------------------------|---------------------------------|
E|---------------------------------|---------------------------------|---------------------------------|
B|-3---3---3---3---3---3---3---3---|-3---3---3---3---3---3---3---3---|-3---3---3---3---3---3---3---3---|


D|---------------------------|---------------------|------------------------|---------------------|
A|---------------------------|---------------------|------------------------|---------------------|
E|---------------------------|---------------------|------------------------|---------------------|
B|-3---3---3---3---3---3-----|-0-----7---6----6----|-----6---5----5-----5---|-3----3----0----3----|


D|---------------------|------------------------------|---------------------|---------------------------|
A|---------------------|------------------------------|---------------------|---------------------------|
E|---------------------|------------------------------|-----------7----5----|-7----7--------------------|
B|-0-----7--------6----|-----6---5---5---0------------|------0--------------|----------7---6---6---6----|


D|---------------------------|------------------------|------------------------|---------------------------|
A|---------------------------|------------------------|------------------------|---------------------------|
E|---------------------------|--------------2---------|------------------------|-----------------5---------|
B|-----6---5---5---5-----5---|-3---3---3---------3----|-0-----7---6---6---6----|-----6---7---6--------6----|


D|---------------------|---------------------------|---------------------------|------------------------|
A|---------------------|---------------------------|---------------------------|------------------------|
E|-----------7----5----|-7----7--------------------|---------------------------|--------------2---------|
B|-5----3--------------|----------7---6---6---6----|-----6---5---5---5-----5---|-3---3---3---------3----|


D|------------------------|---------------------------|---------------------|---------------------------|
A|------------------------|---------------------------|---------------------|---------------------------|
E|------------------------|-----------------5---------|-----------7----5----|-7----7--------------------|
B|-0-----7---6---6---6----|-----6---7---6--------6----|-5----3--------------|----------7---6---6---6----|


D|---------------------------|------------------------|------------------------|---------------------------|
A|---------------------------|------------------------|------------------------|---------------------------|
E|---------------------------|--------------2---------|------------------------|-----------------5---------|
B|-----6---5---5---5-----5---|-3---3---3---------3----|-0-----7---6---6---6----|-----6---7---6--------6----|


D|---------------------|------------------|
A|---------------------|------------------|
E|-----------7----5----|-7-----7----------|
B|-5----3--------------|------------------|