Menu:

 

Search:

 

at the gates - cold solo:

 



/---------------------------------------------------------------------------
/ The following is the author's own interpretation of the song, to be used -
/ for studying or private use only, removal of any part of this ten line   -
/ header is illegal!!!  Removal of the transcribers name or anything       -
/ relevant to the transcriber is also illegal, as so is the removal of the -
/ place inwhich the tab was downloaded. Publishing as well as printing of  -
/ the tab is illegal without permission of the transcriber and copyright   -
/ owner of the song. Failure to apply to these laws result will in legal   -
/ action from the appropriate parties.                                     -
/---------------------------------------------------------------------------


downloaded from the Catacombs of Displacer's Death Tab Site at
        http://www.dsrmusic.com/metaltab
Visit the site to enjoy the largest metal tab archive on the internet.
Email rich@dsrmusic.com for any questions


			AT THE GATES
			Cold (solo)
	    from the album "Slaughter Of The Soul"


Tune B
tabbed by Buck (impaled_corpse@caramail.com)



+-------------18"-------18"-20"-21"-20~-+
|-18"-20"-21"----20"-21"----------------|
|---------------------------------------|
|---------------------------------------|
|---------------------------------------|
+---------------------------------------+


+-24br~--20-23-20----20-------+
|-----------------21----21-18-|
|-----------------------------|
|-----------------------------|
|-----------------------------|
+-----------------------------+


+-------------------------------------------/15----15-14~-|
|-------------12--------------------------------17--------|
|--------9-12----12h14p12p11h12--9---9--------------------|
|------9---------------------------9----------------------|
|---10----------------------------------------------------|
+-12------------------------------------------------------+


+-19-----------19-17-------------------------------------+
|----20-17-20--------20-19-17-19-17----------------------|
|-----------------------------------19-17-19-17-19-17-16-|
|--------------------------------------------------------|
|--------------------------------------------------------|
+--------------------------------------------------------+


+------------------------------------------+
|------------------------------------------|
|----------------------------16------------|
|-19-17-16-------16-17-16-17----19---------|
|----------19-19-------------------14tr17--|
+------------------------------------------+


+--------------------------------------------------------+
|-------------------------------------------------15-16--|
|-------------------------------------17-15----17--------|
|----------------15-17-18----15-17-18-------18-----------|
|-15-18-15-17-18----------18-----------------------------|
+--------------------------------------------------------+


+-------------------------16----16-20-16-23fb-23fb~------+
|-15-16-18-16-18-20-16-20----20--------------------------|
|--------------------------------------------------------|
|--------------------------------------------------------|
|--------------------------------------------------------|
+--------------------------------------------------------+