Menu:

 

Search:

 

at the gates - blinded by fear:

 



/---------------------------------------------------------------------------
/ The following is the author's own interpretation of the song, to be used -
/ for studying or private use only, removal of any part of this ten line   -
/ header is illegal!!!  Removal of the transcribers name or anything       -
/ relevant to the transcriber is also illegal, as so is the removal of the -
/ place inwhich the tab was downloaded. Publishing as well as printing of  -
/ the tab is illegal without permission of the transcriber and copyright   -
/ owner of the song. Failure to apply to these laws will result in legal   -
/ action from the appropriate parties.                                     -
/---------------------------------------------------------------------------

downloaded from the Catacombs of Displacer's Death Tab Site at
        http://www.dsrmusic.com/metaltab
Visit the site to enjoy the largest metal tab archive on the internet.
Email rich@dsrmusic.com for any questions

Author/Artist: AT THE GATES
Title: Blinded By Fear
Album: SLAUGHTER OF THE SOUL
Transcribed by: Hakuja
URL: http://funeralelegy.net/fw/
Email: hakuja@jiten.ne.jp

Ver. 1.00(02/05/27)

Tuning : 2 and Half down

*** time - 0:38
Part_0
#|------------------|#
#|------------------|#
#|------------------|#
#|--5-4-------------|#
#|--3-2-----5-4-----|#
#|----------3-2-----|#
    1   2   3   4   (End of Part_)


*** time - 0:39
Part_A
  Repeat it 4 times.
#||---------------|--------------|--------------|---------------||#
#||---------------|--------------|--------------|---------------||#
#||o--------------|--------------|--------------|--------------o||#
#||o--------------|--------------|--------------|--------------o||#
#||---10-------10-|--9--------9--|--12-------9--|--10-----------||#
#||------00-00----|-----00-00----|-----88-88----|-----77-77-77--||#
      1  2  3  4     1  2  3  4     1  2  3  4     1  2  3  4  (End of Part_A)


*** time - 0:55
Part_B
  Repeat it 2 times.
#||---------------|--------------------|--------------|-----------------|#
#||---------------|--------------------|--------------|-----------------|#
#||o--------------|-----------------3--|--------------|-----------------|#
#||o--------------|---_3_--4---_3_--1--|--------------|---_3_--2-----1--|#
#||---2--2--2--2--|--|-|-|-2--|-|-|----|--2--2--2--2--|--|-|-|-2-----1--|#
#||---0--0--0--0--|--0h2h3----0h2h3----|--0--0--0--0--|--0h2h3----0-----|#
      1  2  3  4     1     2  3     4     1  2  3  4     1     2  3  4  (End of Part_B)
      

*** time - 1:03
Play Part_A
  Repeat it 2 times.


*** time - 1:11
Play Part_B
  Repeat it 2 times.


*** time - 1:19
Part_C
#|----------------|----------------------|----------------|------------------------|
#|----------------|----------------------|----------------|------------------------|
#|----------------|---_3_------_3_-------|----------------|---_3_------__3__-------|
#|----------------|--|-|-|-9--|-|-|-8----|----------------|--|-|-|-9--|--|--|------|
#|----------------|--7h8p7----7h8p7------|----------------|--7h8p7----10h12p109----|
#|--00-00-00-00---|----------------------|--00-00-00-00---|------------------------|
    1  2  3  4       1     2  3     4       1  2  3  4    |  1     2  3       4    |
                                                          |                        |
                                                          |------------------------|
                                                          |------------------------|
                                                          |---_3_------__3__-------|
                                                          |--|-|-|-9--|--|--|------|
                                                          |--7h8p7----7-h9-p7-6----|
                                                          |------------------------|
                                                             1     2  3       4

|----------------|----------------------|----------------|----------------------|#
|----------------|----------------------|----------------|----------------------|#
|----------------|---_3_------_3_-------|----------------|---_3_------_3_-------|#
|----------------|--|-|-|-9--|-|-|-8----|----------------|--|-|-|-9--|-|-|------|#
|----------------|--7h8p7----7h8p7------|----------------|--7h8p7----6h7p6-9----|#
|--00-00-00-00---|----------------------|--00-00-00-00---|----------------------|#
   1  2  3  4       1     2  3     4       1  2  3  4       1     2  3     4    (End of Part_C)


*** time - 1:26
Play Part_A
  Repeat it 4 times.



*** time - 1:42
Play Part_B
  Repeat it 2 time.



*** time - 1:50
Play Part_C


*** time - 1:57
Part_0'
#|----------------|------------------||#
#|----------------|------------------||#
#|----------------|------------------||#
#|----------------|--5-4-------------||#
#|----------------|--3-2----5-4------||#
#|--00-00-00-00---|---------3-2------||#
    1  2  3  4       1   2  3   4     (End of Part_0')


*** time - 1:59
Part_D
  Repeat 2 times.
#||-----------------|----------------|----------------|-----------------||#
#||-----------------|----------------|----------------|-----------------||#
#||o----------------|----------------|----------------|----------------o||#
#||o----------------|----------------|----------------|----------------o||#
#||------------5----|--4-------------|-----------3----|--2--------------||#
#||---3---5-6-------|----------------|--1---3-4-------|-----------------||#
 ||   1  2  3  4    |  1  2  3  4    |  1  2  3  4    |  1  2  3  4     || 
 ||                 |                |                |                 || 
 ||                 |                |                |                 || 
#||-----------------|----------------|----------------|-----------------||#
#||------3---3------|-----2---2------|-----1---1------|-----0---0-------||#
#||o---3----3---3---|---2----2---2---|---1----1---1---|---0----0---0---o||#
#||o--5---5----5----|--5---5----5----|--3---3----3----|--3---3----3----o||#
#||-----------------|----------------|----------------|-----------------||#
#||-----------------|----------------|----------------|-----------------||#
      1  2  3  4       1  2  3  4       1  2  3  4       1  2  3  4     (End of Part_D)



*** time - 2:14
Part_E
#|---------------------------------------|--------------------------------------|
#|--12----------------------------13p12--|--13-----------12---10-------12--hc---|
#|---------------------------------------|--------------------------------------|
#|---------------------------------------|--------------------------------------|
#|---------------------------------------|--------------------------------------|
#|---------------------------------------|--------------------------------------|
 |  1        2        3        4         |  1        2        3        4        |
 |                                       |                                      |
 |                                       |                                      |
#|---------------------------------------|--------------------------------------|
#|---------------------------------------|--------------------------------------|
#|---------------------------------------|--------------------------------------|
#|--9-----------------------------10p9---|--10-----------9----7--------9---hc---|
#|---------------------------------------|--------------------------------------|
#|---------------------------------------|--------------------------------------|
 |  1        2        3        4         |  1        2        3        4        |
 |                                       |                                      |
 |                                       |                                      |
#|---------------------------------------|--------------------------------------|
#|---------------------------------------|--------------------------------------|
#|---------------------------------------|--------------------------------------|
#|---------------------------------------|--------------------------------------|
#|--10-------------------------10--------|--9--------------------------9--------|
#|-----------0---0----0---0--------------|-----------0---0----0---0-------------|
    1        2        3        4            1        2        3        4


|--------------------------------------|--------------------------------------|
|--12-------------------------12s------|-s8-----------------4-----------------|
|--------------------------------------|--------------------------------------|
|--------------------------------------|--------------------------------------|
|--------------------------------------|--------------------------------------|
|--------------------------------------|--------------------------------------|
|  1        2        3        4        |  1        2        3        4        |
|                                      |                                      |
|                                      |                                      |
|--------------------------------------|--------------------------------------|
|--------------------------------------|--------------------------------------|
|--------------------------------------|--------------------------------------|
|--9--------------------------9s-------|-s5-----------------4-----------------|
|--------------------------------------|--------------------------------------|
|--------------------------------------|--------------------------------------|
|  1        2        3        4        |  1        2        3        4        |
|                                      |                                      |
|                                      |                                      |
|--------------------------------------|--------------------------------------|
|--------------------------------------|--------------------------------------|
|--------------------------------------|--------------------------------------|
|--------------------------------------|--------------------------------------|
|--12-------------------------9--------|--10----------------------------------|
|-----------8---8----8---8-------------|-----------7---7----7---7----7---7----|
   1        2        3        4           1        2        3        4



|---------------------------------------|--------------------------------------|
|--12p10--------10--p8--------8--p7-----|------7---p5--------5-----------------|
|---------------------------------------|--------------------------------------|
|---------------------------------------|--------------------------------------|
|---------------------------------------|--------------------------------------|
|---------------------------------------|--------------------------------------|
|  1        2        3        4         |  1        2        3        4        |
|                                       |                                      |
|                                       |                                      |
|---------------------------------------|--------------------------------------|
|---------------------------------------|--------------------------------------|
|--12p11--------11--p9--------9--h7-----|------7---h9--------9-----------------|
|---------------------------------------|--------------------------------------|
|---------------------------------------|--------------------------------------|
|---------------------------------------|--------------------------------------|
|  1        2        3        4         |  1        2        3        4        |
|                                       |                                      |
|                                       |                                      |
|---------------------------------------|--------------------------------------|
|---------------------------------------|--------------------------------------|
|---------------------------------------|--------------------------------------|
|---------------------------------------|--------------------------------------|
|---------------------------------------|--------------------------------------|
|--0---0----0---0----0---0----0---0-----|--0---0----0---0----0---0----0---0----|
   1        2        3        4            1        2        3        4

|----------------|----------------|----------------|----------------|
|----------------|----------------|----------------|----------------|
|--------------o-//---------------|--------------o-//---------------|
|---------------//-o--------------|---------------//-o--------------|
|----------------|----------------|----------------|----------------|
|----------------|----------------|----------------|----------------|
|  1  2  3  4    |  1  2  3  4    |  1  2  3  4    |  1  2  3  4    |
|                |                |                |                |
|                |                |                |                |
|----------------|----------------|----------------|----------------|
|----------------|----------------|----------------|----------------|
|--------------o-//---------------|--------------o-//---------------|
|---------------//-o--------------|---------------//-o--------------|
|----------------|----------------|----------------|----------------|
|----------------|----------------|----------------|----------------|
|  1  2  3  4    |  1  2  3  4    |  1  2  3  4    |  1  2  3  4    |
|                |                |                |                |
|                |                |                |                |
|----------------|----------------|----------------|----------------|
|----------------|----------------|----------------|----------------|
|----------------|----------------|----------------|----------------|
|----------------|----------------|----------------|----------------|
|----------------|----------------|----------------|----------------|
|--88-88-88-88---|--88-88-88-88---|--55-55-55-55---|--55-55-55-55---|
   1  2  3  4       1  2  3  4       1  2  3  4       1  2  3  4


|----------------|------------------|
|--12------------|------------------|
|----------------|------------------|
|----------------|--5-4-------------|
|----------------|--3-2----5-4------|
|----------------|---------3-2------|
|  1  2  3  4    |  1   2  3   4     
|                |
|                |
|----------------|
|----------------|
|--12------------|
|----------------|
|----------------|
|----------------|
|  1  2  3  4    |
|                |
|                |
|----------------|
|----------------|
|----------------|
|----------------|
|----------------|
|--33-33-33-33---|
   1  2  3  4                     (End of Part_E)


*** time - 2:29
Play Part_A
  Repeat it 4 times.



*** time - 2:45
Play Part_B
  Repeat it 2 time.


*** time - 2:52
Play Part_C


*** time - 3:00
Part_F
#|----------------|----------------------|----------------|------------------------|
#|----------------|----------------------|----------------|------------------------|
#|----------------|---_3_------_3_-------|----------------|---_3_------__3__-------|
#|----------------|--|-|-|-9--|-|-|-8----|----------------|--|-|-|-9--|--|--|------|
#|----------------|--7h8p7----7h8p7------|----------------|--7h8p7----10h12p109----|
#|--00-00-00-00---|----------------------|--00-00-00-00---|------------------------|
    1  2  3  4       1     2  3     4       1  2  3  4    |  1     2  3       4    |
                                                          |                        |
                                                          |------------------------|
                                                          |------------------------|
                                                          |---_3_------__3__-------|
                                                          |--|-|-|-9--|--|--|------|
                                                          |--7h8p7----7-h9-p7-6----|
                                                          |------------------------|
                                                             1     2  3       4

|----------------|----------------------|----------------|------------------|#
|----------------|----------------------|----------------|------------------|#
|----------------|---_3_------_3_-------|----------------|------------------|#
|----------------|--|-|-|-9--|-|-|-8----|----------------|--5-4-------------|#
|----------------|--7h8p7----7h8p7------|----------------|--3-2----5-4------|#
|--00-00-00-00---|----------------------|--00-00-00-00---|---------3-2------|#
   1  2  3  4       1     2  3     4       1  2  3  4       1   2  3   4    (End of Part_F)