Menu:

 

Search:

 

at the drivein - lopsided:

 



Title: Lopsided
Artist: 
Album: In Casino Out
Author: At The Drive-in


Track 1: Lead Guitar clean - Omar

E|--------|--------|--------|---------------------------------------|-------------------------------------|
B|--------|--------|--------|---------------------------------------|-------------------------------------|
G|--------|--------|--------|---------------------------------------|-------------------------------------|
D|--------|--------|--------|-7---7--7------11--11-11-----11--11-11-|-----11--11-11-----11--11-11-----14--|
A|--------|--------|--------|-5---5--5------9---9--9------9---9--9--|-----9---9--9------9---9--9------12--|
E|--------|--------|--------|-3---3--3------7---7--7------7---7--7--|-----7---7--7------7---7--7------10--|


E|---------------------------------------|---------------------------------------|
B|---------------------------------------|---------------------------------------|
G|---------------------------------------|---------------------------------------|
D|-14-14-----7---7--7------7---7--7------|-7---7--7------7---7--7------7---7--7--|
A|-12-12-----5---5--5------5---5--5------|-5---5--5------5---5--5------5---5--5--|
E|-10-10-----3---3--3------3---3--3------|-3---3--3------3---3--3------3---3--3--|


E|-------------------------------------|---------------------------------------|---------------------------------------|
B|-------------------------------------|---------------------------------------|---------------------------------------|
G|-------------------------------------|---------------------------------------|---------------------------------------|
D|-----7---7--7------11--11-11-----11--|-11-11-----11--11-11-----11--11-11-----|-14--14-14-----7---7--7------7---7--7--|
A|-----5---5--5------9---9--9------9---|-9--9------9---9--9------9---9--9------|-12--12-12-----5---5--5------5---5--5--|
E|-----3---3--3------7---7--7------7---|-7--7------7---7--7------7---7--7------|-10--10-10-----3---3--3------3---3--3--|


E|-------------------------------------|---------------------------------------|---------------------------------------|
B|-------------------------------------|---------------------------------------|---------------------------------------|
G|-------------------------------------|---------------------------------------|---------------------------------------|
D|-----7---7--7------7---7--7------7---|-7--7------7---7--7------11--11-11-----|-11--11-11-----11--11-11-----11--11-11-|
A|-----5---5--5------5---5--5------5---|-5--5------5---5--5------9---9--9------|-9---9--9------9---9--9------9---9--9--|
E|-----3---3--3------3---3--3------3---|-3--3------3---3--3------7---7--7------|-7---7--7------7---7--7------7---7--7--|


E|-------------------------------------|---------------------------------------|---------------------------14------|
B|-------------------------------------|---------------------------------------|---------------10--------------15--|
G|-------------------------------------|---------------------------------------|-------------------11--------------|
D|-----14--14-14-----7---7--7------7---|-7--7------7---7--7------7---7--7------|-7---7--7--------------12----------|
A|-----12--12-12-----5---5--5------5---|-5--5------5---5--5------5---5--5------|-5---5--5--------------------------|
E|-----10--10-10-----3---3--3------3---|-3--3------3---3--3------3---3--3------|-3---3--3--------------------------|


E|-----10-----------------------|---------14----------10----------|-------------------------14------|
B|---------10---------------10--|-------------15----------10------|---------10--10--------------15--|
G|-------------11---------------|-11--------------------------11--|-----11----------11--------------|
D|-16--------------12-----------|-----12----------16--------------|-12------------------12----------|
A|------------------------------|---------------------------------|---------------------------------|
E|------------------------------|---------------------------------|---------------------------------|


E|-----10-----------------------|---------14----------10----------|-------------------------------------|
B|---------10---------------10--|-------------15----------10------|---------10--------------------------|
G|-------------11---------------|-11--------------------------11--|-----11------------------------------|
D|-16--------------12-----------|-----12----------16--------------|-12----------7---7--7------11--11-11-|
A|------------------------------|---------------------------------|-------------5---5--5------9---9--9--|
E|------------------------------|---------------------------------|-------------3---3--3------7---7--7--|


E|-------------------------------------|---------------------------------------|---------------------------------------|
B|-------------------------------------|---------------------------------------|---------------------------------------|
G|-------------------------------------|---------------------------------------|---------------------------------------|
D|-----11--11-11-----11--11-11-----11--|-11-11-----14--14-14-----7---7--7------|-7---7--7------7---7--7------7---7--7--|
A|-----9---9--9------9---9--9------9---|-9--9------12--12-12-----5---5--5------|-5---5--5------5---5--5------5---5--5--|
E|-----7---7--7------7---7--7------7---|-7--7------10--10-10-----3---3--3------|-3---3--3------3---3--3------3---3--3--|


E|-------------------------------------|---------------------------------------|---------------------------------------|
B|-------------------------------------|---------------------------------------|---------------------------------------|
G|-------------------------------------|---------------------------------------|---------------------------------------|
D|-----7---7--7------7---7--7------11--|-11-11-----11--11-11-----11--11-11-----|-11--11-11-----14--14-14-----7---7--7--|
A|-----5---5--5------5---5--5------9---|-9--9------9---9--9------9---9--9------|-9---9--9------12--12-12-----5---5--5--|
E|-----3---3--3------3---3--3------7---|-7--7------7---7--7------7---7--7------|-7---7--7------10--10-10-----3---3--3--|


E|-------------------------------------|---------------------------------------|---------------------------------------|
B|-------------------------------------|---------------------------------------|---------------------------------------|
G|-------------------------------------|---------------------------------------|---------------------------------------|
D|-----7---7--7------7---7--7------7---|-7--7------7---7--7------7---7--7------|-11--11-11-----11--11-11-----11--11-11-|
A|-----5---5--5------5---5--5------5---|-5--5------5---5--5------5---5--5------|-9---9--9------9---9--9------9---9--9--|
E|-----3---3--3------3---3--3------3---|-3--3------3---3--3------3---3--3------|-7---7--7------7---7--7------7---7--7--|


E|-------------------------------------|---------------------------------------|-------------------------------------|
B|-------------------------------------|---------------------------------------|-----------------------------10------|
G|-------------------------------------|---------------------------------------|---------------------------------11--|
D|-----11--11-11-----14--14-14-----7---|-7--7------7---7--7------7---7--7------|-7---7--7------7---7--7--------------|
A|-----9---9--9------12--12-12-----5---|-5--5------5---5--5------5---5--5------|-5---5--5------5---5--5--------------|
E|-----7---7--7------10--10-10-----3---|-3--3------3---3--3------3---3--3------|-3---3--3------3---3--3--------------|


E|-----14----------10--------------|---------------------14----------|-10------------------------------|
B|---------15----------10----------|---------10--------------15------|-----10--------------10--10------|
G|-------------------------11------|-------------11------------------|---------11------11----------11--|
D|-12----------16--------------12--|-----------------12----------16--|-------------12------------------|
A|---------------------------------|---------------------------------|---------------------------------|
E|---------------------------------|---------------------------------|---------------------------------|


E|-----14----------10--------------|---------------------14----------|-10------------------------------|
B|---------15----------10----------|---------10--------------15------|-----10--------------10--10------|
G|-------------------------11------|-------------11------------------|---------11------11----------11--|
D|-12----------16--------------12--|-----------------12----------16--|-------------12------------------|
A|---------------------------------|---------------------------------|---------------------------------|
E|---------------------------------|---------------------------------|---------------------------------|


E|-----14----------10--------------|---------------------14----------|-10------------------------------|
B|---------15----------10----------|---------10--------------15------|-----10--------------10--10------|
G|-------------------------11------|-------------11------------------|---------11------11----------11--|
D|-12----------16--------------12--|-----------------12----------16--|-------------12------------------|
A|---------------------------------|---------------------------------|---------------------------------|
E|---------------------------------|---------------------------------|---------------------------------|


E|-----14----------10--------------|---------------------14----------|-10---------------------------|
B|---------15----------10----------|---------10--------------15------|-----10--------------10-------|
G|-------------------------11------|-------------11------------------|---------11------11-----------|
D|-12----------16--------------12--|-----------------12----------16--|-------------12---------------|
A|---------------------------------|---------------------------------|------------------------------|
E|---------------------------------|---------------------------------|------------------------------|


E|--------|--------|--------|--------|--------|--------|--------|--------|--------|
B|--------|--------|--------|--------|--------|--------|--------|--------|--------|
G|--------|--------|--------|--------|--------|--------|--------|--------|--------|
D|--------|--------|--------|--------|--------|--------|--------|--------|--------|
A|--------|--------|--------|--------|--------|--------|--------|--------|--------|
E|--------|--------|--------|--------|--------|--------|--------|--------|--------|


E|--------|--------|--------|--------|--------|----------------|-----14----------10--------------|
B|--------|--------|--------|--------|--------|--------10------|---------15----------10----------|
G|--------|--------|--------|--------|--------|------------11--|-------------------------11------|
D|--------|--------|--------|--------|--------|----------------|-12----------16--------------12--|
A|--------|--------|--------|--------|--------|----------------|---------------------------------|
E|--------|--------|--------|--------|--------|----------------|---------------------------------|


E|---------------------14----------|-10------------------------------|-----14----------10--------------|
B|---------10--------------15------|-----10--------------10--10------|---------15----------10----------|
G|-------------11------------------|---------11------11----------11--|-------------------------11------|
D|-----------------12----------16--|-------------12------------------|-12----------16--------------12--|
A|---------------------------------|---------------------------------|---------------------------------|
E|---------------------------------|---------------------------------|---------------------------------|


E|---------------------14----------|-10------------------------------|-----14----------10--------------|
B|---------10--------------15------|-----10--------------10--10------|---------15----------10----------|
G|-------------11------------------|---------11------11----------11--|-------------------------11------|
D|-----------------12----------16--|-------------12------------------|-12----------16--------------12--|
A|---------------------------------|---------------------------------|---------------------------------|
E|---------------------------------|---------------------------------|---------------------------------|


E|---------------------14----------|-10----------------------14------|-----------------14--------------|
B|---------10--------------15------|-----10--------------10------15--|-----15--------------15------15--|
G|-------------11------------------|---------11------11--------------|---------14----------------------|
D|-----------------12----------16--|-------------12------------------|-16----------16----------16------|
A|---------------------------------|---------------------------------|---------------------------------|
E|---------------------------------|---------------------------------|---------------------------------|


E|---------14----------------------|-14---------------------------|--------|--------|
B|-------------15------15----------|-----15------15---------------|--------|--------|
G|-14----------------------14------|-----------------14-----------|--------|--------|
D|-----16----------16----------16--|---------16----------16-------|--------|--------|
A|---------------------------------|------------------------------|--------|--------|
E|---------------------------------|------------------------------|--------|--------|


E|--------|--------|--------|--------|--------|--------|--------|--------|--------|
B|--------|--------|--------|--------|--------|--------|--------|--------|--------|
G|--------|--------|--------|--------|--------|--------|--------|--------|--------|
D|--------|--------|--------|--------|--------|--------|--------|--------|--------|
A|--------|--------|--------|--------|--------|--------|--------|--------|--------|
E|--------|--------|--------|--------|--------|--------|--------|--------|--------|


E|--------|--------|--------|--------|--------|--------|--------|--------|--------|
B|--------|--------|--------|--------|--------|--------|--------|--------|--------|
G|--------|--------|--------|--------|--------|--------|--------|--------|--------|
D|--------|--------|--------|--------|--------|--------|--------|--------|--------|
A|--------|--------|--------|--------|--------|--------|--------|--------|--------|
E|--------|--------|--------|--------|--------|--------|--------|--------|--------|


E|--------|--------|--------|--------|--------|--------|--------|--------|--------|
B|--------|--------|--------|--------|--------|--------|--------|--------|--------|
G|--------|--------|--------|--------|--------|--------|--------|--------|--------|
D|--------|--------|--------|--------|--------|--------|--------|--------|--------|
A|--------|--------|--------|--------|--------|--------|--------|--------|--------|
E|--------|--------|--------|--------|--------|--------|--------|--------|--------|


E|--------|--------|--------|--------|
B|--------|--------|--------|--------|
G|--------|--------|--------|--------|
D|--------|--------|--------|--------|
A|--------|--------|--------|--------|
E|--------|--------|--------|--------|





Track 2: Rhythm Guitar clean - Jim

E|--------|--------|--------|--------|--------|--------|--------|--------|--------|
B|--------|--------|--------|--------|--------|--------|--------|--------|--------|
G|--------|--------|--------|--------|--------|--------|--------|--------|--------|
D|--------|--------|--------|--------|--------|--------|--------|--------|--------|
A|--------|--------|--------|--------|--------|--------|--------|--------|--------|
E|--------|--------|--------|--------|--------|--------|--------|--------|--------|


E|--------|--------|--------|--------|--------|--------|---------------------------------|
B|--------|--------|--------|--------|--------|--------|---------------------------------|
G|--------|--------|--------|--------|--------|--------|-------19--19-19-19-19-19--19-19-|
D|--------|--------|--------|--------|--------|--------|-------19--19-19-19-19-19--19-19-|
A|--------|--------|--------|--------|--------|--------|-------17--17-17-17-17-17--17-17-|
E|--------|--------|--------|--------|--------|--------|---------------------------------|


E|------------------------------------|---------------------------------------------|
B|------------------------------------|---------------------------------------------|
G|-19-19-14--14-14-14-14-14-------19--|-19-19-19-19-19--19-19-19-19-14--14-14-14-14-|
D|-19-19-14--14-14-14-14-14-------19--|-19-19-19-19-19--19-19-19-19-14--14-14-14-14-|
A|-17-17-12--12-12-12-12-12-------17--|-17-17-17-17-17--17-17-17-17-12--12-12-12-12-|
E|------------------------------------|---------------------------------------------|


E|-------------------------------------------|------------------------------------|
B|-------------------------------------------|------------------------------------|
G|-14--14-14-14-14-19--19-19-19-19-19--19-19-|-19-19-14--14-14-14-14-14-------19--|
D|-14--14-14-14-14-19--19-19-19-19-19--19-19-|-19-19-14--14-14-14-14-14-------19--|
A|-12--12-12-12-12-17--17-17-17-17-17--17-17-|-17-17-12--12-12-12-12-12-------17--|
E|-------------------------------------------|------------------------------------|


E|---------------------------------------------|---------------------------|--------|
B|---------------------------------------------|---------------------------|--------|
G|-19-19-19-19-19--19-19-19-19-14--14-14-14-14-|-14--14-14-14-14-----------|--------|
D|-19-19-19-19-19--19-19-19-19-14--14-14-14-14-|-14--14-14-14-14-----------|--------|
A|-17-17-17-17-17--17-17-17-17-12--12-12-12-12-|-12--12-12-12-12-----------|--------|
E|---------------------------------------------|---------------------------|--------|


E|--------|--------|--------|--------|--------|--------|--------|--------|--------|
B|--------|--------|--------|--------|--------|--------|--------|--------|--------|
G|--------|--------|--------|--------|--------|--------|--------|--------|--------|
D|--------|--------|--------|--------|--------|--------|--------|--------|--------|
A|--------|--------|--------|--------|--------|--------|--------|--------|--------|
E|--------|--------|--------|--------|--------|--------|--------|--------|--------|


E|--------|------------------|-------------------------------------------|-----------------------------------------|
B|--------|------------------|-------------------------------------------|-----------------------------------------|
G|--------|--------19--19-19-|-19-19-19--19-19-19-19-14--14-14-14-14-14--|---------19--19-19-19-19-19--19-19-19-19-|
D|--------|--------19--19-19-|-19-19-19--19-19-19-19-14--14-14-14-14-14--|---------19--19-19-19-19-19--19-19-19-19-|
A|--------|--------17--17-17-|-17-17-17--17-17-17-17-12--12-12-12-12-12--|---------17--17-17-17-17-17--17-17-17-17-|
E|--------|------------------|-------------------------------------------|-----------------------------------------|


E|-------------------------------------------|-------------------------------------------|
B|-------------------------------------------|-------------------------------------------|
G|-14--14-14-14-14-14--14-14-14-14-19--19-19-|-19-19-19--19-19-19-19-14--14-14-14-14-14--|
D|-14--14-14-14-14-14--14-14-14-14-19--19-19-|-19-19-19--19-19-19-19-14--14-14-14-14-14--|
A|-12--12-12-12-12-12--12-12-12-12-17--17-17-|-17-17-17--17-17-17-17-12--12-12-12-12-12--|
E|-------------------------------------------|-------------------------------------------|


E|-----------------------------------------|-------------------------------------------|
B|-----------------------------------------|-------------------------------------------|
G|---------19--19-19-19-19-19--19-19-19-19-|-14--14-14-14-14-14--14-14-14-14-19--19-19-|
D|---------19--19-19-19-19-19--19-19-19-19-|-14--14-14-14-14-14--14-14-14-14-19--19-19-|
A|---------17--17-17-17-17-17--17-17-17-17-|-12--12-12-12-12-12--12-12-12-12-17--17-17-|
E|-----------------------------------------|-------------------------------------------|


E|-------------------------------------------|-----------------------------------------|
B|-------------------------------------------|-----------------------------------------|
G|-19-19-19--19-19-19-19-14--14-14-14-14-14--|---------19--19-19-19-19-19--19-19-19-19-|
D|-19-19-19--19-19-19-19-14--14-14-14-14-14--|---------19--19-19-19-19-19--19-19-19-19-|
A|-17-17-17--17-17-17-17-12--12-12-12-12-12--|---------17--17-17-17-17-17--17-17-17-17-|
E|-------------------------------------------|-----------------------------------------|


E|-------------------------------------------|-------------------------------------------|
B|-------------------------------------------|-------------------------------------------|
G|-14--14-14-14-14-14--14-14-14-14-19--19-19-|-19-19-19--19-19-19-19-14--14-14-14-14-14--|
D|-14--14-14-14-14-14--14-14-14-14-19--19-19-|-19-19-19--19-19-19-19-14--14-14-14-14-14--|
A|-12--12-12-12-12-12--12-12-12-12-17--17-17-|-17-17-17--17-17-17-17-12--12-12-12-12-12--|
E|-------------------------------------------|-------------------------------------------|


E|-----------------------------------------|--------------------------------------|
B|-----------------------------------------|--------------------------------------|
G|---------19--19-19-19-19-19--19-19-19-19-|-14--14-14-14-14-14--14-14-14-14------|
D|---------19--19-19-19-19-19--19-19-19-19-|-14--14-14-14-14-14--14-14-14-14------|
A|---------17--17-17-17-17-17--17-17-17-17-|-12--12-12-12-12-12--12-12-12-12------|
E|-----------------------------------------|--------------------------------------|


E|--------|--------|--------|--------|--------|--------|--------|--------|--------|
B|--------|--------|--------|--------|--------|--------|--------|--------|--------|
G|--------|--------|--------|--------|--------|--------|--------|--------|--------|
D|--------|--------|--------|--------|--------|--------|--------|--------|--------|
A|--------|--------|--------|--------|--------|--------|--------|--------|--------|
E|--------|--------|--------|--------|--------|--------|--------|--------|--------|


E|--------|--------|--------|--------|--------|------------------|-------------------------------------------|
B|--------|--------|--------|--------|--------|------------------|-------------------------------------------|
G|--------|--------|--------|--------|--------|--------19--19-19-|-19-19-19--19-19-19-19-14--14-14-14-14-14--|
D|--------|--------|--------|--------|--------|--------19--19-19-|-19-19-19--19-19-19-19-14--14-14-14-14-14--|
A|--------|--------|--------|--------|--------|--------17--17-17-|-17-17-17--17-17-17-17-12--12-12-12-12-12--|
E|--------|--------|--------|--------|--------|------------------|-------------------------------------------|


E|-----------------------------------------|-------------------------------------------|
B|-----------------------------------------|-------------------------------------------|
G|---------19--19-19-19-19-19--19-19-19-19-|-14--14-14-14-14-14--14-14-14-14-19--19-19-|
D|---------19--19-19-19-19-19--19-19-19-19-|-14--14-14-14-14-14--14-14-14-14-19--19-19-|
A|---------17--17-17-17-17-17--17-17-17-17-|-12--12-12-12-12-12--12-12-12-12-17--17-17-|
E|-----------------------------------------|-------------------------------------------|


E|-------------------------------------------|-----------------------------------------|
B|-------------------------------------------|-----------------------------------------|
G|-19-19-19--19-19-19-19-14--14-14-14-14-14--|---------19--19-19-19-19-19--19-19-19-19-|
D|-19-19-19--19-19-19-19-14--14-14-14-14-14--|---------19--19-19-19-19-19--19-19-19-19-|
A|-17-17-17--17-17-17-17-12--12-12-12-12-12--|---------17--17-17-17-17-17--17-17-17-17-|
E|-------------------------------------------|-----------------------------------------|


E|-------------------------------------------|-------------------------------------------|
B|-------------------------------------------|-------------------------------------------|
G|-14--14-14-14-14-14--14-14-14-14-19--19-19-|-19-19-19--19-19-19-19-14--14-14-14-14-14--|
D|-14--14-14-14-14-14--14-14-14-14-19--19-19-|-19-19-19--19-19-19-19-14--14-14-14-14-14--|
A|-12--12-12-12-12-12--12-12-12-12-17--17-17-|-17-17-17--17-17-17-17-12--12-12-12-12-12--|
E|-------------------------------------------|-------------------------------------------|


E|-----------------------------------------|--------------------------------------|
B|-----------------------------------------|--------------------------------------|
G|---------19--19-19-19-19-19--19-19-19-19-|-14--14-14-14-14-14--14-14-14-14------|
D|---------19--19-19-19-19-19--19-19-19-19-|-14--14-14-14-14-14--14-14-14-14------|
A|---------17--17-17-17-17-17--17-17-17-17-|-12--12-12-12-12-12--12-12-12-12------|
E|-----------------------------------------|---------------------------------10---|


E|---------------------|------------------|------------------------------|--------|
B|---------------------|------------------|------------------------------|--------|
G|---------------------|------------------|------------------------------|--------|
D|---------------------|------------------|------------------------------|--------|
A|---------------------|------------------|-----2---2---4---4---4--------|--------|
E|-----9-----7-----5---|------3-----2-----|-0---0---0---2---2---2--------|--------|


E|--------|--------|--------|--------|--------|--------|--------|--------|--------|
B|--------|--------|--------|--------|--------|--------|--------|--------|--------|
G|--------|--------|--------|--------|--------|--------|--------|--------|--------|
D|--------|--------|--------|--------|--------|--------|--------|--------|--------|
A|--------|--------|--------|--------|--------|--------|--------|--------|--------|
E|--------|--------|--------|--------|--------|--------|--------|--------|--------|


E|--------|-------------|-------------|-------------|-------------|--------|--------|
B|--------|-------------|-------------|-------------|-------------|--------|--------|
G|--------|-------------|-------------|-------------|-------------|--------|--------|
D|--------|--------11---|-------11----|-------------|-------------|--------|--------|
A|--------|--------9----|-------9-----|-------------|-------------|--------|--------|
E|--------|--------7----|-------7-----|-------------|-------------|--------|--------|


E|-------------|-------------|--------|--------|--------|--------|--------|--------|
B|-------------|-------------|--------|--------|--------|--------|--------|--------|
G|-------------|-------------|--------|--------|--------|--------|--------|--------|
D|--------11---|-------11----|--------|--------|--------|--------|--------|--------|
A|--------9----|-------9-----|--------|--------|--------|--------|--------|--------|
E|--------7----|-------7-----|--------|--------|--------|--------|--------|--------|


E|--------|--------|--------|--------|--------|--------|--------|--------|
B|--------|--------|--------|--------|--------|--------|--------|--------|
G|--------|--------|--------|--------|--------|--------|--------|--------|
D|--------|--------|--------|--------|--------|--------|--------|--------|
A|--------|--------|--------|--------|--------|--------|--------|--------|
E|--------|--------|--------|--------|--------|--------|--------|--------|





Track 3: Lead Guitar w/ distortion - Omar

E|--------|--------|--------|--------|--------|--------|--------|--------|--------|
B|--------|--------|--------|--------|--------|--------|--------|--------|--------|
G|--------|--------|--------|--------|--------|--------|--------|--------|--------|
D|--------|--------|--------|--------|--------|--------|--------|--------|--------|
A|--------|--------|--------|--------|--------|--------|--------|--------|--------|
E|--------|--------|--------|--------|--------|--------|--------|--------|--------|


E|--------|--------|--------|--------|--------|--------|--------|--------|--------|
B|--------|--------|--------|--------|--------|--------|--------|--------|--------|
G|--------|--------|--------|--------|--------|--------|--------|--------|--------|
D|--------|--------|--------|--------|--------|--------|--------|--------|--------|
A|--------|--------|--------|--------|--------|--------|--------|--------|--------|
E|--------|--------|--------|--------|--------|--------|--------|--------|--------|


E|--------|--------|--------|--------|--------|--------|--------|--------|--------|
B|--------|--------|--------|--------|--------|--------|--------|--------|--------|
G|--------|--------|--------|--------|--------|--------|--------|--------|--------|
D|--------|--------|--------|--------|--------|--------|--------|--------|--------|
A|--------|--------|--------|--------|--------|--------|--------|--------|--------|
E|--------|--------|--------|--------|--------|--------|--------|--------|--------|


E|--------|--------|--------|--------|--------|--------|--------|--------|--------|
B|--------|--------|--------|--------|--------|--------|--------|--------|--------|
G|--------|--------|--------|--------|--------|--------|--------|--------|--------|
D|--------|--------|--------|--------|--------|--------|--------|--------|--------|
A|--------|--------|--------|--------|--------|--------|--------|--------|--------|
E|--------|--------|--------|--------|--------|--------|--------|--------|--------|


E|--------|--------|--------|--------|--------|--------|--------|--------|--------|
B|--------|--------|--------|--------|--------|--------|--------|--------|--------|
G|--------|--------|--------|--------|--------|--------|--------|--------|--------|
D|--------|--------|--------|--------|--------|--------|--------|--------|--------|
A|--------|--------|--------|--------|--------|--------|--------|--------|--------|
E|--------|--------|--------|--------|--------|--------|--------|--------|--------|


E|-------------|-------------|--------------------------------------|----------------------------------------|
B|-------------|-------------|--------------------------------------|----------------------------------------|
G|-------------|-------------|------11--11-11-11-11-11--11-11-11-11-|-11-9--9--9--9--9--9---9--9--9--9-------|
D|-------------|-------------|------11--11-11-11-11-11--11-11-11-11-|-11-9--9--9--9--9--9---9--9--9--9-------|
A|-------------|-------------|------9---9--9--9--9--9---9--9--9--9--|-9--7--7--7--7--7--7---7--7--7--7-------|
E|--------10---|-------3-----|--------------------------------------|-----------------------------------10---|


E|-------------|--------------------------------------|----------------------------------------|
B|-------------|--------------------------------------|----------------------------------------|
G|-------------|------11--11-11-11-11-11--11-11-11-11-|-11-9--9--9--9--9--9---9--9--9--9-------|
D|-------------|------11--11-11-11-11-11--11-11-11-11-|-11-9--9--9--9--9--9---9--9--9--9-------|
A|-------------|------9---9--9--9--9--9---9--9--9--9--|-9--7--7--7--7--7--7---7--7--7--7-------|
E|-------3-----|--------------------------------------|-----------------------------------10---|


E|-------------|--------------------------------------|----------------------------------------|
B|-------------|--------------------------------------|----------------------------------------|
G|-------------|------11--11-11-11-11-11--11-11-11-11-|-11-9--9--9--9--9--9---9--9--9--9-------|
D|-------------|------11--11-11-11-11-11--11-11-11-11-|-11-9--9--9--9--9--9---9--9--9--9-------|
A|-------------|------9---9--9--9--9--9---9--9--9--9--|-9--7--7--7--7--7--7---7--7--7--7-------|
E|-------3-----|--------------------------------------|-----------------------------------10---|


E|-------------|--------------------------------------|----------------------------------------|
B|-------------|--------------------------------------|----------------------------------------|
G|-------------|------11--11-11-11-11-11--11-11-11-11-|-11-9--9--9--9--9--9---9--9--9--9--7----|
D|-------------|------11--11-11-11-11-11--11-11-11-11-|-11-9--9--9--9--9--9---9--9--9--9--7----|
A|-------------|------9---9--9--9--9--9---9--9--9--9--|-9--7--7--7--7--7--7---7--7--7--7--5----|
E|-------3-----|--------------------------------------|----------------------------------------|


E|-------------|-------------|-------------|--------|--------|--------|--------|--------|
B|-------------|-------------|-------------|--------|--------|--------|--------|--------|
G|-------7-----|------7------|-7-----------|--------|--------|--------|--------|--------|
D|-------7-----|------7------|-7-----------|--------|--------|--------|--------|--------|
A|-------5-----|------5------|-5-----------|--------|--------|--------|--------|--------|
E|-------------|-------------|-------------|--------|--------|--------|--------|--------|


E|--------|--------|--------|--------|--------|--------|------------------|-------------------------------------------|
B|--------|--------|--------|--------|--------|--------|------------------|-------------------------------------------|
G|--------|--------|--------|--------|--------|--------|------------------|-------------------------------------------|
D|--------|--------|--------|--------|--------|--------|------------------|-------------------------------------------|
A|--------|--------|--------|--------|--------|--------|------------------|-------------------------------------------|
E|--------|--------|--------|--------|--------|--------|--------9---9--9--|-9--9--9---9--9--9--9--9---9--9--9--9--12--|


E|---------------------------------------------|-------------------------------------------|
B|---------------------------------------------|-------------------------------------------|
G|---------------------------------------------|-------------------------------------------|
D|---------------------------------------------|-------------------------------------------|
A|---------------------------------------------|-------------------------------------------|
E|-12-12-12-12-5---5--5--5--5--5---5--5--5--5--|-5---5--5--5--5--5---5--5--5--5--9---9--9--|


E|-------------------------------------------|---------------------------------------------|
B|-------------------------------------------|---------------------------------------------|
G|-------------------------------------------|---------------------------------------------|
D|-------------------------------------------|---------------------------------------------|
A|-------------------------------------------|---------------------------------------------|
E|-9--9--9---9--9--9--9--9---9--9--9--9--12--|-12-12-12-12-5---5--5--5--5--5---5--5--5--5--|


E|-------------------------------------------|-------------------------------------------|
B|-------------------------------------------|-------------------------------------------|
G|-------------------------------------------|-------------------------------------------|
D|-------------------------------------------|-------------------------------------------|
A|-------------------------------------------|-------------------------------------------|
E|-5---5--5--5--5--5---5--5--5--5--9---9--9--|-9--9--9---9--9--9--9--9---9--9--9--9--12--|


E|---------------------------------------------|-------------------------------------------|
B|---------------------------------------------|-------------------------------------------|
G|---------------------------------------------|-------------------------------------------|
D|---------------------------------------------|-------------------------------------------|
A|---------------------------------------------|-------------------------------------------|
E|-12-12-12-12-5---5--5--5--5--5---5--5--5--5--|-5---5--5--5--5--5---5--5--5--5--9---9--9--|


E|-------------------------------------------|---------------------------------------------|
B|-------------------------------------------|---------------------------------------------|
G|-------------------------------------------|---------------------------------------------|
D|-------------------------------------------|---------------------------------------------|
A|-------------------------------------------|---------------------------------------------|
E|-9--9--9---9--9--9--9--9---9--9--9--9--12--|-12-12-12-12-5---5--5--5--5--5---5--5--5--5--|


E|--------------------------------------|-------------|-------------|-------------|
B|--------------------------------------|-------------|-------------|-------------|
G|--------------------------------------|-------------|-------------|-------------|
D|--------------------------------------|-------------|-------------|-------------|
A|--------------------------------------|-------------|-------------|-------------|
E|-5---5--5--5--5--5---5--5--5--5--7----|-------7-----|------3------|-3------7----|


E|-------------|-------------|-------------|-------------|--------|--------|--------|
B|-------------|-------------|-------------|-------------|--------|--------|--------|
G|-------------|-------------|-------------|-------------|--------|--------|--------|
D|-------------|-------------|-------------|-------------|--------|--------|--------|
A|-------------|-------------|-------------|-------------|--------|--------|--------|
E|-------7-----|------3------|-3------7----|-------7-----|--------|--------|--------|


E|--------|--------|--------|--------|--------|--------|--------|--------|--------|
B|--------|--------|--------|--------|--------|--------|--------|--------|--------|
G|--------|--------|--------|--------|--------|--------|--------|--------|--------|
D|--------|--------|--------|--------|--------|--------|--------|--------|--------|
A|--------|--------|--------|--------|--------|--------|--------|--------|--------|
E|--------|--------|--------|--------|--------|--------|--------|--------|--------|


E|--------|--------|
B|--------|--------|
G|--------|--------|
D|--------|--------|
A|--------|--------|
E|--------|--------|





Track 4: Rhythm Guitar w/ distortion - Jim

E|--------|--------|--------|--------|--------|--------|--------|--------|--------|
B|--------|--------|--------|--------|--------|--------|--------|--------|--------|
G|--------|--------|--------|--------|--------|--------|--------|--------|--------|
D|--------|--------|--------|--------|--------|--------|--------|--------|--------|
A|--------|--------|--------|--------|--------|--------|--------|--------|--------|
E|--------|--------|--------|--------|--------|--------|--------|--------|--------|


E|--------|--------|--------|--------|--------|--------|--------|--------|--------|
B|--------|--------|--------|--------|--------|--------|--------|--------|--------|
G|--------|--------|--------|--------|--------|--------|--------|--------|--------|
D|--------|--------|--------|--------|--------|--------|--------|--------|--------|
A|--------|--------|--------|--------|--------|--------|--------|--------|--------|
E|--------|--------|--------|--------|--------|--------|--------|--------|--------|


E|--------|--------|--------|--------|--------|--------|--------|--------|--------|
B|--------|--------|--------|--------|--------|--------|--------|--------|--------|
G|--------|--------|--------|--------|--------|--------|--------|--------|--------|
D|--------|--------|--------|--------|--------|--------|--------|--------|--------|
A|--------|--------|--------|--------|--------|--------|--------|--------|--------|
E|--------|--------|--------|--------|--------|--------|--------|--------|--------|


E|--------|--------|--------|--------|--------|--------|--------|--------|--------|
B|--------|--------|--------|--------|--------|--------|--------|--------|--------|
G|--------|--------|--------|--------|--------|--------|--------|--------|--------|
D|--------|--------|--------|--------|--------|--------|--------|--------|--------|
A|--------|--------|--------|--------|--------|--------|--------|--------|--------|
E|--------|--------|--------|--------|--------|--------|--------|--------|--------|


E|--------|--------|--------|--------|--------|--------|--------|--------|--------|
B|--------|--------|--------|--------|--------|--------|--------|--------|--------|
G|--------|--------|--------|--------|--------|--------|--------|--------|--------|
D|--------|--------|--------|--------|--------|--------|--------|--------|--------|
A|--------|--------|--------|--------|--------|--------|--------|--------|--------|
E|--------|--------|--------|--------|--------|--------|--------|--------|--------|


E|-------------|-------------|-------------|-------------|-------------|-------------|
B|-------------|-------------|-------------|-------------|-------------|-------------|
G|-------------|-------------|-------------|-------------|-------------|-------------|
D|-------------|-------------|-------------|-------------|-------------|-------------|
A|--------5----|-------12----|------14-----|-12-----5----|-------12----|------14-----|
E|-------------|-------------|-------------|-------------|-------------|-------------|


E|-------------|-------------|-------------|-------------|-------------|-------------|
B|-------------|-------------|-------------|-------------|-------------|-------------|
G|-------------|-------------|-------------|-------------|-------------|-------------|
D|-------------|-------------|-------------|-------------|-------------|-------------|
A|-12-----5----|-------12----|------14-----|-12-----5----|-------12----|------14-----|
E|-------------|-------------|-------------|-------------|-------------|-------------|


E|-------------|-------------|-------------|-------------|--------|--------|--------|
B|-------------|-------------|-------------|-------------|--------|--------|--------|
G|-------------|-------------|-------------|-------------|--------|--------|--------|
D|-------------|-------------|-------------|-------------|--------|--------|--------|
A|-12-----10---|-------10----|------10-----|-10----------|--------|--------|--------|
E|-------------|-------------|-------------|-------------|--------|--------|--------|


E|--------|--------|--------|--------|--------|--------|--------|--------|------------------|
B|--------|--------|--------|--------|--------|--------|--------|--------|------------------|
G|--------|--------|--------|--------|--------|--------|--------|--------|------------------|
D|--------|--------|--------|--------|--------|--------|--------|--------|--------11--11-11-|
A|--------|--------|--------|--------|--------|--------|--------|--------|--------9---9--9--|
E|--------|--------|--------|--------|--------|--------|--------|--------|--------7---7--7--|


E|-------------------------------------------|---------------------------------------------|
B|-------------------------------------------|---------------------------------------------|
G|-------------------------------------------|---------------------------------------------|
D|-11-11-11--11-11-11-11-11--11-11-11-11-14--|-14-14-14-14-7---7--7--7--7--7---7--7--7--7--|
A|-9--9--9---9--9--9--9--9---9--9--9--9--12--|-12-12-12-12-5---5--5--5--5--5---5--5--5--5--|
E|-7--7--7---7--7--7--7--7---7--7--7--7--10--|-10-10-10-10-3---3--3--3--3--3---3--3--3--3--|


E|-------------------------------------------|-------------------------------------------|
B|-------------------------------------------|-------------------------------------------|
G|-------------------------------------------|-------------------------------------------|
D|-7---7--7--7--7--7---7--7--7--7--11--11-11-|-11-11-11--11-11-11-11-11--11-11-11-11-14--|
A|-5---5--5--5--5--5---5--5--5--5--9---9--9--|-9--9--9---9--9--9--9--9---9--9--9--9--12--|
E|-3---3--3--3--3--3---3--3--3--3--7---7--7--|-7--7--7---7--7--7--7--7---7--7--7--7--10--|


E|---------------------------------------------|-------------------------------------------|
B|---------------------------------------------|-------------------------------------------|
G|---------------------------------------------|-------------------------------------------|
D|-14-14-14-14-7---7--7--7--7--7---7--7--7--7--|-7---7--7--7--7--7---7--7--7--7--11--11-11-|
A|-12-12-12-12-5---5--5--5--5--5---5--5--5--5--|-5---5--5--5--5--5---5--5--5--5--9---9--9--|
E|-10-10-10-10-3---3--3--3--3--3---3--3--3--3--|-3---3--3--3--3--3---3--3--3--3--7---7--7--|


E|-------------------------------------------|---------------------------------------------|
B|-------------------------------------------|---------------------------------------------|
G|-------------------------------------------|---------------------------------------------|
D|-11-11-11--11-11-11-11-11--11-11-11-11-14--|-14-14-14-14-7---7--7--7--7--7---7--7--7--7--|
A|-9--9--9---9--9--9--9--9---9--9--9--9--12--|-12-12-12-12-5---5--5--5--5--5---5--5--5--5--|
E|-7--7--7---7--7--7--7--7---7--7--7--7--10--|-10-10-10-10-3---3--3--3--3--3---3--3--3--3--|


E|-------------------------------------------|-------------------------------------------|
B|-------------------------------------------|-------------------------------------------|
G|-------------------------------------------|-------------------------------------------|
D|-7---7--7--7--7--7---7--7--7--7--11--11-11-|-11-11-11--11-11-11-11-11--11-11-11-11-14--|
A|-5---5--5--5--5--5---5--5--5--5--9---9--9--|-9--9--9---9--9--9--9--9---9--9--9--9--12--|
E|-3---3--3--3--3--3---3--3--3--3--7---7--7--|-7--7--7---7--7--7--7--7---7--7--7--7--10--|


E|---------------------------------------------|-------------------------------------------|
B|---------------------------------------------|-------------------------------------------|
G|---------------------------------------------|-------------------------------------------|
D|-14-14-14-14-7---7--7--7--7--7---7--7--7--7--|-7---7--7--7--7--7---7--7--7--7------11-11-|
A|-12-12-12-12-5---5--5--5--5--5---5--5--5--5--|-5---5--5--5--5--5---5--5--5--5------9--9--|
E|-10-10-10-10-3---3--3--3--3--3---3--3--3--3--|-3---3--3--3--3--3---3--3--3--3--7---------|


E|-------------------------------------|---------------------------------------|---------------------------------------|
B|-------------------------------------|---------------------------------------|---------------------------------------|
G|-------------------------------------|---------------------------------------|---------------------------------------|
D|-11------11-11-11------11-11-11------|-11-11-11------11-11-11------11-11-11--|-----11-11-11------11-11-11------11-11-|
A|-9-------9--9--9-------9--9--9-------|-9--9--9-------9--9--9-------9--9--9---|-----9--9--9-------9--9--9-------9--9--|
E|-----7-------------7-------------7---|-----------7-------------7-------------|-7-------------7-------------7---------|


E|-------------------------------------|---------------------------------------|----------------------------------|
B|-------------------------------------|---------------------------------------|----------------------------------|
G|-------------------------------------|---------------------------------------|----------------------------------|
D|-11------11-11-11------11-11-11------|-11-11-11------11-11-11------11-11-11--|-----11-11-11------11-11-11-------|
A|-9-------9--9--9-------9--9--9-------|-9--9--9-------9--9--9-------9--9--9---|-----9--9--9-------9--9--9--------|
E|-----7-------------7-------------7---|-----------7-------------7-------------|-7-------------7-------------7----|


E|-------------|--------|--------|--------|--------|--------|--------|--------|--------|
B|-------------|--------|--------|--------|--------|--------|--------|--------|--------|
G|-------------|--------|--------|--------|--------|--------|--------|--------|--------|
D|-------------|--------|--------|--------|--------|--------|--------|--------|--------|
A|-------------|--------|--------|--------|--------|--------|--------|--------|--------|
E|-------7-----|--------|--------|--------|--------|--------|--------|--------|--------|


E|--------|--------|--------|--------|--------|--------|
B|--------|--------|--------|--------|--------|--------|
G|--------|--------|--------|--------|--------|--------|
D|--------|--------|--------|--------|--------|--------|
A|--------|--------|--------|--------|--------|--------|
E|--------|--------|--------|--------|--------|--------|





Track 5: Untitled

E|--------|--------|--------|--------|--------|--------|--------|--------|--------|
B|--------|--------|--------|--------|--------|--------|--------|--------|--------|
G|--------|--------|--------|--------|--------|--------|--------|--------|--------|
D|--------|--------|--------|--------|--------|--------|--------|--------|--------|
A|--------|--------|--------|--------|--------|--------|--------|--------|--------|
E|--------|--------|--------|--------|--------|--------|--------|--------|--------|


E|--------|--------|--------|--------|--------|--------|--------|--------|--------|
B|--------|--------|--------|--------|--------|--------|--------|--------|--------|
G|--------|--------|--------|--------|--------|--------|--------|--------|--------|
D|--------|--------|--------|--------|--------|--------|--------|--------|--------|
A|--------|--------|--------|--------|--------|--------|--------|--------|--------|
E|--------|--------|--------|--------|--------|--------|--------|--------|--------|


E|--------|--------|--------|--------|--------|--------|--------|--------|--------|
B|--------|--------|--------|--------|--------|--------|--------|--------|--------|
G|--------|--------|--------|--------|--------|--------|--------|--------|--------|
D|--------|--------|--------|--------|--------|--------|--------|--------|--------|
A|--------|--------|--------|--------|--------|--------|--------|--------|--------|
E|--------|--------|--------|--------|--------|--------|--------|--------|--------|


E|--------|--------|--------|--------|--------|--------|--------|--------|--------|
B|--------|--------|--------|--------|--------|--------|--------|--------|--------|
G|--------|--------|--------|--------|--------|--------|--------|--------|--------|
D|--------|--------|--------|--------|--------|--------|--------|--------|--------|
A|--------|--------|--------|--------|--------|--------|--------|--------|--------|
E|--------|--------|--------|--------|--------|--------|--------|--------|--------|


E|--------|--------|--------|--------|--------|--------|--------|--------|--------|
B|--------|--------|--------|--------|--------|--------|--------|--------|--------|
G|--------|--------|--------|--------|--------|--------|--------|--------|--------|
D|--------|--------|--------|--------|--------|--------|--------|--------|--------|
A|--------|--------|--------|--------|--------|--------|--------|--------|--------|
E|--------|--------|--------|--------|--------|--------|--------|--------|--------|


E|--------|--------|--------|--------|--------|--------|--------|--------|--------|
B|--------|--------|--------|--------|--------|--------|--------|--------|--------|
G|--------|--------|--------|--------|--------|--------|--------|--------|--------|
D|--------|--------|--------|--------|--------|--------|--------|--------|--------|
A|--------|--------|--------|--------|--------|--------|--------|--------|--------|
E|--------|--------|--------|--------|--------|--------|--------|--------|--------|


E|--------|--------|--------|--------|--------|--------|--------|--------|--------|
B|--------|--------|--------|--------|--------|--------|--------|--------|--------|
G|--------|--------|--------|--------|--------|--------|--------|--------|--------|
D|--------|--------|--------|--------|--------|--------|--------|--------|--------|
A|--------|--------|--------|--------|--------|--------|--------|--------|--------|
E|--------|--------|--------|--------|--------|--------|--------|--------|--------|


E|--------|--------|--------|--------|--------|--------|--------|--------|--------|
B|--------|--------|--------|--------|--------|--------|--------|--------|--------|
G|--------|--------|--------|--------|--------|--------|--------|--------|--------|
D|--------|--------|--------|--------|--------|--------|--------|--------|--------|
A|--------|--------|--------|--------|--------|--------|--------|--------|--------|
E|--------|--------|--------|--------|--------|--------|--------|--------|--------|


E|--------|--------|--------|--------|--------|--------|--------|--------|--------|
B|--------|--------|--------|--------|--------|--------|--------|--------|--------|
G|--------|--------|--------|--------|--------|--------|--------|--------|--------|
D|--------|--------|--------|--------|--------|--------|--------|--------|--------|
A|--------|--------|--------|--------|--------|--------|--------|--------|--------|
E|--------|--------|--------|--------|--------|--------|--------|--------|--------|


E|--------|--------|--------|--------|--------|--------|--------|--------|--------|
B|--------|--------|--------|--------|--------|--------|--------|--------|--------|
G|--------|--------|--------|--------|--------|--------|--------|--------|--------|
D|--------|--------|--------|--------|--------|--------|--------|--------|--------|
A|--------|--------|--------|--------|--------|--------|--------|--------|--------|
E|--------|--------|--------|--------|--------|--------|--------|--------|--------|


E|--------|--------|--------------9---------------|-----------------------------|--------------9---------------|
B|--------|--------|------------------------------|-6----7---6------------------|------------------------------|
G|--------|--------|----------6---------------6---|--------------6--------------|----------6---------------6---|
D|--------|--------|------------------------------|------------------6--4--4----|------------------------------|
A|--------|--------|------4-----------------------|-----------------------------|------4-----------------------|
E|--------|--------|------------------6---6-------|-----------------------------|------------------6---6-------|


E|---------------------------|-----------------9---------------|------------------------------|
B|-6----7---6----------------|--------------9------------------|-6----7---6---7---------------|
G|--------------6------------|----------6------------------6---|-----------------6------------|
D|------------------4---4----|---------------------------------|---------------------4---4----|
A|---------------------------|------4--------------------------|------------------------------|
E|---------------------------|---------------------6---6-------|------------------------------|


E|--------------9---------------|---------------------------|--------------9---------------|
B|------------------------------|-6----7---6----------------|------------------------------|
G|----------6---------------6---|--------------6------------|----------6---------------6---|
D|------------------------------|------------------4---4----|------------------------------|
A|------4-----------------------|---------------------------|------4-----------------------|
E|------------------6---6-------|---------------------------|------------------6---6-------|


E|---------------------------|--------------9---------------|---------------------------|
B|-6----7---6----------------|------------------------------|-6----7---6----------------|
G|--------------6------------|----------6---------------6---|--------------6------------|
D|------------------4---4----|------------------------------|------------------4---4----|
A|---------------------------|------4-----------------------|---------------------------|
E|---------------------------|------------------6---6-------|---------------------------|


E|------------------9-----------|------------------------------|
B|------------------------------|-----6----7---6---------------|
G|----------6-------------------|-6----------------6-----------|
D|------------------------------|----------------------4---4---|
A|------4-----------------------|------------------------------|
E|----------------------6---6---|------------------------------|





Track 6: Bass Guitar - Paul

G|--------|--------|--------|---------------------------------------|-------------------------------------|
D|--------|--------|--------|---------------------------------------|-------------------------------------|
A|--------|--------|--------|---------------------------------------|-------------------------------------|
E|--------|--------|--------|-3---3--3------7---7--7------7---7--7--|-----7---7--7------7---7--7------10--|


G|---------------------------------------|---------------------------------------|
D|---------------------------------------|---------------------------------------|
A|---------------------------------------|---------------------------------------|
E|-10-10-----3---3--3------3---3--3------|-3---3--3------3---3--3------3---3--3--|


G|-------------------------------------|---------------------------------------|---------------------------------------|
D|-------------------------------------|---------------------------------------|---------------------------------------|
A|-------------------------------------|---------------------------------------|---------------------------------------|
E|-----3---3--3------7---7--7------7---|-7--7------7---7--7------7---7--7------|-10--10-10-----3---3--3------3---3--3--|


G|-------------------------------------|---------------------------------------|---------------------------------------|
D|-------------------------------------|---------------------------------------|---------------------------------------|
A|-------------------------------------|---------------------------------------|---------------------------------------|
E|-----3---3--3------3---3--3------3---|-3--3------3---3--3------7---7--7------|-7---7--7------7---7--7------7---7--7--|


G|-------------------------------------|---------------------------------------|--------------------------------|
D|-------------------------------------|---------------------------------------|------------------------7-------|
A|-------------------------------------|---------------------------------------|---------------5----5-------5---|
E|-----10--10-10-----3---3--3------3---|-3--3------3---3--3------3---3--3------|-3---3--3-----------------------|


G|------------------------------|---------------------------------|------------------------------|
D|------------------------------|---------------------------------|----------------------7-------|
A|-5----------------------------|-----------------0---2---2---2---|-2---2---4---5----5-------5---|
E|-----3---3---3---3--------0---|-0---0---0---0-------------------|------------------------------|


G|------------------------------|---------------------------------|-------------------------------------|
D|------------------------------|---------------------------------|-------------------------------------|
A|-5----------------------------|-----------------0---2---2---2---|-2---2---4---------------------------|
E|-----3---3---3---3--------0---|-0---0---0---0-------------------|-------------3---3--3------7---7--7--|


G|-------------------------------------|---------------------------------------|---------------------------------------|
D|-------------------------------------|---------------------------------------|---------------------------------------|
A|-------------------------------------|---------------------------------------|---------------------------------------|
E|-----7---7--7------7---7--7------7---|-7--7------10--10-10-----3---3--3------|-3---3--3------3---3--3------3---3--3--|


G|-------------------------------------|---------------------------------------|---------------------------------------|
D|-------------------------------------|---------------------------------------|---------------------------------------|
A|-------------------------------------|---------------------------------------|---------------------------------------|
E|-----3---3--3------3---3--3------7---|-7--7------7---7--7------7---7--7------|-7---7--7------10--10-10-----3---3--3--|


G|-------------------------------------|---------------------------------------|---------------------------------------|
D|-------------------------------------|---------------------------------------|---------------------------------------|
A|-------------------------------------|---------------------------------------|---------------------------------------|
E|-----3---3--3------3---3--3------3---|-3--3------3---3--3------3---3--3------|-7---7--7------7---7--7------7---7--7--|


G|-------------------------------------|---------------------------------------|----------------------------------|
D|-------------------------------------|---------------------------------------|----------------------------------|
A|-------------------------------------|---------------------------------------|-----------------------------5----|
E|-----7---7--7------10--10-10-----3---|-3--3------3---3--3------3---3--3------|-3---3--3------3---3--3-----------|


G|---------------------------------|---------------------------------|------------------------------|
D|-----7---------------------------|---------------------------------|------------------------------|
A|-5-------5---5-------------------|-----------------------------0---|-2---2---2---2---2---4---5----|
E|-----------------3---3---3---3---|---------0---0---0---0---0-------|------------------------------|


G|---------------------------------|---------------------------------|------------------------------|
D|-----7---------------------------|---------------------------------|------------------------------|
A|-5-------5---5-------------------|-----------------------------0---|-2---2---2---2---2---4---5----|
E|-----------------3---3---3---3---|---------0---0---0---0---0-------|------------------------------|


G|---------------------------------|---------------------------------|------------------------------|
D|-----7---------------------------|---------------------------------|------------------------------|
A|-5-------5---5-------------------|-----------------------------0---|-2---2---2---2---2---4---5----|
E|-----------------3---3---3---3---|---------0---0---0---0---0-------|------------------------------|


G|---------------------------------|---------------------------------|------------------------------|
D|-----7---------------------------|---------------------------------|------------------------------|
A|-5-------5---5-------------------|-----------------------------0---|-2---2---2---2---2---4---5----|
E|-----------------3---3---3---3---|---------0---0---0---0---0-------|------------------------------|


G|---------------------------------|-------------------------------------|----------------------------------|
D|-----7---------------------------|-------------------------------------|----------------------------------|
A|-5-------5---5-------5-----------|-------------------------------------|-----------------------------5----|
E|-----------------3-------3---3---|-3---3---7---7--7--7---7---7--7--7---|-5---5--5--5---5---5--5--5--------|


G|---------------------------------|-------------------------------------|----------------------------------|
D|-----7---------------------------|-------------------------------------|----------------------------------|
A|-5-------5---5-------5-----------|-------------------------------------|-----------------------------5----|
E|-----------------3-------3---3---|-3---3---7---7--7--7---7---7--7--7---|-5---5--5--5---5---5--5--5--------|


G|---------------------------------|-------------------------------------|----------------------------------|
D|-----7---------------------------|-------------------------------------|----------------------------------|
A|-5-------5---5-------5-----------|-------------------------------------|-----------------------------5----|
E|-----------------3-------3---3---|-3---3---7---7--7--7---7---7--7--7---|-5---5--5--5---5---5--5--5--------|


G|---------------------------------|-------------------------------------|----------------------------------|
D|-----7---------------------------|-------------------------------------|----------------------------------|
A|-5-------5---5-------5-----------|-------------------------------------|-----------------------------5----|
E|-----------------3-------3---3---|-3---3---7---7--7--7---7---7--7--7---|-5---5--5--5---5---5--5--5--------|


G|---------------------------------|---------------------------|------------------------------|
D|-----7-------7---------------7---|---------------7-----------|------------------------------|
A|-5-------5-------5---5---5-------|------5----5-------5---5---|-5---5---5---5---5---5---5----|
E|---------------------------------|---------------------------|------------------------------|


G|---------------------------------|---------------------------------|------------------------------|
D|-----7---------------------------|---------------------------------|------------------------------|
A|-5-------5---5-------------------|-----------------------------0---|-2---2---2---2---2---4---5----|
E|-----------------3---3---3---3---|---------0---0---0---0---0-------|------------------------------|


G|---------------------------------|---------------------------------|------------------------------|
D|-----7---------------------------|---------------------------------|------------------------------|
A|-5-------5---5-------------------|-----------------------------0---|-2---2---2---2---2---4---5----|
E|-----------------3---3---3---3---|---------0---0---0---0---0-------|------------------------------|


G|---------------------------------|---------------------------------|------------------------------|
D|-----7---------------------------|---------------------------------|------------------------------|
A|-5-------5---5-------------------|-----------------------------0---|-2---2---2---2---2---4--------|
E|-----------------3---3---3---3---|---------0---0---0---0---0-------|-------------------------10---|


G|---------------------|------------------|-----------------------|-------------------------------------|
D|---------------------|------------------|-----------------------|-------------------------------------|
A|---------------------|------------------|-----------------------|-------------------------------------|
E|-----9-----7-----5---|------3-----2-----|-0-----2-----7---7--7--|-7---7---7--7--7---7---7--7--7---10--|


G|---------------------------------------|---------------------------------------|
D|---------------------------------------|---------------------------------------|
A|---------------------------------------|---------------------------------------|
E|-10-10-10--3---3--3--3---3---3--3--3---|-3---3--3--3---3---3--3--3---7---7--7--|


G|-------------------------------------|---------------------------------------|---------------------------------------|
D|-------------------------------------|---------------------------------------|---------------------------------------|
A|-------------------------------------|---------------------------------------|---------------------------------------|
E|-7---7---7--7--7---7---7--7--7---10--|-10-10-10--3---3--3--3---3---3--3--3---|-3---3--3--3---3---3--3--3---7---7--7--|


G|-------------------------------------|---------------------------------------|---------------------------------------|
D|-------------------------------------|---------------------------------------|---------------------------------------|
A|-------------------------------------|---------------------------------------|---------------------------------------|
E|-7---7---7--7--7---7---7--7--7---10--|-10-10-10--3---3--3--3---3---3--3--3---|-3---3--3--3---3---3--3--3---7---7--7--|


G|-------------------------------------|---------------------------------------|----------------------------------|
D|-------------------------------------|---------------------------------------|----------------------------------|
A|-------------------------------------|---------------------------------------|-----------------------------7----|
E|-7---7---7--7--7---7---7--7--7---10--|-10-10-10--3---3--3--3---3---3--3--3---|-3---3--3--3---3---3--3--3--------|


G|-------------|--------|--------|--------|-------------|-------------|--------|--------|
D|-------------|--------|--------|--------|-------------|-------------|--------|--------|
A|-------7-----|--------|--------|--------|-------------|-------------|--------|--------|
E|-------------|--------|--------|--------|-------------|-------------|--------|--------|


G|--------|--------|--------|--------|--------|--------|--------|--------|--------|
D|--------|--------|--------|--------|--------|--------|--------|--------|--------|
A|--------|--------|--------|--------|--------|--------|--------|--------|--------|
E|--------|--------|--------|--------|--------|--------|--------|--------|--------|


G|--------|--------|-------------|--------------|
D|--------|--------|-------------|--------------|
A|--------|--------|-------------|--------------|
E|--------|--------|-------------|--------------|