Menu:

 

Search:

 

alter bridge - one day remains:

 



Title: One Day Remains
Artist: 
Album: One Day Remains
Author: Mark Tremonti


Track 1: Guitar 1

E|-------------|-------------|-----------------|-----------------|-----------------|
B|-------------|-------------|-----------------|-----------------|-----------------|
G|-------------|-------------|-----------------|-----------------|-----------------|
D|-------------|-------------|-----------------|-----------------|-----------------|
A|-12----12----|-12----12----|-12----12--7-----|-7-----7---2-----|------2----2-----|
E|-------------|-------------|-----------------|-----------------|-----------------|


E|-----------------|------------------------|-------------|---------------------|-----------------------------------|
B|-----------------|------------------------|-------------|---------------------|-----------------------------------|
G|-----------------|------------------------|-------------|---------------------|-----------------------------------|
D|-----------------|------------------------|-------------|---------------------|-----------------------------------|
A|-2-----2---12----|-12----12--7----7----7--|-7-----2-----|------2--------------|-----------------9--------9--------|
E|-----------------|------------------------|-------------|-----------1----1----|-1----1----0--5-----0--5-----0--5--|


E|-------------------------------------------------|-------------------------------------------------|
B|-------------------------------------------------|-------------------------------------------------|
G|-------------------------------------------------|-------------------------------------------------|
D|-------------------------------------------------|-------------------------------------------------|
A|-7--------7--------7--6--------7--------7--------|-6--------7--------6--4-----0--2--6--2--0-----0--|
E|----0--5-----0--5--------0--4-----0--4-----0--4--|----0--4-----0--4--------7-----------------7-----|


E|-------------------------------------------------|-------------------------------------------------|
B|-------------------------------------------------|-------------------------------------------------|
G|-------------------------------------------------|-------------------------------------------------|
D|-------------------------------------------------|-------------------------------------------------|
A|-2--6--2--0--2--6--2--0-----0--2--6--2--0-----0--|-2--4--2--0--2--4--2--0--------9--------9--------|
E|-------------------------7-----------------7-----|-------------------------0--5-----0--5-----0--5--|


E|-------------------------------------------------|-------------------------------------------------|
B|-------------------------------------------------|-------------------------------------------------|
G|-------------------------------------------------|-------------------------------------------------|
D|-------------------------------------------------|-------------------------------------------------|
A|-7--------7--------7--6--------7--------7--------|-6--------7--------6--4-----0--2--6--2--0-----0--|
E|----0--5-----0--5--------0--4-----0--4-----0--4--|----0--4-----0--4--------7-----------------7-----|


E|-------------------------------------------------|------------------------------------------|
B|-------------------------------------------------|------------------------------------------|
G|-------------------------------------------------|------------------------------------------|
D|-------------------------------------------------|------------------------------------------|
A|-2--6--2--0--2--6--2--0--2--0--2--6--2--0-----0--|-2--4--2--0--2----------9--------9--------|
E|-------------------------------------------7-----|------------------0--5-----0--5-----0--5--|


E|-------------------------------------------------|-------------------------------------------------|
B|-------------------------------------------------|-------------------------------------------------|
G|-------------------------------------------------|-------------------------------------------------|
D|-------------------------------------------------|-------------------------------------------------|
A|-7--------7--------7--6--------7--------7--------|-6--------7--------6--4-----0--2--6--2--0-----0--|
E|----0--5-----0--5--------0--4-----0--4-----0--4--|----0--4-----0--4--------7-----------------7-----|


E|-------------------------------------------------|-------------------------------------------------|
B|-------------------------------------------------|-------------------------------------------------|
G|-------------------------------------------------|-------------------------------------------------|
D|-------------------------------------------------|-------------------------------------------------|
A|-2--6--2--0--2--6--2--0-----0--2--6--2--0-----0--|-2--4--2--0--2--4--2--0--------9--------9--------|
E|-------------------------7-----------------7-----|-------------------------0--5-----0--5-----0--5--|


E|-------------------------------------------------|-------------------------------------------------|
B|-------------------------------------------------|-------------------------------------------------|
G|-------------------------------------------------|-------------------------------------------------|
D|-------------------------------------------------|-------------------------------------------------|
A|-7--------7--------7--6--------7--------7--------|-6--------7--------6--4-----0--2--6--2--0-----0--|
E|----0--5-----0--5--------0--4-----0--4-----0--4--|----0--4-----0--4--------7-----------------7-----|


E|-------------------------------------------------|-------------------------------------------------|
B|-------------------------------------------------|-------------------------------------------------|
G|-------------------------------------------------|-------------------------------------------------|
D|-------------------------------------------------|-------------------------------------------------|
A|-2--6--2--0--2--6--2--0-----0--2--6--2--0-----0--|-2--4--2--0--2--4--2--0--------9--------9--------|
E|-------------------------7-----------------7-----|-------------------------0--5-----0--5-----0--5--|


E|-------------------------------------------------|-------------------------------------------------|
B|-------------------------------------------------|-------------------------------------------------|
G|-------------------------------------------------|-------------------------------------------------|
D|-------------------------------------------------|-------------------------------------------------|
A|-7--------7--------7--6--------7--------7--------|-6--------7--------6--4-----0--2--6--2--0-----0--|
E|----0--5-----0--5--------0--4-----0--4-----0--4--|----0--4-----0--4--------7-----------------7-----|


E|-------------------------------------------------|----------------------------------------|
B|-------------------------------------------------|----------------------------------------|
G|-------------------------------------------------|----------------------------------------|
D|-------------------------------------------------|-------------------------4----------4---|
A|-2--6--2--0--2--6--2--0-----0--2--6--2--0-----0--|-2--4--2--0--2--4--2--0--2----0--0--2---|
E|-------------------------7-----------------7-----|-------------------------2----0--0--2---|


E|--------------------------------------|------------------------------------|--------------------------------|
B|--------------------------------------|------------------------------------|--------------------------------|
G|--------------------------------------|-----------------------4--------4---|---------4---0------------------|
D|-----------------------4--------------|-----------------------2----0---2---|-----2---2---0---4----0--0--4---|
A|-----0--0--2--4--2--0--2----0--0--2---|-----0--0--2--4--2--0--0----0---0---|-----0---0---0---2----0--0--2---|
E|-----0--0--------------2----0--0--2---|-----0--0---------------------------|-----------------0----------0---|


E|-----------------------------|--------------------------------------|--------------------------------------|
B|-----------------------------|--------------------------------------|--------------------------------------|
G|--------------4----------4---|-----------------------4----------4---|-----------------------4----------4---|
D|-4----4-------4----------4---|-----------------------4----------4---|-----------------------2----0--0--2---|
A|-2----2-------2----0--0--2---|-----1--1--2--5--2--0--2----0--0--2---|-----1--1--2--4--2--0--0----0--0--0---|
E|-0----0---0---2----1--1--2---|-----1--1--------------2----1--1--2---|-----1--1-----------------------------|


E|-----------------------------------------------|-----------------------------|--------------------------------------|
B|-----------------------------------------------|-----------------------------|--------------------------------------|
G|-4---4--2--0-----------------------------------|--------------4----------4---|-----------------------4----------4---|
D|-2------------4--2--0-----------4----0--0--4---|-4----4-------4----------4---|-----------------------4----------4---|
A|-0---------------------4--2--0--2----0--0--2---|-2----2-------2----0--0--2---|-----1--1--2--5--2--0--2----0--0--2---|
E|--------------------------------0----------0---|-0----0---0---2----1--1--2---|-----1--1--------------2----1--1--2---|


E|------------------------------------|--------------------------------|-----------------------------|
B|------------------------------------|--------------------------------|-----------------------------|
G|-----------------------4--------4---|---------4---0------------------|--------------4----------4---|
D|-----------------------2----0---2---|-----2---2---0---4----0--0--4---|-4----4-------4----------4---|
A|-----1--1--2--4--2--0--0----0---0---|-----0---0---0---2----0--0--2---|-2----2-------2----0--0--2---|
E|-----1--1---------------------------|-----------------0----------0---|-0----0---0---2----1--1--2---|


E|--------------------------------------|--------------------------------------|-------------------------------|
B|--------------------------------------|--------------------------------------|-------------------------------|
G|-----------------------4----------4---|--------------------------------------|-------------------------------|
D|-----------------------4----------4---|-----------------------11---11---11---|-12---11-----------------------|
A|-----1--1--2--5--2--0--2----0--0--2---|-----1--1--2--4--2--0--0----0----0----|-0----0----12---11---11---11---|
E|-----1--1--------------2----1--1--2---|-----1--1-----------------------------|----------------0----0----0----|


E|-------------------------------|--------------------------------------|-----------------------------------------------|
B|-------------------------------|--------------------------------------|-----------------------------------------------|
G|-------------------------------|--------------------------------------|-----------------------------------------------|
D|----------------4----------4---|-----------------------4--------------|-----------------------------------------------|
A|-12---11--------2----0--0--2---|-----0--0--2--4--2--0--2----0--0--2---|-----0--0--2--4--2--0--------21-------21-------|
E|-0----0----12---2----0--0--2---|-----0--0--------------2----0--0--2---|-----0--0--------------0--17----0--17----0--17-|


E|-------------------------------------------------|-------------------------------------------------|
B|-------------------------------------------------|-------------------------------------------------|
G|-------------------------------------------------|-------------------------------------------------|
D|-------------------------------------------------|-------------------------------------------------|
A|-19-------19-------19-18-------19-------19-------|-18-------19-------18-16----0--14-18-14-0-----0--|
E|----0--17----0--17-------0--16----0--16----0--16-|----0--16----0--16-------19----------------19----|


E|-------------------------------------------------|-------------------------------------------------|
B|-------------------------------------------------|-------------------------------------------------|
G|-------------------------------------------------|-------------------------------------------------|
D|-------------------------------------------------|-------------------------------------------------|
A|-14-18-14-0--14-18-14-0-----0--14-18-14-0-----0--|-14-18-14-0--14-18-14-0--------21-------21-------|
E|-------------------------19----------------19----|-------------------------0--17----0--17----0--17-|


E|-------------------------------------------------|-------------------------------------------------|
B|-------------------------------------------------|-------------------------------------------------|
G|-------------------------------------------------|-------------------------------------------------|
D|-------------------------------------------------|-------------------------------------------------|
A|-19-------19-------19-18-------19-------19-------|-18-------19-------18-16----0--14-18-14-0-----0--|
E|----0--17----0--17-------0--16----0--16----0--16-|----0--16----0--16-------19----------------19----|


E|-------------------------------------------------|------------------------------------------|
B|-------------------------------------------------|------------------------------------------|
G|-------------------------------------------------|------------------------------------------|
D|-------------------------------------------------|------------------------------------------|
A|-14-18-14-0--14-18-14-0-----0--14-18-14-0-----0--|-18-0--14-0--18---------9--------9--------|
E|-------------------------19----------------19----|------------------0--5-----0--5-----0--5--|


E|-------------------------------------------------|-------------------------------------------------|
B|-------------------------------------------------|-------------------------------------------------|
G|-------------------------------------------------|-------------------------------------------------|
D|-------------------------------------------------|-------------------------------------------------|
A|-7--------7--------7--6--------7--------7--------|-6--------7--------6--4-----0--2--6--2--0-----0--|
E|----0--5-----0--5--------0--4-----0--4-----0--4--|----0--4-----0--4--------7-----------------7-----|


E|-------------------------------------------------|-------------------------------------------------|
B|-------------------------------------------------|-------------------------------------------------|
G|-------------------------------------------------|-------------------------------------------------|
D|-------------------------------------------------|-------------------------------------------------|
A|-2--6--2--0--2--6--2--0-----0--2--6--2--0-----0--|-2--4--2--0--2--4--2--0--------9--------9--------|
E|-------------------------7-----------------7-----|-------------------------0--5-----0--5-----0--5--|


E|-------------------------------------------------|-------------------------------------------------|
B|-------------------------------------------------|-------------------------------------------------|
G|-------------------------------------------------|-------------------------------------------------|
D|-------------------------------------------------|-------------------------------------------------|
A|-7--------7--------7--6--------7--------7--------|-6--------7--------6--4-----0--2--6--2--0-----0--|
E|----0--5-----0--5--------0--4-----0--4-----0--4--|----0--4-----0--4--------7-----------------7-----|


E|-------------------------------------------------|-------------------------------------------------|
B|-------------------------------------------------|-------------------------------------------------|
G|-------------------------------------------------|-------------------------------------------------|
D|-------------------------------------------------|-------------------------------------------------|
A|-2--6--2--0--2--6--2--0-----0--2--6--2--0-----0--|-2--4--2--0--2--4--2--0--------9--------9--------|
E|-------------------------7-----------------7-----|-------------------------0--5-----0--5-----0--5--|


E|-------------------------------------------------|-------------------------------------------------|
B|-------------------------------------------------|-------------------------------------------------|
G|-------------------------------------------------|-------------------------------------------------|
D|-------------------------------------------------|-------------------------------------------------|
A|-7--------7--------7--6--------7--------7--------|-6--------7--------6--4-----0--2--6--2--0-----0--|
E|----0--5-----0--5--------0--4-----0--4-----0--4--|----0--4-----0--4--------7-----------------7-----|


E|-------------------------------------------------|----------------------------------------|
B|-------------------------------------------------|----------------------------------------|
G|-------------------------------------------------|----------------------------------------|
D|-------------------------------------------------|-------------------------4----------4---|
A|-2--6--2--0--2--6--2--0-----0--2--6--2--0-----0--|-2--4--2--0--2--4--2--0--2----0--0--2---|
E|-------------------------7-----------------7-----|-------------------------2----0--0--2---|


E|--------------------------------------|------------------------------------|--------------------------------|
B|--------------------------------------|------------------------------------|--------------------------------|
G|--------------------------------------|-----------------------4--------4---|---------4---0------------------|
D|-----------------------4--------------|-----------------------2----0---2---|-----2---2---0---4----0--0--4---|
A|-----0--0--2--4--2--0--2----0--0--2---|-----0--0--2--4--2--0--0----0---0---|-----0---0---0---2----0--0--2---|
E|-----0--0--------------2----0--0--2---|-----0--0---------------------------|-----------------0----------0---|


E|-----------------------------|--------------------------------------|--------------------------------------|
B|-----------------------------|--------------------------------------|--------------------------------------|
G|--------------4----------4---|-----------------------4----------4---|-----------------------4----------4---|
D|-4----4-------4----------4---|-----------------------4----------4---|-----------------------2----0--0--2---|
A|-2----2-------2----0--0--2---|-----1--1--2--5--2--0--2----0--0--2---|-----1--1--2--4--2--0--0----0--0--0---|
E|-0----0---0---2----1--1--2---|-----1--1--------------2----1--1--2---|-----1--1-----------------------------|


E|-----------------------------------------------|-----------------------------|--------------------------------------|
B|-----------------------------------------------|-----------------------------|--------------------------------------|
G|-4---4--2--0-----------------------------------|--------------4----------4---|-----------------------4----------4---|
D|-2------------4--2--0-----------4----0--0--4---|-4----4-------4----------4---|-----------------------4----------4---|
A|-0---------------------4--2--0--2----0--0--2---|-2----2-------2----0--0--2---|-----1--1--2--5--2--0--2----0--0--2---|
E|--------------------------------0----------0---|-0----0---0---2----1--1--2---|-----1--1--------------2----1--1--2---|


E|------------------------------------|--------------------------------|-----------------------------|
B|------------------------------------|--------------------------------|-----------------------------|
G|-----------------------4--------4---|---------4---0------------------|--------------4----------4---|
D|-----------------------2----0---2---|-----2---2---0---4----0--0--4---|-4----4-------4----------4---|
A|-----1--1--2--4--2--0--0----0---0---|-----0---0---0---2----0--0--2---|-2----2-------2----0--0--2---|
E|-----1--1---------------------------|-----------------0----------0---|-0----0---0---2----1--1--2---|


E|--------------------------------------|--------------------------------------|-------------------------------|
B|--------------------------------------|--------------------------------------|-------------------------------|
G|-----------------------4----------4---|--------------------------------------|-------------------------------|
D|-----------------------4----------4---|-----------------------11---11---11---|-12---11-----------------------|
A|-----1--1--2--5--2--0--2----0--0--2---|-----1--1--2--4--2--0--0----0----0----|-0----0----12---11---11---11---|
E|-----1--1--------------2----1--1--2---|-----1--1-----------------------------|----------------0----0----0----|


E|-------------------------------|--------------------------------------|-----------------------------------------------|
B|-------------------------------|--------------------------------------|-----------------------------------------------|
G|-------------------------------|--------------------------------------|-----------------------------------------------|
D|----------------4----------4---|-----------------------4--------------|-----------------------------------------------|
A|-12---11--------2----0--0--2---|-----0--0--2--4--2--0--2----0--0--2---|-----0--0--2--4--2--0--------21-------21-------|
E|-0----0----12---2----0--0--2---|-----0--0--------------2----0--0--2---|-----0--0--------------0--17----0--17----0--17-|


E|-------------------------------------------------|-------------------------------------------------|
B|-------------------------------------------------|-------------------------------------------------|
G|-------------------------------------------------|-------------------------------------------------|
D|-------------------------------------------------|-------------------------------------------------|
A|-19-------19-------19-18-------19-------19-------|-18-------19-------18-16----0--14-18-14-0-----0--|
E|----0--17----0--17-------0--16----0--16----0--16-|----0--16----0--16-------19----------------19----|


E|-------------------------------------------------|-------------------------------------------------|
B|-------------------------------------------------|-------------------------------------------------|
G|-------------------------------------------------|-------------------------------------------------|
D|-------------------------------------------------|-------------------------------------------------|
A|-14-18-14-0--14-18-14-0-----0--14-18-14-0-----0--|-14-18-14-0--14-18-14-0--------21-------21-------|
E|-------------------------19----------------19----|-------------------------0--17----0--17----0--17-|


E|-------------------------------------------------|-------------------------------------------------|
B|-------------------------------------------------|-------------------------------------------------|
G|-------------------------------------------------|-------------------------------------------------|
D|-------------------------------------------------|-------------------------------------------------|
A|-19-------19-------19-18-------19-------19-------|-18-------19-------18-16----0--14-18-14-0-----0--|
E|----0--17----0--17-------0--16----0--16----0--16-|----0--16----0--16-------19----------------19----|


E|-------------------------------------------------|-------------------------------|
B|-------------------------------------------------|-------------------------------|
G|-------------------------------------------------|------------------4--------4---|
D|-------------------------------------------------|------------------2--------2---|
A|-14-18-14-0--14-18-14-0-----0--14-18-14-0-----0--|-18-0--14-0--18---0----0---0---|
E|-------------------------19----------------19----|-----------------------0-------|


E|---------------------------|-----------------------------|--------------------------|
B|---------------------------|-----------------------------|--------------------------|
G|-4----4--------------------|--------------4----------4---|-4----4----4----------4---|
D|-2----2---0---4--------4---|-4----4-------4----------4---|-4----4----4----------4---|
A|-0----0---0---2--------2---|-2----2---0---2----1--1--2---|-2----2----2----1--1--2---|
E|--------------0----0---0---|-0----0---0---2----1--1--2---|-2----2----2----1--1--2---|


E|---------------------------|---------------------------|-----------------------------|
B|---------------------------|---------------------------|-----------------------------|
G|-4----4-------4--------4---|-4----4--------------------|--------------4----------4---|
D|-4----4-------2--------2---|-2----2---0---4--------4---|-4----4-------4----------4---|
A|-2----2---0---0----0---0---|-0----0---0---2--------2---|-2----2---0---2----1--1--2---|
E|-2----2---0--------0-------|--------------0----0---0---|-0----0---0---2----1--1--2---|


E|--------------------------|-----------------------------|-------------------------------|
B|--------------------------|-----------------------------|-------------------------------|
G|-4----4----4----------4---|-4----4----------------------|-------------------------------|
D|-4----4----4----------4---|-4----4-------11---11---11---|-12---11-----------------------|
A|-2----2----2----1--1--2---|-2----2---0---0----0----0----|-0----0----12---11---11---11---|
E|-2----2----2----1--1--2---|-2----2---0------------------|----------------0----0----0----|


E|-------------------------------|--------------------------------------|-----------------------------|
B|-------------------------------|--------------------------------------|-----------------------------|
G|-------------------------------|--------------------------------------|-----------------------------|
D|----------------4----------4---|-----------------------4--------------|-----------------------------|
A|-12---11--------2----0--0--2---|-----0--0--2--4--2--0--2----0--0--2---|-----0--0--2--4--2--0--------|
E|-0----0----12---2----0--0--2---|-----0--0--------------2----0--0--2---|-----0--0--------------------|


E|--------|--------|--------|--------|--------|--------|--------|--------|--------|
B|--------|--------|--------|--------|--------|--------|--------|--------|--------|
G|--------|--------|--------|--------|--------|--------|--------|--------|--------|
D|--------|--------|--------|--------|--------|--------|--------|--------|--------|
A|--------|--------|--------|--------|--------|--------|--------|--------|--------|
E|--------|--------|--------|--------|--------|--------|--------|--------|--------|


E|--------|--------|--------|--------|--------|--------|--------|--------|--------|
B|--------|--------|--------|--------|--------|--------|--------|--------|--------|
G|--------|--------|--------|--------|--------|--------|--------|--------|--------|
D|--------|--------|--------|--------|--------|--------|--------|--------|--------|
A|--------|--------|--------|--------|--------|--------|--------|--------|--------|
E|--------|--------|--------|--------|--------|--------|--------|--------|--------|


E|--------|--------|--------|--------|--------|--------|--------|--------|--------|
B|--------|--------|--------|--------|--------|--------|--------|--------|--------|
G|--------|--------|--------|--------|--------|--------|--------|--------|--------|
D|--------|--------|--------|--------|--------|--------|--------|--------|--------|
A|--------|--------|--------|--------|--------|--------|--------|--------|--------|
E|--------|--------|--------|--------|--------|--------|--------|--------|--------|


E|--------|--------|--------|--------|
B|--------|--------|--------|--------|
G|--------|--------|--------|--------|
D|--------|--------|--------|--------|
A|--------|--------|--------|--------|
E|--------|--------|--------|--------|





Track 2: Guitar 2

E|--------|--------|--------|--------|--------|--------|-------------|-------------|
B|--------|--------|--------|--------|--------|--------|-------------|-------------|
G|--------|--------|--------|--------|--------|--------|-------------|-------------|
D|--------|--------|--------|--------|--------|--------|-------------|-------------|
A|--------|--------|--------|--------|--------|--------|-------------|-------------|
E|--------|--------|--------|--------|--------|--------|-------------|-------------|


E|-------------|-----------------|--------|--------|--------|--------|--------|--------|
B|-------------|-----------------|--------|--------|--------|--------|--------|--------|
G|-------------|-----------------|--------|--------|--------|--------|--------|--------|
D|-------------|-----------------|--------|--------|--------|--------|--------|--------|
A|-------------|-----------------|--------|--------|--------|--------|--------|--------|
E|-------2-----|-1----1----------|--------|--------|--------|--------|--------|--------|


E|--------|--------|--------|--------|--------|--------|--------|--------|--------|
B|--------|--------|--------|--------|--------|--------|--------|--------|--------|
G|--------|--------|--------|--------|--------|--------|--------|--------|--------|
D|--------|--------|--------|--------|--------|--------|--------|--------|--------|
A|--------|--------|--------|--------|--------|--------|--------|--------|--------|
E|--------|--------|--------|--------|--------|--------|--------|--------|--------|


E|--------|--------|--------|--------|--------|--------|--------|--------|--------|
B|--------|--------|--------|--------|--------|--------|--------|--------|--------|
G|--------|--------|--------|--------|--------|--------|--------|--------|--------|
D|--------|--------|--------|--------|--------|--------|--------|--------|--------|
A|--------|--------|--------|--------|--------|--------|--------|--------|--------|
E|--------|--------|--------|--------|--------|--------|--------|--------|--------|


E|--------|--------|--------|--------|--------|--------|--------|--------|--------|
B|--------|--------|--------|--------|--------|--------|--------|--------|--------|
G|--------|--------|--------|--------|--------|--------|--------|--------|--------|
D|--------|--------|--------|--------|--------|--------|--------|--------|--------|
A|--------|--------|--------|--------|--------|--------|--------|--------|--------|
E|--------|--------|--------|--------|--------|--------|--------|--------|--------|


E|--------|--------|--------|--------|--------|--------|--------|--------|--------|
B|--------|--------|--------|--------|--------|--------|--------|--------|--------|
G|--------|--------|--------|--------|--------|--------|--------|--------|--------|
D|--------|--------|--------|--------|--------|--------|--------|--------|--------|
A|--------|--------|--------|--------|--------|--------|--------|--------|--------|
E|--------|--------|--------|--------|--------|--------|--------|--------|--------|


E|--------|--------|--------|--------|--------|--------|--------|--------|--------|
B|--------|--------|--------|--------|--------|--------|--------|--------|--------|
G|--------|--------|--------|--------|--------|--------|--------|--------|--------|
D|--------|--------|--------|--------|--------|--------|--------|--------|--------|
A|--------|--------|--------|--------|--------|--------|--------|--------|--------|
E|--------|--------|--------|--------|--------|--------|--------|--------|--------|


E|--------|--------|--------|--------|--------|--------|--------|--------|--------|
B|--------|--------|--------|--------|--------|--------|--------|--------|--------|
G|--------|--------|--------|--------|--------|--------|--------|--------|--------|
D|--------|--------|--------|--------|--------|--------|--------|--------|--------|
A|--------|--------|--------|--------|--------|--------|--------|--------|--------|
E|--------|--------|--------|--------|--------|--------|--------|--------|--------|


E|--------|--------|--------|--------|--------|--------|--------|--------|--------|
B|--------|--------|--------|--------|--------|--------|--------|--------|--------|
G|--------|--------|--------|--------|--------|--------|--------|--------|--------|
D|--------|--------|--------|--------|--------|--------|--------|--------|--------|
A|--------|--------|--------|--------|--------|--------|--------|--------|--------|
E|--------|--------|--------|--------|--------|--------|--------|--------|--------|


E|--------|--------|--------|--------|--------|--------|--------|--------|--------|
B|--------|--------|--------|--------|--------|--------|--------|--------|--------|
G|--------|--------|--------|--------|--------|--------|--------|--------|--------|
D|--------|--------|--------|--------|--------|--------|--------|--------|--------|
A|--------|--------|--------|--------|--------|--------|--------|--------|--------|
E|--------|--------|--------|--------|--------|--------|--------|--------|--------|


E|--------|--------|--------|--------|--------|----------------0--------------|----------------------------------0--------------|
B|--------|--------|--------|--------|--------|-------0--12-16----16-12-0-----|-------------------0--14-0--12-16----16-12-0-----|
G|--------|--------|--------|--------|--------|----------------------------16-|-14-13----13-14-16----------------------------16-|
D|--------|--------|--------|--------|--------|-------------------------------|-------16----------------------------------------|
A|--------|--------|--------|--------|--------|-------------------------------|-------------------------------------------------|
E|--------|--------|--------|--------|--------|-------------------------------|-------------------------------------------------|


E|---------------------------0--------------|----------------------------------0--------------|
B|------------------0--12-16----16-12-0-----|-------------------0--14-0--12-16----16-12-0-----|
G|-14-13----13-14------------------------16-|-14-13----13-14-16----------------------------16-|
D|-------16---------------------------------|-------16----------------------------------------|
A|------------------------------------------|-------------------------------------------------|
E|------------------------------------------|-------------------------------------------------|


E|------------------------------------------|-------------------------------------0-----------|
B|------------------0--12-16-0--16-12-0--12-|-17-0--17-12-0--12-19-0--19-12-0--12----12-17-12-|
G|-14-13----13-14---------------------------|-------------------------------------------------|
D|-------16---------------------------------|-------------------------------------------------|
A|------------------------------------------|-------------------------------------------------|
E|------------------------------------------|-------------------------------------------------|


E|-----------------------------14-19-14-19-14-------14-|-19-14-19-14-------14-19-14-------14-19-14-19-14-------14-|
B|-0--12-16-0--16-12-0------16-------------------16----|----------------16-------------16-------------------16----|
G|-----------------------16-------------------16-------|-------------16-------------16-------------------16-------|
D|-----------------------------------------------------|----------------------------------------------------------|
A|-----------------------------------------------------|----------------------------------------------------------|
E|-----------------------------------------------------|----------------------------------------------------------|


E|-19-14------------------------|-------------|-------------|-------------|----------------------|
B|-------16--17--17-17-17-17----|-16----16----|-------16----|-------16----|----------------------|
G|------------------------------|-------------|-------------|-------------|----------------------|
D|------------------------------|-------------|-------------|-------------|-------11---11---11---|
A|------------------------------|-------------|-------------|-------------|-------0----0----0----|
E|------------------------------|-------------|-------------|-------------|----------------------|


E|-------------------------------|-------------------------------|--------------------------------------|
B|-------------------------------|-------------------------------|--------------------------------------|
G|-------------------------------|-------------------------------|--------------------------------------|
D|-12---11-----------------------|----------------4----------4---|-----------------------4--------------|
A|-0----0----12---11---11---11---|-12---11--------2----0--0--2---|-----0--0--2--4--2--0--2----0--0--2---|
E|----------------0----0----0----|-0----0----12---2----0--0--2---|-----0--0--------------2----0--0--2---|


E|--------------------------------------|---------------------------|-------------------------------|
B|--------------------------------------|---------------------------|-------------------------------|
G|--------------------------------------|------14-------------------|-------------------------------|
D|-----------------------11---11---11---|-12------------------------|----------------4----------4---|
A|-----0--0--2--4--2--0--0----0----0----|-0----------11---11---11---|-12---11--------2----0--0--2---|
E|-----0--0-----------------------------|------------0----0----0----|-0----0----12---2----0--0--2---|


E|--------------------------------------|--------------------------------------|-------------------------------|
B|--------------------------------------|--------------------------------------|-------------------------------|
G|--------------------------------------|--------------------------------------|-------------------------------|
D|-----------------------4--------------|-----------------------11---11---11---|-12---11-----------------------|
A|-----0--0--2--4--2--0--2----0--0--2---|-----0--0--2--4--2--0--0----0----0----|-0----0----12---11---11---11---|
E|-----0--0--------------2----0--0--2---|-----0--0-----------------------------|----------------0----0----0----|


E|-------------------------------|--------------------------------------|------------------------------------|
B|-------------------------------|--------------------------------------|------------------------------------|
G|-------------------------------|--------------------------------------|-----------------------4--------4---|
D|----------------4----------4---|-----------------------4--------------|-----------------------2----0---2---|
A|-12---11--------2----0--0--2---|-----0--0--2--4--2--0--2----0--0--2---|-----0--0--2--4--2--0--0----0---0---|
E|-0----0----12---2----0--0--2---|-----0--0--------------2----0--0--2---|-----0--0---------------------------|


E|--------------------------------|-----------------------------|--------------------------------------|
B|--------------------------------|-----------------------------|--------------------------------------|
G|---------4---0------------------|--------------4----------4---|-----------------------4----------4---|
D|-----2---2---0---4----0--0--4---|-4----4-------4----------4---|-----------------------4----------4---|
A|-----0---0---0---2----0--0--2---|-2----2-------2----0--0--2---|-----1--1--2--5--2--0--2----0--0--2---|
E|-----------------0----------0---|-0----0---0---2----1--1--2---|-----1--1--------------2----1--1--2---|


E|------------------------------------|--------------------------------|-----------------------------|
B|------------------------------------|--------------------------------|-----------------------------|
G|-----------------------4--------4---|---------4---0------------------|--------------4----------4---|
D|-----------------------2----0---2---|-----2---2---0---4----0--0--4---|-4----4-------4----------4---|
A|-----1--1--2--4--2--0--0----0---0---|-----0---0---0---2----0--0--2---|-2----2-------2----0--0--2---|
E|-----1--1---------------------------|-----------------0----------0---|-0----0---0---2----1--1--2---|


E|--------------------------------------|--------------------------------------|-----------------------------------------------|
B|--------------------------------------|--------------------------------------|-----------------------------------------------|
G|-----------------------4----------4---|-----------------------4----------4---|-4---4--2--0-----------------------------------|
D|-----------------------4----------4---|-----------------------2----0--0--2---|-2------------4--2--0-----------4----0--0--4---|
A|-----1--1--2--5--2--0--2----0--0--2---|-----1--1--2--4--2--0--0----0--0--0---|-0---------------------4--2--0--2----0--0--2---|
E|-----1--1--------------2----1--1--2---|-----1--1-----------------------------|--------------------------------0----------0---|


E|-----------------------------|--------------------------------------|--------------------------------------|
B|-----------------------------|--------------------------------------|--------------------------------------|
G|--------------4----------4---|-----------------------4----------4---|--------------------------------------|
D|-4----4-------4----------4---|-----------------------4----------4---|-----------------------11---11---11---|
A|-2----2-------2----0--0--2---|-----1--1--2--5--2--0--2----0--0--2---|-----1--1--2--4--2--0--0----0----0----|
E|-0----0---0---2----1--1--2---|-----1--1--------------2----1--1--2---|-----1--1-----------------------------|


E|-------------------------------|-------------------------------|--------------------------------------|
B|-------------------------------|-------------------------------|--------------------------------------|
G|-------------------------------|-------------------------------|--------------------------------------|
D|-12---11-----------------------|----------------4----------4---|-----------------------4--------------|
A|-0----0----12---11---11---11---|-12---11--------2----0--0--2---|-----0--0--2--4--2--0--2----0--0--2---|
E|----------------0----0----0----|-0----0----12---2----0--0--2---|-----0--0--------------2----0--0--2---|


E|--------------------------------------|---------------------------|----------------------|
B|--------------------------------------|---------------------------|----------------------|
G|--------------------------------------|------14-------------------|----------------------|
D|-----------------------11---11---11---|-12------------------------|----------------4-----|
A|-----0--0--2--4--2--0--0----0----0----|-0----------11---11---11---|-12---11--------2-----|
E|-----0--0-----------------------------|------------0----0----0----|-0----0----12---2-----|


E|-------------|
B|-------------|
G|-------------|
D|-------4-----|
A|-------2-----|
E|-------2-----|





Track 3: Untitled

G|--------|--------|--------|--------|--------|--------|--------|--------|--------|
D|--------|--------|--------|--------|--------|--------|--------|--------|--------|
A|--------|--------|--------|--------|--------|--------|--------|--------|--------|
E|--------|--------|--------|--------|--------|--------|--------|--------|--------|


G|--------|--------|--------|--------|--------|--------|--------|--------|--------|
D|--------|--------|--------|--------|--------|--------|--------|--------|--------|
A|--------|--------|--------|--------|--------|--------|--------|--------|--------|
E|--------|--------|--------|--------|--------|--------|--------|--------|--------|


G|--------|--------|--------|--------|--------|--------|--------|--------|--------|
D|--------|--------|--------|--------|--------|--------|--------|--------|--------|
A|--------|--------|--------|--------|--------|--------|--------|--------|--------|
E|--------|--------|--------|--------|--------|--------|--------|--------|--------|


G|--------|--------|--------|--------|--------|--------|--------|--------|--------|
D|--------|--------|--------|--------|--------|--------|--------|--------|--------|
A|--------|--------|--------|--------|--------|--------|--------|--------|--------|
E|--------|--------|--------|--------|--------|--------|--------|--------|--------|


G|--------|--------|--------|--------|--------|--------|--------|--------|--------|
D|--------|--------|--------|--------|--------|--------|--------|--------|--------|
A|--------|--------|--------|--------|--------|--------|--------|--------|--------|
E|--------|--------|--------|--------|--------|--------|--------|--------|--------|


G|--------|--------|--------|--------|--------|--------|--------|--------|--------|
D|--------|--------|--------|--------|--------|--------|--------|--------|--------|
A|--------|--------|--------|--------|--------|--------|--------|--------|--------|
E|--------|--------|--------|--------|--------|--------|--------|--------|--------|


G|--------|--------|--------|--------|--------|--------|--------|--------|--------|
D|--------|--------|--------|--------|--------|--------|--------|--------|--------|
A|--------|--------|--------|--------|--------|--------|--------|--------|--------|
E|--------|--------|--------|--------|--------|--------|--------|--------|--------|


G|--------|--------|--------|--------|--------|--------|--------|--------|--------|
D|--------|--------|--------|--------|--------|--------|--------|--------|--------|
A|--------|--------|--------|--------|--------|--------|--------|--------|--------|
E|--------|--------|--------|--------|--------|--------|--------|--------|--------|


G|--------|--------|--------|--------|--------|--------|--------|--------|--------|
D|--------|--------|--------|--------|--------|--------|--------|--------|--------|
A|--------|--------|--------|--------|--------|--------|--------|--------|--------|
E|--------|--------|--------|--------|--------|--------|--------|--------|--------|


G|--------|--------|--------|--------|--------|--------|--------|--------|--------|
D|--------|--------|--------|--------|--------|--------|--------|--------|--------|
A|--------|--------|--------|--------|--------|--------|--------|--------|--------|
E|--------|--------|--------|--------|--------|--------|--------|--------|--------|


G|--------|--------|--------|--------|--------|--------|--------|--------|--------|
D|--------|--------|--------|--------|--------|--------|--------|--------|--------|
A|--------|--------|--------|--------|--------|--------|--------|--------|--------|
E|--------|--------|--------|--------|--------|--------|--------|--------|--------|


G|--------|--------|--------|--------|--------|--------|--------|--------|--------|
D|--------|--------|--------|--------|--------|--------|--------|--------|--------|
A|--------|--------|--------|--------|--------|--------|--------|--------|--------|
E|--------|--------|--------|--------|--------|--------|--------|--------|--------|


G|--------|--------|--------|--------|--------|--------|--------|--------|--------|
D|--------|--------|--------|--------|--------|--------|--------|--------|--------|
A|--------|--------|--------|--------|--------|--------|--------|--------|--------|
E|--------|--------|--------|--------|--------|--------|--------|--------|--------|


G|--------|--------|--------|--------|--------|--------|--------|--------|--------|
D|--------|--------|--------|--------|--------|--------|--------|--------|--------|
A|--------|--------|--------|--------|--------|--------|--------|--------|--------|
E|--------|--------|--------|--------|--------|--------|--------|--------|--------|


G|--------|--------|--------|--------|--------|--------|--------|--------|--------|
D|--------|--------|--------|--------|--------|--------|--------|--------|--------|
A|--------|--------|--------|--------|--------|--------|--------|--------|--------|
E|--------|--------|--------|--------|--------|--------|--------|--------|--------|


G|--------|--------|
D|--------|--------|
A|--------|--------|
E|--------|--------|