Menu:

 

Search:

 

alter bridge - find the real:

 



Title: Find The Real
Artist: 
Album: One Day Remains
Author: Mark Tremonti


Track 1: Dist Guitar

D#|----------------------------------|---------------------------------------------|
A#|----------------------------------|---------------------------------------------|
F#|----------------------------------|---------------------------------------------|
C#|----------------------------------|---------------------------------------------|
G#|--------------5--4--3-------------|----------3-------------------3--3--0--3--5--|
C#|-12---0----0-----------7--6----6--|-0--3--5-----3----3--0--3--5-----------------|


D#|------------------------------------|---------------------------------------------|
A#|------------------------------------|---------------------------------------------|
F#|------------------------------------|---------------------------------------------|
C#|-4---4-4----------------------------|---------------------0--3--5--2--2--0--2--5--|
G#|----------------5--4--3-------------|----------3----------0--3--5--2--2--0--2--5--|
C#|-----------0-------------7--6----6--|-0--3--5-----3----3--0--3--5--2--2--0--2--5--|


D#|---------------------------------------|---------------------------------------------|
A#|---------------------------------------|---------------------------------------------|
F#|---------------------------------------|---------------------------------------------|
C#|---------------------------------------|---------------------------------------------|
G#|-------------------5--4--3-------------|----------3-------------------3--3--0--3--5--|
C#|-1--1--1---0----0-----------7--6----6--|-0--3--5-----3----3--0--3--5-----------------|


D#|---------------------------------------|---------------------------------------------|
A#|---------------------------------------|---------------------------------------------|
F#|---------------------------------------|---------------------------------------------|
C#|-4---4-4-------------------------------|---------------------------------------------|
G#|-------------------5--4--3-------------|----------3-------------------3--3--0--3--5--|
C#|-----------0----0-----------7--6----6--|-0--3--5-----3----3--0--3--5-----------------|


D#|---------------------------------------|---------------------------------------------|
A#|---------------------------------------|---------------------------------------------|
F#|---------------------------------------|---------------------------------------------|
C#|-5---5-5-------------------------------|---------------------------------------------|
G#|-------------------5--4--3-------------|----------3-------------------3--3--0--3--5--|
C#|-----------0----0-----------7--6----6--|-0--3--5-----3----3--0--3--5-----------------|


D#|---------------------------------------|---------------------------------------------|
A#|---------------------------------------|---------------------------------------------|
F#|---------------------------------------|---------------------------------------------|
C#|-4---4-4-------------------------------|---------------------------------------------|
G#|-------------------5--4--3-------------|----------3--3----3-----------3--3--0--3--5--|
C#|-----------0----0-----------7--6----6--|-0--3--5-----3----3--0--3--5-----------------|


D#|---------------------------------------|-----------------------------------------------|
A#|---------------------------------6--6--|-6--6--6--6------------------------------------|
F#|---------------------------------5--5--|-5--5--5--5--5---5--5--------------7--7--7--7--|
C#|---------3----3--3---------------3--3--|-3--3--3--3--5---5--5--5-----------5--5--5--5--|
G#|-4----0--1----1--1--0--1--2--3---3--3--|-3--3--3--3--3---3--3--3--0--3--4--5--5--5--5--|
C#|--------------------0--1--2--3---3--3--|-3--3--3--3---------------0--3--4--5--5--5--5--|


D#|------------------------------------|----------------------------------------|-----------------------------------------|
A#|-------------7----7-------------13--|-13-13----------------------------------|--------0--------------------------------|
F#|-7--7--7--7--7----7-------------12--|-12-12-1210---10---10-0-----------------|-12-10--0--------------------------5--5--|
C#|-5--5--5--5--0----0-----------------|-----------12---------0-----------10----|--------0--3----3--3---------------3--3--|
G#|-5--5--5--5--0----0----0--0--0------|----------------------0-------12-----12-|-----------1----1--1--0--1--2--3---3--3--|
C#|-5--5--5--5--0----0----0--0---------|----------------------0----0------------|----------------------0--1--2--3---3--3--|


D#|-----------------------------------------------|------------------------------------|
A#|----------------------------------0------8--8--|-8--8--8--7--7----7-------------13--|
F#|-5--5--------5--7--7--7--7--9--9--0------7--7--|-7--7--7-----7----7-------------12--|
C#|-3--3-----------------------------0--5---5--5--|-5--5--5-----0----0-----------------|
G#|-3--3--------3--5--5--5--5--7--7--0--5---5--5--|-5--5--5-----0----0----0--0--0------|
C#|-3--3--3--0--------------------------5---5--5--|-5--5--5-----0----0----0--0---------|


D#|----------------------------------------13-15-|-15---15-----------------------------|
A#|-13-13----------------------13----13-15-13-15-|-15---15-----------------------------|
F#|-12-12-1210---10---10-12-14----14-------------|-------------------------------------|
C#|-----------12---------------------------------|-------------------------------------|
G#|----------------------------------------------|-----------------5--4--3-------------|
C#|----------------------------------------------|---------0----0-----------7--6----6--|


D#|---------------------------------------------|---------------------------------------|
A#|---------------------------------------------|---------------------------------------|
F#|---------------------------------------------|---------------------------------------|
C#|---------------------------------------------|-4---4-4-------------------------------|
G#|----------3-------------------3--3--0--3--5--|-------------------5--4--3-------------|
C#|-0--3--5-----3----3--0--3--5-----------------|-----------0----0-----------7--6----6--|


D#|---------------------------------------------|---------------------------------------|
A#|---------------------------------------------|---------------------------------------|
F#|---------------------------------------------|---------------------------------------|
C#|---------------------------------------------|---------------------------------------|
G#|----------3-------------------3--3--0--3--5--|-5---5-5-----------5--4--3-------------|
C#|-0--3--5-----3----3--0--3--5-----------------|-----------0----0-----------7--6----6--|


D#|---------------------------------------------|---------------------------------------|
A#|---------------------------------------------|---------------------------------------|
F#|---------------------------------------------|---------------------------------------|
C#|---------------------------------------------|-4---4-4-------------------------------|
G#|----------3-------------------3--3--0--3--5--|-------------------5--4--3-------------|
C#|-0--3--5-----3----3--0--3--5-----------------|-----------0----0-----------7--6----6--|


D#|---------------------------------------------|---------------------------------------|
A#|---------------------------------------------|---------------------------------------|
F#|---------------------------------------------|---------------------------------------|
C#|---------------------------------------------|-5---5-5-------------------------------|
G#|----------3-------------------3--3--0--3--5--|-------------------5--4--3-------------|
C#|-0--3--5-----3----3--0--3--5-----------------|-----------0----0-----------7--6----6--|


D#|---------------------------------------------|---------------------------------------|
A#|---------------------------------------------|---------------------------------------|
F#|---------------------------------------------|---------------------------------------|
C#|---------------------------------------------|-4---4-4-------------------------------|
G#|----------3-------------------3--3--0--3--5--|-------------------5--4--3-------------|
C#|-0--3--5-----3----3--0--3--5-----------------|-----------0----0-----------7--6----6--|


D#|---------------------------------------------|-----------------------------------------|
A#|---------------------------------------------|-----------------------------------6--6--|
F#|---------------------------------------------|-----------------------------------5--5--|
C#|---------------------------------------------|-5---5-5---3----3--3---------------3--3--|
G#|----------3-------------------3--3--0--3--5--|-----------1----1--1--0--1--2--3---3--3--|
C#|-0--3--5-----3----3--0--3--5-----------------|----------------------0--1--2--3---3--3--|


D#|-----------------------------------------------|------------------------------------10-|
A#|-6--6--6--6------------------------------------|-------------7----7--------------10----|
F#|-5--5--5--5--5---5--5--------------7--7--7--7--|-7--7--7--7--7----7--------10-12-------|
C#|-3--3--3--3--5---5--5--5-----------5--5--5--5--|-5--5--5--5--0----0----12--------------|
G#|-3--3--3--3--3---3--3--3--0--3--4--5--5--5--5--|-5--5--5--5--0----0--------------------|
C#|-3--3--3--3---------------0--3--4--5--5--5--5--|-5--5--5--5--0----0--------------------|


D#|----------------------------------------------------|-----------------------------------------|
A#|-13-10---------------------------------12-12--10-12-|-12--------------------------------------|
F#|-------12-12-10----10------------------12-12--10-12-|-12--10----------------------------5--5--|
C#|----------------12-----1210---10-12-----------------|-----10-0--3----3--3---------------3--3--|
G#|---------------------------12-----------------------|--------0--1----1--1--0--1--2--3---3--3--|
C#|----------------------------------------------------|----------------------0--1--2--3---3--3--|


D#|-----------------------------------------------|------------------------------------|
A#|----------------------------------0------8--8--|-8--8--8--7--7----7----7--7---------|
F#|-5--5--------5--7--7--7--7--9--9--0------7--7--|-7--7--7-----7----7----7--7---------|
C#|-3--3-----------------------------0--5---5--5--|-5--5--5-----0----0----0--0--0--5---|
G#|-3--3--------3--5--5--5--5--7--7--0--5---5--5--|-5--5--5-----0----0----0--0--0------|
C#|-3--3--3--0--------------------------5---5--5--|-5--5--5-----0----0----0--0--0------|


D#|---------------------------------------------------|------------------------------|
A#|---------------------------------------------------|------------------------------|
F#|---------------------------------------------------|------------------------------|
C#|-5--5--5--3-----3-------------------------3--------|-5--5--3----------------------|
G#|-------------5------5-3----3--5--------------------|----------5-------------------|
C#|------------------------5--------0--0--0-----0--0--|--------------0-----0---7--6--|


D#|-----------------------------|--------------------------------------|-----------------------------|
A#|-----------------------------|--------------------------------------|-----------------------------|
F#|-----------------------------|--------------------------------------|-----------------------------|
C#|-----------------------------|--------------------------------------|-----------------------------|
G#|-----------------------------|--------------------------------------|-----------------------------|
C#|-6--5---3--0-----0--0--7--6--|-6--5---0--3---3--3--3----3--0--7--6--|-6--5---0--5-----5--0--7--6--|


D#|--------------------------------------|-----------------------------|--------------------------------------|
A#|--------------------------------------|-----------------------------|--------------------------------------|
F#|--------------------------------------|-----------------------------|--------------------------------------|
C#|--------------------------------------|-----------------------------|--------------------------------------|
G#|--------------------------------------|-----------------------------|--------------------------------------|
C#|-6--5---3--0---0--0--0----0--0--7--6--|-6--5---3--0-----0--0--7--6--|-6--5---0--3---3--3--3----3--0--7--6--|


D#|-----------------------------|--------------------------------------|------------------|
A#|-----------------------------|--------------------------------------|------------------|
F#|-----------------------------|--------------------------------------|------------------|
C#|-----------------------------|--------------------------------------|------------------|
G#|-----------------------------|--------------------------------------|------------------|
C#|-6--5---0--5-----5--0--7--6--|-6--5---3--0---0--0--0----0--0--7--6--|-6--5---3---------|


D#|---------------------------------|-----------------------------|----------------2----2---------|
A#|---------------------------------|-----------8-----8-----------|----------------3----3---------|
F#|---------------------------------|-----------7-----7-----------|----------------2----2---------|
C#|---------------------------------|-----------5-----5-----------|----------------0----0---------|
G#|---------------------------------|-----------5-----5--0--7--6--|-6--5------0----0----0---7--6--|
C#|------3---3--3--3----3--0--7--6--|-6--5---0--5-----5--0--7--6--|-6--5---0--0----0----0---7--6--|


D#|----------------2----2---------|------------------------------------------|-----------------------------------------------------------------|
A#|----------------3----3---------|------------------------------------------|--------------10-13----10-13----10-13----10-13----10-13----10-13-|
F#|----------------2----2---------|--------0--12-10---10------------------10-|-10--------12-------12-------12-------12-------12-------12-------|
C#|----------------0----0---------|--------0--------------1210---10-12-------|-----0--0--------------------------------------------------------|
G#|-6--5---3--0----0----0---7--6--|-6--5---0------------------12-------------|-----------------------------------------------------------------|
C#|-6--5---3--0----0----0---7--6--|-6--5-------------------------------------|-----------------------------------------------------------------|


D#|-------------------------------------------|----------------------13-15----15-15-15---|
A#|----10-13----10-13-13---13-13--13--13-13---|-13-13----------13-15---------------------|
F#|-12-------12-------------------------------|-------------14-------------0-------------|
C#|-------------------------------------------|-------10-0-------------------------------|
G#|-------------------------------------------|------------------------------------------|
C#|-------------------------------------------|------------------------------------------|


D#|-15-15----17-17-17-16-15-13----13-15-15--14--|-13----------13--------10---------------------------|
A#|----------------------------15---------------|---15-15--15----151310----13-10-----------10--------|
F#|---------------------------------------------|--------------------------------1212-1012-101210----|
C#|---------------------------------------------|-------------------------------------------------12-|
G#|---------------------------------------------|----------------------------------------------------|
C#|---------------------------------------------|----------------------------------------------------|


D#|----10-10-----101510------101510------131713------131713------|--------10-1310--10131015101310--101310--101310--1013101510|
A#|----10-101210-------------------131013------151315------151317|-15------------13--------------13------13------13----------|
F#|----10-10-----------121012------------------------------------|-----------------------------------------------------------|
C#|-12-----------------------------------------------------------|-----------------------------------------------------------|
G#|-12-----------------------------------------------------------|-----------------------------------------------------------|
C#|--------------------------------------------------------------|-----------------------------------------------------------|


D#|-1310--101310---13--1212-10-------------------------|---------20---20-20--20--20-20---|
A#|-----13------13-------------13--1212-10-------------|---------------------------------|
F#|----------------------------------------12--1010-9--|-12------------------------------|
C#|----------------------------------------------------|------0--------------------------|
G#|----------------------------------------------------|------0--------------------------|
C#|----------------------------------------------------|---------------------------------|


D#|-20-20-17-20-20--20--------|-----------------------------|------------------|------------------------|
A#|---------------------18----|-18--20-20-20---20---20--20--|-----------19-----|------19--19----19--19--|
F#|---------------------------|-----------------------------|------------------|------------------------|
C#|---------------------------|-----------------------------|-----0--0---------|------------------------|
G#|---------------------------|-----------------------------|-----0--0---------|------------------------|
C#|---------------------------|-----------------------------|------------------|------------------------|


D#|---------------------------------------|-----------------------------------------------|
A#|-----19--------------------------------|----------------------------------0------8--8--|
F#|---------------------------------5--5--|-5--5--------5--7--7--7--7--9--9--0------7--7--|
C#|---------3----3--3---------------3--3--|-3--3-----------------------------0--5---5--5--|
G#|---------1----1--1--0--1--2--3---3--3--|-3--3--------3--5--5--5--5--7--7--0--5---5--5--|
C#|--------------------0--1--2--3---3--3--|-3--3--3--0--------------------------5---5--5--|


D#|------------------------------------|--------------------------------------------------|
A#|-8--8--8--7--7----7-------------13--|-13-13-------------------10-10--------------------|
F#|-7--7--7-----7----7-------------12--|-12-12-1210---10---------10-10--------------------|
C#|-5--5--5-----0----0-----------------|-----------12-----1210---------------------1210---|
G#|-5--5--5-----0----0----0--0--0------|----------------------12----------0--0--0------12-|
C#|-5--5--5-----0----0----0--0---------|-------------------------------0--0--0--0---------|


D#|-----------------------------------------|-----------------------------------------------|
A#|-----------------------------------------|----------------------------------0------8--8--|
F#|-10-----0--------------------------5--5--|-5--5--------5--7--7--7--7--9--9--0------7--7--|
C#|----12--0--3----3--3---------------3--3--|-3--3-----------------------------0--5---5--5--|
G#|--------0--1----1--1--0--1--2--3---3--3--|-3--3--------3--5--5--5--5--7--7--0--5---5--5--|
C#|----------------------0--1--2--3---3--3--|-3--3--3--0--------------------------5---5--5--|


D#|------------------------------------|---------------------------------------------------|
A#|-8--8--8--7--3----3----3--3---------|---------------------------------------------------|
F#|-7--7--7-----2----2----2--2---------|---------------------------------------------------|
C#|-5--5--5-----0----0----0--0--0--5---|-5--5--5--3-----3----------3--3-----------3--------|
G#|-5--5--5-----0----0----0--0--0------|-------------5------5-3----------------------------|
C#|-5--5--5-----0----0----0--0--0------|------------------------5--------0--0--0-----0--0--|


D#|--------------------------------------------------|-------------------------------------------------|
A#|--------------------------------------------------|-------------------------------------------------|
F#|----------------7---7--7--7--7--7--7--7--10-10-10-|-10-5--5--5--7--9--9--9--9--9--9--9--9--7--7--7--|
C#|-5--5--3------------------------------------------|-------------------------------------------------|
G#|----------5--0--5---5--5--5--5--5--5--5--8--8--8--|-8--3--3--3--5--7--7--7--7--7--7--7--7--5--5--5--|
C#|--------------------------------------------------|-------------------------------------------------|


D#|-------------------------------------------------------|--------------------------------------|
A#|----------------------10-13----10-13----10-13----10-13-|----10-13----13-13----13--13-13-13-10-|
F#|-7---7--7-------10-12-------12-------12-------12-------|-12-------12--------------------------|
C#|-------------------------------------------------------|--------------------------------------|
G#|-5---5--5--0-------------------------------------------|--------------------------------------|
C#|-----------0-------------------------------------------|--------------------------------------|


D#|-15--15--------------------------------|---------------------------------------------|
A#|---------------------------------------|---------------------------------------------|
F#|---------------------------------------|---------------------------------------------|
C#|---------------------------------------|---------------------------------------------|
G#|-------------------5--4--3-------------|----------3-------------------3--3--0--3--5--|
C#|-----------0----0-----------7--6----6--|-0--3--5-----3----3--0--3--5-----------------|


D#|---------------------------------------|---------------------------------------------|
A#|---------------------------------------|---------------------------------------------|
F#|---------------------------------------|---------------------------------------------|
C#|-4---4-4-------------------------------|---------------------------------------------|
G#|-------------------5--4--3-------------|----------3--3----3--0--3--5--2--2--0--2--6--|
C#|-----------0----0-----------7--6----6--|-0--3--5-----3----3--0--3--5--2--2--0--2--6--|


D#|-------------|------2--------------|
A#|-------------|------3--------------|
F#|-------------|------2--------------|
C#|-------------|------0--------------|
G#|-1----0------|------0--------------|
C#|-1----0------|------0--------------|





Track 2: Dist Guitar 2

D#|--------|--------|--------|--------|--------|--------|--------|--------|--------|
A#|--------|--------|--------|--------|--------|--------|--------|--------|--------|
F#|--------|--------|--------|--------|--------|--------|--------|--------|--------|
C#|--------|--------|--------|--------|--------|--------|--------|--------|--------|
G#|--------|--------|--------|--------|--------|--------|--------|--------|--------|
C#|--------|--------|--------|--------|--------|--------|--------|--------|--------|


D#|--------|--------|--------|--------|--------|--------|--------|--------|--------|
A#|--------|--------|--------|--------|--------|--------|--------|--------|--------|
F#|--------|--------|--------|--------|--------|--------|--------|--------|--------|
C#|--------|--------|--------|--------|--------|--------|--------|--------|--------|
G#|--------|--------|--------|--------|--------|--------|--------|--------|--------|
C#|--------|--------|--------|--------|--------|--------|--------|--------|--------|


D#|--------|--------|--------|--------|--------|--------|--------|--------|--------|
A#|--------|--------|--------|--------|--------|--------|--------|--------|--------|
F#|--------|--------|--------|--------|--------|--------|--------|--------|--------|
C#|--------|--------|--------|--------|--------|--------|--------|--------|--------|
G#|--------|--------|--------|--------|--------|--------|--------|--------|--------|
C#|--------|--------|--------|--------|--------|--------|--------|--------|--------|


D#|--------|--------|--------|--------|--------|--------|--------|--------|--------|
A#|--------|--------|--------|--------|--------|--------|--------|--------|--------|
F#|--------|--------|--------|--------|--------|--------|--------|--------|--------|
C#|--------|--------|--------|--------|--------|--------|--------|--------|--------|
G#|--------|--------|--------|--------|--------|--------|--------|--------|--------|
C#|--------|--------|--------|--------|--------|--------|--------|--------|--------|


D#|--------|--------|--------|--------|--------|--------|--------|--------|--------|
A#|--------|--------|--------|--------|--------|--------|--------|--------|--------|
F#|--------|--------|--------|--------|--------|--------|--------|--------|--------|
C#|--------|--------|--------|--------|--------|--------|--------|--------|--------|
G#|--------|--------|--------|--------|--------|--------|--------|--------|--------|
C#|--------|--------|--------|--------|--------|--------|--------|--------|--------|


D#|--------|--------|--------|--------|-------------|-------------|------------------------|
A#|--------|--------|--------|--------|-------------|-------------|------------------------|
F#|--------|--------|--------|--------|-------------|------0------|------0-----0---0---0---|
C#|--------|--------|--------|--------|-------------|-------------|------------------------|
G#|--------|--------|--------|--------|-------------|-------------|------------------------|
C#|--------|--------|--------|--------|-------------|-------------|------------------------|


D#|------------------------|------------------------|------------------------------------|
A#|-------------13----13---|---------13----13--13---|------------------------------------|
F#|-0---0---0---12---------|-----0---12----12--12---|-12-121012-10------5----5-----------|
C#|------------------------|-----0------------------|-------------------3----3-----------|
G#|------------------------|------------------------|--------------3----3----3-----7--6--|
C#|------------------------|------------------------|--------------3----3----3--0--7--6--|


D#|---------------------------------|----------------2----2---------|-------------------------------|
A#|---------------------------------|----------------3----3---------|-------------------------------|
F#|----------------7----7-----------|----------------2----2---------|-------------------------------|
C#|----------------5----5-----------|----------------0----0---------|-------------------------------|
G#|-6--5---0--5----5----5-----7--6--|-6--5---3--0----0----0---7--6--|-6--5---3--0----0----0---7--6--|
C#|-6--5---0--5----5----5--0--7--6--|-6--5---3--0----0----0---7--6--|-6--5---3--0----0----0---7--6--|


D#|---------------------------------|---------------------------------|----------------2----2---------|
A#|---------------------------------|---------------------------------|----------------3----3---------|
F#|----------------5----5-----------|----------------7----7-----------|----------------2----2---------|
C#|----------------3----3-----------|----------------5----5-----------|----------------0----0---------|
G#|-6--5---0--3----3----3-----7--6--|-6--5---0--5----5----5-----7--6--|-6--5---3--0----0----0---7--6--|
C#|-6--5---0--3----3----3--0--7--6--|-6--5---0--5----5----5--0--7--6--|-6--5---3--0----0----0---7--6--|


D#|-------------------------------|---------------------------------|---------------------------------------------|
A#|-------------------------------|---------------------------------|---------------------------------------------|
F#|-------------------------------|----------------5----5-----------|-----------------------7---------------------|
C#|-------------------------------|----------------3----3-----------|-----------------------5---------------------|
G#|-6--5---3--0----0----0---7--6--|-6--5---0--3----3----3-----7--6--|-6--5---0--5--5--5--5--5---5--5--5--0--7--6--|
C#|-6--5---3--0----0----0---7--6--|-6--5---0--3----3----3--0--7--6--|-6--5---0--5--5--5--5--5---5--5--5--0--7--6--|


D#|-----------------------------------------|-----------------------------------------------|
A#|-----------------------------------6--6--|-6--6--6--6------------------------------------|
F#|-----------------------------------5--5--|-5--5--5--5--5---5--5--------------7--7--7--7--|
C#|-----------3----3--3---------------3--3--|-3--3--3--3--5---5--5--5-----------5--5--5--5--|
G#|-6--5---0--1----1--1--0--1--2--3---3--3--|-3--3--3--3--3---3--3--3--0--3--4--5--5--5--5--|
C#|-6--5---0-------------0--1--2--3---3--3--|-3--3--3--3---------------0--3--4--5--5--5--5--|


D#|------------------------------------------|-12-10---------------------------------------------|
A#|------------------10-10----------10-10-10-|-12-10----10-10-10--------10-10----------10-1310---|
F#|-7--7--7--7-------10-10----------10-10-10-|-12-10-12-10-10-10--------10-10----------10-----12-|
C#|-5--5--5--5-------------------------10----|-------12----------1210----------------------------|
G#|-5--5--5--5--0----------0--0--0-----------|-----------------------12-------0--0--0------------|
C#|-5--5--5--5--0----------0--0--0-----------|--------------------------------0--0--0------------|


D#|------------------|--------|--------|--------|--------|--------|--------|--------|
A#|-13-13--13--------|--------|--------|--------|--------|--------|--------|--------|
F#|----12--12--------|--------|--------|--------|--------|--------|--------|--------|
C#|------------------|--------|--------|--------|--------|--------|--------|--------|
G#|------------------|--------|--------|--------|--------|--------|--------|--------|
C#|------------------|--------|--------|--------|--------|--------|--------|--------|


D#|------------------------------------------|-------------------------------------------------|
A#|---------------------------------6--6--6--|-6--------------------------------------8--8--8--|
F#|---------------------------------5--5--5--|-5--5--5--5--5--5--5--5--5--------------7--7--7--|
C#|------3--3--3--3--3--------------3--3--3--|-3--3--3--3--5--5--5--5--5--------------5--5--5--|
G#|------1--1--1--1--1-----1--2--3--3--3--3--|-3--3--3--3--3--3--3--3--3-----3--4--5--5--5--5--|
C#|---------------------0--1--2--3--3--3--3--|-3--3--3--3-----------------0--3--4--5--5--5--5--|


D#|--------------------|--------|--------|--------|--------|--------|--------|--------|
A#|-8--8--8------------|--------|--------|--------|--------|--------|--------|--------|
F#|-7--7--7------------|--------|--------|--------|--------|--------|--------|--------|
C#|-5--5--5------------|--------|--------|--------|--------|--------|--------|--------|
G#|-5--5--5--0---------|--------|--------|--------|--------|--------|--------|--------|
C#|-5--5--5--0---------|--------|--------|--------|--------|--------|--------|--------|





Track 3: Untitled

G|--------|--------|--------|--------|--------|--------|--------|--------|--------|
D|--------|--------|--------|--------|--------|--------|--------|--------|--------|
A|--------|--------|--------|--------|--------|--------|--------|--------|--------|
E|--------|--------|--------|--------|--------|--------|--------|--------|--------|


G|--------|--------|--------|--------|--------|--------|--------|--------|--------|
D|--------|--------|--------|--------|--------|--------|--------|--------|--------|
A|--------|--------|--------|--------|--------|--------|--------|--------|--------|
E|--------|--------|--------|--------|--------|--------|--------|--------|--------|


G|--------|--------|--------|--------|--------|--------|--------|--------|--------|
D|--------|--------|--------|--------|--------|--------|--------|--------|--------|
A|--------|--------|--------|--------|--------|--------|--------|--------|--------|
E|--------|--------|--------|--------|--------|--------|--------|--------|--------|


G|--------|--------|--------|--------|--------|--------|--------|--------|--------|
D|--------|--------|--------|--------|--------|--------|--------|--------|--------|
A|--------|--------|--------|--------|--------|--------|--------|--------|--------|
E|--------|--------|--------|--------|--------|--------|--------|--------|--------|


G|--------|--------|--------|--------|--------|--------|--------|--------|--------|
D|--------|--------|--------|--------|--------|--------|--------|--------|--------|
A|--------|--------|--------|--------|--------|--------|--------|--------|--------|
E|--------|--------|--------|--------|--------|--------|--------|--------|--------|


G|--------|--------|--------|--------|--------|--------|--------|--------|--------|
D|--------|--------|--------|--------|--------|--------|--------|--------|--------|
A|--------|--------|--------|--------|--------|--------|--------|--------|--------|
E|--------|--------|--------|--------|--------|--------|--------|--------|--------|


G|--------|--------|--------|--------|--------|--------|--------|--------|--------|
D|--------|--------|--------|--------|--------|--------|--------|--------|--------|
A|--------|--------|--------|--------|--------|--------|--------|--------|--------|
E|--------|--------|--------|--------|--------|--------|--------|--------|--------|


G|--------|--------|--------|--------|--------|--------|--------|--------|--------|
D|--------|--------|--------|--------|--------|--------|--------|--------|--------|
A|--------|--------|--------|--------|--------|--------|--------|--------|--------|
E|--------|--------|--------|--------|--------|--------|--------|--------|--------|


G|--------|--------|--------|--------|--------|--------|--------|--------|--------|
D|--------|--------|--------|--------|--------|--------|--------|--------|--------|
A|--------|--------|--------|--------|--------|--------|--------|--------|--------|
E|--------|--------|--------|--------|--------|--------|--------|--------|--------|


G|--------|--------|--------|--------|--------|
D|--------|--------|--------|--------|--------|
A|--------|--------|--------|--------|--------|
E|--------|--------|--------|--------|--------|